ISO-10303-21;
HEADER;
FILE_DESCRIPTION (( 'STEP AP203' ),
    '1' );
FILE_NAME ('e4a5.STEP',
    '2022-07-08T14:47:20',
    ( '' ),
    ( '' ),
    'SwSTEP 2.0',
    'SolidWorks 2019',
    '' );
FILE_SCHEMA (( 'CONFIG_CONTROL_DESIGN' ));
ENDSEC;

DATA;
#1 = DATE_AND_TIME ( #291, #353 ) ;
#2 = CARTESIAN_POINT ( 'NONE',  ( 0.000000000000000000, 0.000000000000000000, 130.0000000000000000 ) ) ;
#3 = ORIENTED_EDGE ( 'NONE', *, *, #16, .F. ) ;
#4 = CC_DESIGN_DATE_AND_TIME_ASSIGNMENT ( #1, #31, ( #226 ) ) ;
#5 = DIRECTION ( 'NONE',  ( 1.000000000000000000, 0.000000000000000000, 0.000000000000000000 ) ) ;
#6 = CARTESIAN_POINT ( 'NONE',  ( 0.000000000000000000, 0.000000000000000000, 130.0000000000000000 ) ) ;
#7 = AXIS2_PLACEMENT_3D ( 'NONE', #185, #79, #188 ) ;
#8 = FACE_OUTER_BOUND ( 'NONE', #72, .T. ) ;
#9 = ORIENTED_EDGE ( 'NONE', *, *, #329, .T. ) ;
#10 = DIRECTION ( 'NONE',  ( 1.000000000000000000, 0.000000000000000000, 0.000000000000000000 ) ) ;
#11 = CYLINDRICAL_SURFACE ( 'NONE', #94, 5.000000000000000000 ) ;
#12 = EDGE_LOOP ( 'NONE', ( #369, #42 ) ) ;
#13 = CC_DESIGN_APPROVAL ( #124, ( #29 ) ) ;
#14 = ORIENTED_EDGE ( 'NONE', *, *, #242, .T. ) ;
#15 = CC_DESIGN_PERSON_AND_ORGANIZATION_ASSIGNMENT ( #201, #114, ( #29 ) ) ;
#16 = EDGE_CURVE ( 'NONE', #362, #234, #254, .T. ) ;
#17 = DIRECTION ( 'NONE',  ( 0.000000000000000000, 0.000000000000000000, 1.000000000000000000 ) ) ;
#18 = CARTESIAN_POINT ( 'NONE',  ( 5.000000000000000000, 6.123233995736766282E-16, 130.0000000000000000 ) ) ;
#19 = EDGE_CURVE ( 'NONE', #132, #151, #186, .T. ) ;
#20 = PERSON_AND_ORGANIZATION ( #78, #95 ) ;
#21 = DIRECTION ( 'NONE',  ( 1.000000000000000000, 0.000000000000000000, 0.000000000000000000 ) ) ;
#22 = AXIS2_PLACEMENT_3D ( 'NONE', #259, #371, #334 ) ;
#23 = CIRCLE ( 'NONE', #89, 0.5000000000000004441 ) ;
#24 = ORIENTED_EDGE ( 'NONE', *, *, #314, .F. ) ;
#25 = CARTESIAN_POINT ( 'NONE',  ( 0.000000000000000000, 0.000000000000000000, 5.500000000000005329 ) ) ;
#26 = APPLICATION_PROTOCOL_DEFINITION ( 'international standard', 'config_control_design', 1994, #141 ) ;
#27 = ORIENTED_EDGE ( 'NONE', *, *, #39, .T. ) ;
#28 = DIRECTION ( 'NONE',  ( 1.000000000000000000, 0.000000000000000000, 0.000000000000000000 ) ) ;
#29 = PRODUCT_DEFINITION_FORMATION_WITH_SPECIFIED_SOURCE ( 'LIBOVOLNÝ', '', #236, .NOT_KNOWN. ) ;
#30 = COORDINATED_UNIVERSAL_TIME_OFFSET ( 1, 0, .AHEAD. ) ;
#31 = DATE_TIME_ROLE ( 'classification_date' ) ;
#32 = FACE_OUTER_BOUND ( 'NONE', #361, .T. ) ;
#33 = CIRCLE ( 'NONE', #87, 5.500000000000000000 ) ;
#34 = LINE ( 'NONE', #310, #273 ) ;
#35 = CYLINDRICAL_SURFACE ( 'NONE', #339, 3.250000000000000444 ) ;
#36 = ORIENTED_EDGE ( 'NONE', *, *, #321, .T. ) ;
#37 = CARTESIAN_POINT ( 'NONE',  ( -5.500000000000000000, 6.735557395310442023E-16, 5.000000000000002665 ) ) ;
#38 = AXIS2_PLACEMENT_3D ( 'NONE', #221, #279, #341 ) ;
#39 = EDGE_CURVE ( 'NONE', #362, #323, #204, .T. ) ;
#40 = DIRECTION ( 'NONE',  ( 0.000000000000000000, 0.000000000000000000, 1.000000000000000000 ) ) ;
#41 = CARTESIAN_POINT ( 'NONE',  ( 5.000000000000000000, 6.123233995736766282E-16, 5.500000000000005329 ) ) ;
#42 = ORIENTED_EDGE ( 'NONE', *, *, #117, .T. ) ;
#43 = DIRECTION ( 'NONE',  ( -1.000000000000000000, 0.000000000000000000, 0.000000000000000000 ) ) ;
#44 = CC_DESIGN_PERSON_AND_ORGANIZATION_ASSIGNMENT ( #198, #60, ( #226 ) ) ;
#45 = VERTEX_POINT ( 'NONE', #18 ) ;
#46 = AXIS2_PLACEMENT_3D ( 'NONE', #343, #167, #238 ) ;
#47 = DIRECTION ( 'NONE',  ( 0.000000000000000000, 0.000000000000000000, -1.000000000000000000 ) ) ;
#48 = DIRECTION ( 'NONE',  ( 0.000000000000000000, 0.000000000000000000, 1.000000000000000000 ) ) ;
#49 = CARTESIAN_POINT ( 'NONE',  ( 0.000000000000000000, 0.000000000000000000, 0.000000000000000000 ) ) ;
#50 = DIRECTION ( 'NONE',  ( 0.000000000000000000, 0.000000000000000000, 1.000000000000000000 ) ) ;
#51 = PLANE ( 'NONE',  #146 ) ;
#52 = ORIENTED_EDGE ( 'NONE', *, *, #121, .T. ) ;
#53 = EDGE_CURVE ( 'NONE', #120, #45, #67, .T. ) ;
#54 = ORIENTED_EDGE ( 'NONE', *, *, #117, .F. ) ;
#55 = COORDINATED_UNIVERSAL_TIME_OFFSET ( 1, 0, .AHEAD. ) ;
#56 = EDGE_CURVE ( 'NONE', #151, #274, #105, .T. ) ;
#57 = DIRECTION ( 'NONE',  ( 0.000000000000000000, 0.000000000000000000, 1.000000000000000000 ) ) ;
#58 = AXIS2_PLACEMENT_3D ( 'NONE', #49, #158, #366 ) ;
#59 = TOROIDAL_SURFACE ( 'NONE', #326, 5.500000000000000000, 0.5000000000000000000 ) ;
#60 = PERSON_AND_ORGANIZATION_ROLE ( 'classification_officer' ) ;
#61 = CARTESIAN_POINT ( 'NONE',  ( 0.000000000000000000, 0.000000000000000000, 5.000000000000000000 ) ) ;
#62 = DATE_AND_TIME ( #237, #197 ) ;
#63 = FACE_OUTER_BOUND ( 'NONE', #108, .T. ) ;
#64 = CARTESIAN_POINT ( 'NONE',  ( -8.000000000000000000, 0.000000000000000000, 5.000000000000000000 ) ) ;
#65 = DIRECTION ( 'NONE',  ( -0.000000000000000000, -0.000000000000000000, -1.000000000000000000 ) ) ;
#66 = LINE ( 'NONE', #175, #380 ) ;
#67 = CIRCLE ( 'NONE', #7, 5.000000000000000000 ) ;
#68 = DIRECTION ( 'NONE',  ( 1.000000000000000000, 0.000000000000000000, -0.000000000000000000 ) ) ;
#69 = ORIENTED_EDGE ( 'NONE', *, *, #183, .T. ) ;
#70 = CC_DESIGN_PERSON_AND_ORGANIZATION_ASSIGNMENT ( #191, #315, ( #29 ) ) ;
#71 = FACE_BOUND ( 'NONE', #101, .T. ) ;
#72 = EDGE_LOOP ( 'NONE', ( #3, #27, #374, #99 ) ) ;
#73 = VECTOR ( 'NONE', #233, 1000.000000000000000 ) ;
#74 = DIRECTION ( 'NONE',  ( 1.000000000000000000, 0.000000000000000000, 0.000000000000000000 ) ) ;
#75 = DIRECTION ( 'NONE',  ( 1.000000000000000000, 0.000000000000000000, 0.000000000000000000 ) ) ;
#76 = EDGE_CURVE ( 'NONE', #164, #274, #331, .T. ) ;
#77 = DIRECTION ( 'NONE',  ( 1.000000000000000000, 0.000000000000000000, 0.000000000000000000 ) ) ;
#78 = PERSON ( 'NEURÈENÝ', 'NEURÈENÝ', 'NEURÈENÝ', ('NEURÈENÝ'), ('NEURÈENÝ'), ('NEURÈENÝ') ) ;
#79 = DIRECTION ( 'NONE',  ( 0.000000000000000000, 0.000000000000000000, 1.000000000000000000 ) ) ;
#80 =( NAMED_UNIT ( * ) PLANE_ANGLE_UNIT ( ) SI_UNIT ( $, .RADIAN. ) );
#81 = APPROVAL_PERSON_ORGANIZATION ( #283, #319, #138 ) ;
#82 = CALENDAR_DATE ( 2022, 8, 7 ) ;
#83 = DIRECTION ( 'NONE',  ( -0.000000000000000000, -0.000000000000000000, -1.000000000000000000 ) ) ;
#84 = DIRECTION ( 'NONE',  ( -0.000000000000000000, -0.000000000000000000, -1.000000000000000000 ) ) ;
#85 = EDGE_CURVE ( 'NONE', #274, #151, #219, .T. ) ;
#86 = APPROVAL_ROLE ( '' ) ;
#87 = AXIS2_PLACEMENT_3D ( 'NONE', #61, #83, #170 ) ;
#88 = DIRECTION ( 'NONE',  ( 0.000000000000000000, 0.000000000000000000, 1.000000000000000000 ) ) ;
#89 = AXIS2_PLACEMENT_3D ( 'NONE', #109, #282, #128 ) ;
#90 = ORIENTED_EDGE ( 'NONE', *, *, #227, .T. ) ;
#91 = APPROVAL_DATE_TIME ( #62, #124 ) ;
#92 = DIRECTION ( 'NONE',  ( 1.000000000000000000, 0.000000000000000000, 0.000000000000000000 ) ) ;
#93 = EDGE_LOOP ( 'NONE', ( #350, #123, #143, #54 ) ) ;
#94 = AXIS2_PLACEMENT_3D ( 'NONE', #213, #207, #205 ) ;
#95 = ORGANIZATION ( 'NEURÈENÝ', 'NEURÈENÝ', '' ) ;
#96 = EDGE_CURVE ( 'NONE', #304, #378, #144, .T. ) ;
#97 = ORIENTED_EDGE ( 'NONE', *, *, #329, .F. ) ;
#98 = CARTESIAN_POINT ( 'NONE',  ( 0.000000000000000000, 0.000000000000000000, 130.0000000000000000 ) ) ;
#99 = ORIENTED_EDGE ( 'NONE', *, *, #360, .F. ) ;
#100 = AXIS2_PLACEMENT_3D ( 'NONE', #130, #103, #75 ) ;
#101 = EDGE_LOOP ( 'NONE', ( #243, #367 ) ) ;
#102 = APPROVAL ( #140, 'NEURÈENÝ' ) ;
#103 = DIRECTION ( 'NONE',  ( -0.000000000000000000, -0.000000000000000000, -1.000000000000000000 ) ) ;
#104 = CIRCLE ( 'NONE', #296, 5.000000000000000000 ) ;
#105 = CIRCLE ( 'NONE', #22, 3.250000000000000444 ) ;
#106 = FACE_OUTER_BOUND ( 'NONE', #277, .T. ) ;
#107 = ADVANCED_FACE ( 'NONE', ( #106 ), #159, .T. ) ;
#108 = EDGE_LOOP ( 'NONE', ( #180, #69, #182, #181 ) ) ;
#109 = CARTESIAN_POINT ( 'NONE',  ( 5.500000000000000000, 0.000000000000000000, 5.500000000000005329 ) ) ;
#110 = ORIENTED_EDGE ( 'NONE', *, *, #56, .T. ) ;
#111 = AXIS2_PLACEMENT_3D ( 'NONE', #112, #373, #43 ) ;
#112 = CARTESIAN_POINT ( 'NONE',  ( 0.000000000000000000, 0.000000000000000000, 5.000000000000000000 ) ) ;
#113 = FACE_OUTER_BOUND ( 'NONE', #93, .T. ) ;
#114 = PERSON_AND_ORGANIZATION_ROLE ( 'creator' ) ;
#115 = DIRECTION ( 'NONE',  ( 1.000000000000000000, 0.000000000000000000, -0.000000000000000000 ) ) ;
#116 = APPROVAL_STATUS ( 'not_yet_approved' ) ;
#117 = EDGE_CURVE ( 'NONE', #323, #157, #33, .T. ) ;
#118 = CYLINDRICAL_SURFACE ( 'NONE', #46, 8.000000000000000000 ) ;
#119 = PLANE ( 'NONE',  #301 ) ;
#120 = VERTEX_POINT ( 'NONE', #145 ) ;
#121 = EDGE_CURVE ( 'NONE', #120, #362, #34, .T. ) ;
#122 = DIRECTION ( 'NONE',  ( 0.000000000000000000, 0.000000000000000000, 1.000000000000000000 ) ) ;
#123 = ORIENTED_EDGE ( 'NONE', *, *, #321, .F. ) ;
#124 = APPROVAL ( #116, 'NEURÈENÝ' ) ;
#125 = VERTEX_POINT ( 'NONE', #263 ) ;
#126 = ADVANCED_FACE ( 'NONE', ( #113 ), #280, .F. ) ;
#127 = CC_DESIGN_APPROVAL ( #319, ( #226 ) ) ;
#128 = DIRECTION ( 'NONE',  ( 0.000000000000000000, 0.000000000000000000, -1.000000000000000000 ) ) ;
#129 = PRODUCT_DEFINITION ( 'NEZNÁMÝ', '', #29, #246 ) ;
#130 = CARTESIAN_POINT ( 'NONE',  ( 0.000000000000000000, 0.000000000000000000, 0.000000000000000000 ) ) ;
#131 = DIRECTION ( 'NONE',  ( 1.000000000000000000, 0.000000000000000000, 0.000000000000000000 ) ) ;
#132 = VERTEX_POINT ( 'NONE', #268 ) ;
#133 = AXIS2_PLACEMENT_3D ( 'NONE', #290, #88, #92 ) ;
#134 = ORIENTED_EDGE ( 'NONE', *, *, #53, .T. ) ;
#135 = SECURITY_CLASSIFICATION_LEVEL ( 'unclassified' ) ;
#136 = CARTESIAN_POINT ( 'NONE',  ( -3.250000000000000444, 0.000000000000000000, 130.0000000000000000 ) ) ;
#137 = AXIS2_PLACEMENT_3D ( 'NONE', #240, #272, #10 ) ;
#138 = APPROVAL_ROLE ( '' ) ;
#139 = CARTESIAN_POINT ( 'NONE',  ( 0.000000000000000000, 0.000000000000000000, 5.500000000000005329 ) ) ;
#140 = APPROVAL_STATUS ( 'not_yet_approved' ) ;
#141 = APPLICATION_CONTEXT ( 'configuration controlled 3d designs of mechanical parts and assemblies' ) ;
#142 = EDGE_CURVE ( 'NONE', #45, #120, #104, .T. ) ;
#143 = ORIENTED_EDGE ( 'NONE', *, *, #360, .T. ) ;
#144 = CIRCLE ( 'NONE', #58, 8.000000000000000000 ) ;
#145 = CARTESIAN_POINT ( 'NONE',  ( -5.000000000000000000, 0.000000000000000000, 130.0000000000000000 ) ) ;
#146 = AXIS2_PLACEMENT_3D ( 'NONE', #187, #300, #275 ) ;
#147 = DIRECTION ( 'NONE',  ( 0.000000000000000000, 0.000000000000000000, 1.000000000000000000 ) ) ;
#148 = EDGE_LOOP ( 'NONE', ( #9, #211 ) ) ;
#149 = DIRECTION ( 'NONE',  ( 1.000000000000000000, 0.000000000000000000, 0.000000000000000000 ) ) ;
#150 = AXIS2_PLACEMENT_3D ( 'NONE', #354, #40, #177 ) ;
#151 = VERTEX_POINT ( 'NONE', #379 ) ;
#152 = CARTESIAN_POINT ( 'NONE',  ( 0.000000000000000000, 0.000000000000000000, 0.000000000000000000 ) ) ;
#153 = ORIENTED_EDGE ( 'NONE', *, *, #85, .T. ) ;
#154 = DIRECTION ( 'NONE',  ( 0.000000000000000000, 0.000000000000000000, -1.000000000000000000 ) ) ;
#155 = CIRCLE ( 'NONE', #137, 8.000000000000000000 ) ;
#156 = APPLICATION_PROTOCOL_DEFINITION ( 'international standard', 'config_control_design', 1994, #299 ) ;
#157 = VERTEX_POINT ( 'NONE', #193 ) ;
#158 = DIRECTION ( 'NONE',  ( 0.000000000000000000, 0.000000000000000000, 1.000000000000000000 ) ) ;
#159 = CYLINDRICAL_SURFACE ( 'NONE', #38, 5.000000000000000000 ) ;
#160 = CIRCLE ( 'NONE', #150, 8.000000000000000000 ) ;
#161 = LOCAL_TIME ( 16, 47, 20.00000000000000000, #30 ) ;
#162 = CARTESIAN_POINT ( 'NONE',  ( -8.000000000000000000, 0.000000000000000000, 5.000000000000000000 ) ) ;
#163 = DIRECTION ( 'NONE',  ( 1.224646799147353207E-16, 1.000000000000000000, -0.000000000000000000 ) ) ;
#164 = VERTEX_POINT ( 'NONE', #349 ) ;
#165 = SHAPE_DEFINITION_REPRESENTATION ( #364, #176 ) ;
#166 = DIRECTION ( 'NONE',  ( 1.000000000000000000, 0.000000000000000000, 0.000000000000000000 ) ) ;
#167 = DIRECTION ( 'NONE',  ( -0.000000000000000000, -0.000000000000000000, -1.000000000000000000 ) ) ;
#168 = EDGE_CURVE ( 'NONE', #164, #132, #311, .T. ) ;
#169 = CALENDAR_DATE ( 2022, 8, 7 ) ;
#170 = DIRECTION ( 'NONE',  ( 1.000000000000000000, 0.000000000000000000, 0.000000000000000000 ) ) ;
#171 = ORIENTED_EDGE ( 'NONE', *, *, #121, .F. ) ;
#172 = AXIS2_PLACEMENT_3D ( 'NONE', #98, #239, #351 ) ;
#173 = CARTESIAN_POINT ( 'NONE',  ( 0.000000000000000000, 0.000000000000000000, 5.500000000000005329 ) ) ;
#174 = ORIENTED_EDGE ( 'NONE', *, *, #168, .T. ) ;
#175 = CARTESIAN_POINT ( 'NONE',  ( 5.000000000000000000, 6.123233995736766282E-16, 130.0000000000000000 ) ) ;
#176 = ADVANCED_BREP_SHAPE_REPRESENTATION ( 'e4a5', ( #252, #297 ), #281 ) ;
#177 = DIRECTION ( 'NONE',  ( 1.000000000000000000, 0.000000000000000000, 0.000000000000000000 ) ) ;
#178 = ADVANCED_FACE ( 'NONE', ( #63 ), #118, .T. ) ;
#179 = CYLINDRICAL_SURFACE ( 'NONE', #172, 3.250000000000000444 ) ;
#180 = ORIENTED_EDGE ( 'NONE', *, *, #212, .F. ) ;
#181 = ORIENTED_EDGE ( 'NONE', *, *, #200, .F. ) ;
#182 = ORIENTED_EDGE ( 'NONE', *, *, #96, .T. ) ;
#183 = EDGE_CURVE ( 'NONE', #125, #304, #288, .T. ) ;
#184 = FACE_BOUND ( 'NONE', #12, .T. ) ;
#185 = CARTESIAN_POINT ( 'NONE',  ( 0.000000000000000000, 0.000000000000000000, 130.0000000000000000 ) ) ;
#186 = LINE ( 'NONE', #136, #352 ) ;
#187 = CARTESIAN_POINT ( 'NONE',  ( 0.000000000000000000, 0.000000000000000000, 5.000000000000000000 ) ) ;
#188 = DIRECTION ( 'NONE',  ( 1.000000000000000000, 0.000000000000000000, 0.000000000000000000 ) ) ;
#189 = VECTOR ( 'NONE', #202, 1000.000000000000000 ) ;
#190 = DIRECTION ( 'NONE',  ( -1.000000000000000000, 1.224646799147351482E-16, 0.000000000000000000 ) ) ;
#191 = PERSON_AND_ORGANIZATION ( #78, #95 ) ;
#192 = CC_DESIGN_PERSON_AND_ORGANIZATION_ASSIGNMENT ( #20, #365, ( #236 ) ) ;
#193 = CARTESIAN_POINT ( 'NONE',  ( 5.500000000000000000, 0.000000000000000000, 5.000000000000002665 ) ) ;
#194 = APPROVAL_DATE_TIME ( #312, #102 ) ;
#195 = ADVANCED_FACE ( 'NONE', ( #316, #32 ), #318, .T. ) ;
#196 = CLOSED_SHELL ( 'NONE', ( #305, #330, #107, #178, #216, #347, #293, #278, #195, #126, #256 ) ) ;
#197 = LOCAL_TIME ( 16, 47, 20.00000000000000000, #375 ) ;
#198 = PERSON_AND_ORGANIZATION ( #78, #95 ) ;
#199 = LINE ( 'NONE', #64, #73 ) ;
#200 = EDGE_CURVE ( 'NONE', #355, #378, #199, .T. ) ;
#201 = PERSON_AND_ORGANIZATION ( #78, #95 ) ;
#202 = DIRECTION ( 'NONE',  ( -0.000000000000000000, -0.000000000000000000, -1.000000000000000000 ) ) ;
#203 = CARTESIAN_POINT ( 'NONE',  ( 8.000000000000000000, 9.797174393178825657E-16, 5.000000000000000000 ) ) ;
#204 = CIRCLE ( 'NONE', #333, 0.5000000000000004441 ) ;
#205 = DIRECTION ( 'NONE',  ( -1.000000000000000000, 0.000000000000000000, 0.000000000000000000 ) ) ;
#206 = CC_DESIGN_APPROVAL ( #102, ( #129 ) ) ;
#207 = DIRECTION ( 'NONE',  ( -0.000000000000000000, -0.000000000000000000, -1.000000000000000000 ) ) ;
#208 = CC_DESIGN_PERSON_AND_ORGANIZATION_ASSIGNMENT ( #265, #342, ( #129 ) ) ;
#209 = EDGE_LOOP ( 'NONE', ( #358, #269 ) ) ;
#210 = DIRECTION ( 'NONE',  ( 0.000000000000000000, 0.000000000000000000, 1.000000000000000000 ) ) ;
#211 = ORIENTED_EDGE ( 'NONE', *, *, #212, .T. ) ;
#212 = EDGE_CURVE ( 'NONE', #125, #355, #260, .T. ) ;
#213 = CARTESIAN_POINT ( 'NONE',  ( 0.000000000000000000, 0.000000000000000000, 130.0000000000000000 ) ) ;
#214 = CIRCLE ( 'NONE', #225, 5.000000000000000000 ) ;
#215 = ORIENTED_EDGE ( 'NONE', *, *, #19, .T. ) ;
#216 = ADVANCED_FACE ( 'NONE', ( #292 ), #270, .T. ) ;
#217 = ORIENTED_EDGE ( 'NONE', *, *, #314, .T. ) ;
#218 = CARTESIAN_POINT ( 'NONE',  ( -5.000000000000000000, 0.000000000000000000, 5.500000000000005329 ) ) ;
#219 = CIRCLE ( 'NONE', #100, 3.250000000000000444 ) ;
#220 = CARTESIAN_POINT ( 'NONE',  ( 0.000000000000000000, 0.000000000000000000, 5.000000000000000000 ) ) ;
#221 = CARTESIAN_POINT ( 'NONE',  ( 0.000000000000000000, 0.000000000000000000, 130.0000000000000000 ) ) ;
#222 = ORIENTED_EDGE ( 'NONE', *, *, #142, .F. ) ;
#223 =( LENGTH_UNIT ( ) NAMED_UNIT ( * ) SI_UNIT ( .MILLI., .METRE. ) );
#224 = EDGE_LOOP ( 'NONE', ( #322, #328 ) ) ;
#225 = AXIS2_PLACEMENT_3D ( 'NONE', #173, #147, #149 ) ;
#226 = SECURITY_CLASSIFICATION ( '', '', #135 ) ;
#227 = EDGE_CURVE ( 'NONE', #378, #304, #160, .T. ) ;
#228 = DATE_AND_TIME ( #82, #161 ) ;
#229 = PRODUCT_RELATED_PRODUCT_CATEGORY ( 'detail', '', ( #236 ) ) ;
#230 = CALENDAR_DATE ( 2022, 8, 7 ) ;
#231 = DIRECTION ( 'NONE',  ( 1.000000000000000000, 0.000000000000000000, 0.000000000000000000 ) ) ;
#232 = DATE_TIME_ROLE ( 'creation_date' ) ;
#233 = DIRECTION ( 'NONE',  ( -0.000000000000000000, -0.000000000000000000, -1.000000000000000000 ) ) ;
#234 = VERTEX_POINT ( 'NONE', #41 ) ;
#235 = APPROVAL_PERSON_ORGANIZATION ( #348, #102, #262 ) ;
#236 = PRODUCT ( 'e4a5', 'e4a5', '', ( #253 ) ) ;
#237 = CALENDAR_DATE ( 2022, 8, 7 ) ;
#238 = DIRECTION ( 'NONE',  ( -1.000000000000000000, 0.000000000000000000, 0.000000000000000000 ) ) ;
#239 = DIRECTION ( 'NONE',  ( 0.000000000000000000, 0.000000000000000000, -1.000000000000000000 ) ) ;
#240 = CARTESIAN_POINT ( 'NONE',  ( 0.000000000000000000, 0.000000000000000000, 5.000000000000000000 ) ) ;
#241 = ORIENTED_EDGE ( 'NONE', *, *, #183, .F. ) ;
#242 = EDGE_CURVE ( 'NONE', #132, #164, #346, .T. ) ;
#243 = ORIENTED_EDGE ( 'NONE', *, *, #56, .F. ) ;
#244 = FACE_OUTER_BOUND ( 'NONE', #209, .T. ) ;
#245 = EDGE_LOOP ( 'NONE', ( #306, #174, #215, #110 ) ) ;
#246 = DESIGN_CONTEXT ( 'detailed design', #141, 'design' ) ;
#247 = CARTESIAN_POINT ( 'NONE',  ( 3.250000000000000444, 3.980102097228898231E-16, 0.000000000000000000 ) ) ;
#248 = AXIS2_PLACEMENT_3D ( 'NONE', #286, #345, #28 ) ;
#249 = APPROVAL_PERSON_ORGANIZATION ( #285, #124, #86 ) ;
#250 = ORIENTED_EDGE ( 'NONE', *, *, #200, .T. ) ;
#251 = CARTESIAN_POINT ( 'NONE',  ( -8.000000000000000000, 0.000000000000000000, 0.000000000000000000 ) ) ;
#252 = MANIFOLD_SOLID_BREP ( 'Odebrat vysunutím3', #196 ) ;
#253 = MECHANICAL_CONTEXT ( 'NONE', #299, 'mechanical' ) ;
#254 = CIRCLE ( 'NONE', #287, 5.000000000000000000 ) ;
#255 = CIRCLE ( 'NONE', #261, 5.500000000000000000 ) ;
#256 = ADVANCED_FACE ( 'NONE', ( #294 ), #35, .F. ) ;
#257 = CARTESIAN_POINT ( 'NONE',  ( -5.500000000000000000, 6.735557395310442023E-16, 5.500000000000005329 ) ) ;
#258 = DATE_AND_TIME ( #169, #340 ) ;
#259 = CARTESIAN_POINT ( 'NONE',  ( 0.000000000000000000, 0.000000000000000000, 0.000000000000000000 ) ) ;
#260 = CIRCLE ( 'NONE', #248, 8.000000000000000000 ) ;
#261 = AXIS2_PLACEMENT_3D ( 'NONE', #220, #368, #131 ) ;
#262 = APPROVAL_ROLE ( '' ) ;
#263 = CARTESIAN_POINT ( 'NONE',  ( 8.000000000000000000, 9.797174393178825657E-16, 5.000000000000000000 ) ) ;
#264 = EDGE_LOOP ( 'NONE', ( #14, #313, #153, #295 ) ) ;
#265 = PERSON_AND_ORGANIZATION ( #78, #95 ) ;
#266 = DIRECTION ( 'NONE',  ( 0.000000000000000000, 0.000000000000000000, 1.000000000000000000 ) ) ;
#267 = ORIENTED_EDGE ( 'NONE', *, *, #16, .T. ) ;
#268 = CARTESIAN_POINT ( 'NONE',  ( -3.250000000000000444, 0.000000000000000000, 130.0000000000000000 ) ) ;
#269 = ORIENTED_EDGE ( 'NONE', *, *, #96, .F. ) ;
#270 = CYLINDRICAL_SURFACE ( 'NONE', #111, 8.000000000000000000 ) ;
#271 = AXIS2_PLACEMENT_3D ( 'NONE', #139, #266, #231 ) ;
#272 = DIRECTION ( 'NONE',  ( 0.000000000000000000, 0.000000000000000000, 1.000000000000000000 ) ) ;
#273 = VECTOR ( 'NONE', #84, 1000.000000000000000 ) ;
#274 = VERTEX_POINT ( 'NONE', #247 ) ;
#275 = DIRECTION ( 'NONE',  ( 1.000000000000000000, 0.000000000000000000, -0.000000000000000000 ) ) ;
#276 = ORIENTED_EDGE ( 'NONE', *, *, #142, .T. ) ;
#277 = EDGE_LOOP ( 'NONE', ( #222, #217, #36, #171 ) ) ;
#278 = ADVANCED_FACE ( 'NONE', ( #298 ), #11, .T. ) ;
#279 = DIRECTION ( 'NONE',  ( -0.000000000000000000, -0.000000000000000000, -1.000000000000000000 ) ) ;
#280 = TOROIDAL_SURFACE ( 'NONE', #271, 5.500000000000000000, 0.5000000000000000000 ) ;
#281 =( GEOMETRIC_REPRESENTATION_CONTEXT ( 3 ) GLOBAL_UNCERTAINTY_ASSIGNED_CONTEXT ( ( #344 ) ) GLOBAL_UNIT_ASSIGNED_CONTEXT ( ( #223, #80, #332 ) ) REPRESENTATION_CONTEXT ( 'NONE', 'WORKASPACE' ) );
#282 = DIRECTION ( 'NONE',  ( 0.000000000000000000, -1.000000000000000000, 0.000000000000000000 ) ) ;
#283 = PERSON_AND_ORGANIZATION ( #78, #95 ) ;
#284 = DIRECTION ( 'NONE',  ( 0.000000000000000000, 0.000000000000000000, -1.000000000000000000 ) ) ;
#285 = PERSON_AND_ORGANIZATION ( #78, #95 ) ;
#286 = CARTESIAN_POINT ( 'NONE',  ( 0.000000000000000000, 0.000000000000000000, 5.000000000000000000 ) ) ;
#287 = AXIS2_PLACEMENT_3D ( 'NONE', #336, #50, #21 ) ;
#288 = LINE ( 'NONE', #203, #189 ) ;
#289 = APPROVAL_DATE_TIME ( #258, #319 ) ;
#290 = CARTESIAN_POINT ( 'NONE',  ( 0.000000000000000000, 0.000000000000000000, 130.0000000000000000 ) ) ;
#291 = CALENDAR_DATE ( 2022, 8, 7 ) ;
#292 = FACE_OUTER_BOUND ( 'NONE', #357, .T. ) ;
#293 = ADVANCED_FACE ( 'NONE', ( #71, #244 ), #119, .F. ) ;
#294 = FACE_OUTER_BOUND ( 'NONE', #245, .T. ) ;
#295 = ORIENTED_EDGE ( 'NONE', *, *, #19, .F. ) ;
#296 = AXIS2_PLACEMENT_3D ( 'NONE', #2, #57, #166 ) ;
#297 = AXIS2_PLACEMENT_3D ( 'NONE', #335, #17, #74 ) ;
#298 = FACE_OUTER_BOUND ( 'NONE', #338, .T. ) ;
#299 = APPLICATION_CONTEXT ( 'configuration controlled 3d designs of mechanical parts and assemblies' ) ;
#300 = DIRECTION ( 'NONE',  ( 0.000000000000000000, 0.000000000000000000, 1.000000000000000000 ) ) ;
#301 = AXIS2_PLACEMENT_3D ( 'NONE', #152, #122, #68 ) ;
#302 = CC_DESIGN_SECURITY_CLASSIFICATION ( #226, ( #29 ) ) ;
#303 = CARTESIAN_POINT ( 'NONE',  ( 3.250000000000000444, 3.980102097228898231E-16, 130.0000000000000000 ) ) ;
#304 = VERTEX_POINT ( 'NONE', #324 ) ;
#305 = ADVANCED_FACE ( 'NONE', ( #356 ), #179, .F. ) ;
#306 = ORIENTED_EDGE ( 'NONE', *, *, #76, .F. ) ;
#307 = LOCAL_TIME ( 16, 47, 20.00000000000000000, #370 ) ;
#308 = APPROVAL_STATUS ( 'not_yet_approved' ) ;
#309 = DIRECTION ( 'NONE',  ( 0.000000000000000000, 0.000000000000000000, 1.000000000000000000 ) ) ;
#310 = CARTESIAN_POINT ( 'NONE',  ( -5.000000000000000000, 0.000000000000000000, 130.0000000000000000 ) ) ;
#311 = CIRCLE ( 'NONE', #133, 3.250000000000000444 ) ;
#312 = DATE_AND_TIME ( #230, #307 ) ;
#313 = ORIENTED_EDGE ( 'NONE', *, *, #76, .T. ) ;
#314 = EDGE_CURVE ( 'NONE', #45, #234, #66, .T. ) ;
#315 = PERSON_AND_ORGANIZATION_ROLE ( 'design_supplier' ) ;
#316 = FACE_BOUND ( 'NONE', #224, .T. ) ;
#317 = COORDINATED_UNIVERSAL_TIME_OFFSET ( 1, 0, .AHEAD. ) ;
#318 = PLANE ( 'NONE',  #372 ) ;
#319 = APPROVAL ( #308, 'NEURÈENÝ' ) ;
#320 = CARTESIAN_POINT ( 'NONE',  ( 0.000000000000000000, 0.000000000000000000, 130.0000000000000000 ) ) ;
#321 = EDGE_CURVE ( 'NONE', #234, #362, #214, .T. ) ;
#322 = ORIENTED_EDGE ( 'NONE', *, *, #242, .F. ) ;
#323 = VERTEX_POINT ( 'NONE', #37 ) ;
#324 = CARTESIAN_POINT ( 'NONE',  ( 8.000000000000000000, 9.797174393178825657E-16, 0.000000000000000000 ) ) ;
#325 = CC_DESIGN_DATE_AND_TIME_ASSIGNMENT ( #228, #232, ( #129 ) ) ;
#326 = AXIS2_PLACEMENT_3D ( 'NONE', #25, #48, #77 ) ;
#327 = DIRECTION ( 'NONE',  ( -1.000000000000000000, 0.000000000000000000, 0.000000000000000000 ) ) ;
#328 = ORIENTED_EDGE ( 'NONE', *, *, #168, .F. ) ;
#329 = EDGE_CURVE ( 'NONE', #355, #125, #155, .T. ) ;
#330 = ADVANCED_FACE ( 'NONE', ( #8 ), #59, .F. ) ;
#331 = LINE ( 'NONE', #303, #359 ) ;
#332 =( NAMED_UNIT ( * ) SI_UNIT ( $, .STERADIAN. ) SOLID_ANGLE_UNIT ( ) );
#333 = AXIS2_PLACEMENT_3D ( 'NONE', #257, #163, #190 ) ;
#334 = DIRECTION ( 'NONE',  ( 1.000000000000000000, 0.000000000000000000, 0.000000000000000000 ) ) ;
#335 = CARTESIAN_POINT ( 'NONE',  ( 0.000000000000000000, 0.000000000000000000, 0.000000000000000000 ) ) ;
#336 = CARTESIAN_POINT ( 'NONE',  ( 0.000000000000000000, 0.000000000000000000, 5.500000000000005329 ) ) ;
#337 = FACE_OUTER_BOUND ( 'NONE', #148, .T. ) ;
#338 = EDGE_LOOP ( 'NONE', ( #24, #381, #52, #267 ) ) ;
#339 = AXIS2_PLACEMENT_3D ( 'NONE', #320, #154, #327 ) ;
#340 = LOCAL_TIME ( 16, 47, 20.00000000000000000, #55 ) ;
#341 = DIRECTION ( 'NONE',  ( -1.000000000000000000, 0.000000000000000000, 0.000000000000000000 ) ) ;
#342 = PERSON_AND_ORGANIZATION_ROLE ( 'creator' ) ;
#343 = CARTESIAN_POINT ( 'NONE',  ( 0.000000000000000000, 0.000000000000000000, 5.000000000000000000 ) ) ;
#344 = UNCERTAINTY_MEASURE_WITH_UNIT (LENGTH_MEASURE( 1.000000000000000082E-05 ), #223, 'distance_accuracy_value', 'NONE');
#345 = DIRECTION ( 'NONE',  ( 0.000000000000000000, 0.000000000000000000, 1.000000000000000000 ) ) ;
#346 = CIRCLE ( 'NONE', #363, 3.250000000000000444 ) ;
#347 = ADVANCED_FACE ( 'NONE', ( #184, #337 ), #51, .T. ) ;
#348 = PERSON_AND_ORGANIZATION ( #78, #95 ) ;
#349 = CARTESIAN_POINT ( 'NONE',  ( 3.250000000000000444, 3.980102097228898231E-16, 130.0000000000000000 ) ) ;
#350 = ORIENTED_EDGE ( 'NONE', *, *, #39, .F. ) ;
#351 = DIRECTION ( 'NONE',  ( -1.000000000000000000, 0.000000000000000000, 0.000000000000000000 ) ) ;
#352 = VECTOR ( 'NONE', #284, 1000.000000000000000 ) ;
#353 = LOCAL_TIME ( 16, 47, 20.00000000000000000, #317 ) ;
#354 = CARTESIAN_POINT ( 'NONE',  ( 0.000000000000000000, 0.000000000000000000, 0.000000000000000000 ) ) ;
#355 = VERTEX_POINT ( 'NONE', #162 ) ;
#356 = FACE_OUTER_BOUND ( 'NONE', #264, .T. ) ;
#357 = EDGE_LOOP ( 'NONE', ( #241, #97, #250, #90 ) ) ;
#358 = ORIENTED_EDGE ( 'NONE', *, *, #227, .F. ) ;
#359 = VECTOR ( 'NONE', #47, 1000.000000000000000 ) ;
#360 = EDGE_CURVE ( 'NONE', #234, #157, #23, .T. ) ;
#361 = EDGE_LOOP ( 'NONE', ( #134, #276 ) ) ;
#362 = VERTEX_POINT ( 'NONE', #218 ) ;
#363 = AXIS2_PLACEMENT_3D ( 'NONE', #6, #210, #5 ) ;
#364 = PRODUCT_DEFINITION_SHAPE ( 'NONE', 'NONE',  #129 ) ;
#365 = PERSON_AND_ORGANIZATION_ROLE ( 'design_owner' ) ;
#366 = DIRECTION ( 'NONE',  ( 1.000000000000000000, 0.000000000000000000, 0.000000000000000000 ) ) ;
#367 = ORIENTED_EDGE ( 'NONE', *, *, #85, .F. ) ;
#368 = DIRECTION ( 'NONE',  ( -0.000000000000000000, -0.000000000000000000, -1.000000000000000000 ) ) ;
#369 = ORIENTED_EDGE ( 'NONE', *, *, #376, .T. ) ;
#370 = COORDINATED_UNIVERSAL_TIME_OFFSET ( 1, 0, .AHEAD. ) ;
#371 = DIRECTION ( 'NONE',  ( -0.000000000000000000, -0.000000000000000000, -1.000000000000000000 ) ) ;
#372 = AXIS2_PLACEMENT_3D ( 'NONE', #377, #309, #115 ) ;
#373 = DIRECTION ( 'NONE',  ( -0.000000000000000000, -0.000000000000000000, -1.000000000000000000 ) ) ;
#374 = ORIENTED_EDGE ( 'NONE', *, *, #376, .F. ) ;
#375 = COORDINATED_UNIVERSAL_TIME_OFFSET ( 1, 0, .AHEAD. ) ;
#376 = EDGE_CURVE ( 'NONE', #157, #323, #255, .T. ) ;
#377 = CARTESIAN_POINT ( 'NONE',  ( 0.000000000000000000, 0.000000000000000000, 130.0000000000000000 ) ) ;
#378 = VERTEX_POINT ( 'NONE', #251 ) ;
#379 = CARTESIAN_POINT ( 'NONE',  ( -3.250000000000000444, 0.000000000000000000, 0.000000000000000000 ) ) ;
#380 = VECTOR ( 'NONE', #65, 1000.000000000000000 ) ;
#381 = ORIENTED_EDGE ( 'NONE', *, *, #53, .F. ) ;
ENDSEC;
END-ISO-10303-21;
