ISO-10303-21;
HEADER;
FILE_DESCRIPTION (( 'STEP AP203' ),
    '1' );
FILE_NAME ('c10b.STEP',
    '2022-07-08T15:49:39',
    ( '' ),
    ( '' ),
    'SwSTEP 2.0',
    'SolidWorks 2019',
    '' );
FILE_SCHEMA (( 'CONFIG_CONTROL_DESIGN' ));
ENDSEC;

DATA;
#1 = DIRECTION ( 'NONE',  ( 0.000000000000000000, 0.000000000000000000, 1.000000000000000000 ) ) ;
#2 = ORIENTED_EDGE ( 'NONE', *, *, #357, .F. ) ;
#3 = LOCAL_TIME ( 17, 49, 39.00000000000000000, #65 ) ;
#4 = DIRECTION ( 'NONE',  ( 1.000000000000000000, 0.000000000000000000, 0.000000000000000000 ) ) ;
#5 = EDGE_LOOP ( 'NONE', ( #161, #39, #50, #333 ) ) ;
#6 = CIRCLE ( 'NONE', #222, 4.000000000000000000 ) ;
#7 = CARTESIAN_POINT ( 'NONE',  ( 0.000000000000000000, 0.000000000000000000, 278.0000000000000000 ) ) ;
#8 = ORIENTED_EDGE ( 'NONE', *, *, #357, .T. ) ;
#9 = CIRCLE ( 'NONE', #361, 0.2999999999999999334 ) ;
#10 = SHAPE_DEFINITION_REPRESENTATION ( #119, #224 ) ;
#11 = FACE_OUTER_BOUND ( 'NONE', #183, .T. ) ;
#12 = VERTEX_POINT ( 'NONE', #307 ) ;
#13 = EDGE_CURVE ( 'NONE', #16, #113, #9, .T. ) ;
#14 = CARTESIAN_POINT ( 'NONE',  ( -2.299999999999999822, 2.816687638038912056E-16, 3.000000000000012434 ) ) ;
#15 = APPROVAL_PERSON_ORGANIZATION ( #71, #133, #45 ) ;
#16 = VERTEX_POINT ( 'NONE', #144 ) ;
#17 = DIRECTION ( 'NONE',  ( -1.000000000000000000, 0.000000000000000000, 0.000000000000000000 ) ) ;
#18 = AXIS2_PLACEMENT_3D ( 'NONE', #300, #223, #21 ) ;
#19 = CARTESIAN_POINT ( 'NONE',  ( 0.000000000000000000, 0.000000000000000000, 278.0000000000000000 ) ) ;
#20 = EDGE_CURVE ( 'NONE', #287, #339, #352, .T. ) ;
#21 = DIRECTION ( 'NONE',  ( 1.000000000000000000, 0.000000000000000000, 0.000000000000000000 ) ) ;
#22 = DIRECTION ( 'NONE',  ( 0.000000000000000000, 0.000000000000000000, 1.000000000000000000 ) ) ;
#23 = AXIS2_PLACEMENT_3D ( 'NONE', #172, #66, #97 ) ;
#24 = EDGE_CURVE ( 'NONE', #12, #258, #170, .T. ) ;
#25 = DIRECTION ( 'NONE',  ( -1.000000000000000000, 0.000000000000000000, 0.000000000000000000 ) ) ;
#26 = ORIENTED_EDGE ( 'NONE', *, *, #127, .T. ) ;
#27 = CYLINDRICAL_SURFACE ( 'NONE', #180, 1.100000000000000089 ) ;
#28 = PERSON_AND_ORGANIZATION ( #134, #283 ) ;
#29 = CC_DESIGN_PERSON_AND_ORGANIZATION_ASSIGNMENT ( #314, #254, ( #301 ) ) ;
#30 = PLANE ( 'NONE',  #159 ) ;
#31 = CIRCLE ( 'NONE', #319, 1.100000000000000089 ) ;
#32 = PERSON_AND_ORGANIZATION ( #134, #283 ) ;
#33 = CARTESIAN_POINT ( 'NONE',  ( 0.000000000000000000, 0.000000000000000000, 3.000000000000000000 ) ) ;
#34 = AXIS2_PLACEMENT_3D ( 'NONE', #19, #225, #25 ) ;
#35 = PERSON_AND_ORGANIZATION_ROLE ( 'design_supplier' ) ;
#36 = DIRECTION ( 'NONE',  ( 1.000000000000000000, 0.000000000000000000, 0.000000000000000000 ) ) ;
#37 = ORIENTED_EDGE ( 'NONE', *, *, #332, .T. ) ;
#38 = CARTESIAN_POINT ( 'NONE',  ( -2.000000000000000000, 0.000000000000000000, 278.0000000000000000 ) ) ;
#39 = ORIENTED_EDGE ( 'NONE', *, *, #166, .F. ) ;
#40 = DATE_AND_TIME ( #353, #374 ) ;
#41 = LINE ( 'NONE', #76, #138 ) ;
#42 = DIRECTION ( 'NONE',  ( 0.000000000000000000, 0.000000000000000000, 1.000000000000000000 ) ) ;
#43 = EDGE_LOOP ( 'NONE', ( #188, #234, #142, #196 ) ) ;
#44 = DIRECTION ( 'NONE',  ( -0.000000000000000000, -0.000000000000000000, -1.000000000000000000 ) ) ;
#45 = APPROVAL_ROLE ( '' ) ;
#46 = DIRECTION ( 'NONE',  ( 1.000000000000000000, 0.000000000000000000, 0.000000000000000000 ) ) ;
#47 = AXIS2_PLACEMENT_3D ( 'NONE', #282, #116, #350 ) ;
#48 = CIRCLE ( 'NONE', #49, 2.000000000000000000 ) ;
#49 = AXIS2_PLACEMENT_3D ( 'NONE', #189, #306, #368 ) ;
#50 = ORIENTED_EDGE ( 'NONE', *, *, #251, .T. ) ;
#51 = CARTESIAN_POINT ( 'NONE',  ( 0.000000000000000000, 0.000000000000000000, 3.000000000000000000 ) ) ;
#52 = CYLINDRICAL_SURFACE ( 'NONE', #34, 1.100000000000000089 ) ;
#53 = EDGE_CURVE ( 'NONE', #327, #287, #145, .T. ) ;
#54 = AXIS2_PLACEMENT_3D ( 'NONE', #104, #362, #17 ) ;
#55 = AXIS2_PLACEMENT_3D ( 'NONE', #84, #274, #193 ) ;
#56 =( NAMED_UNIT ( * ) SI_UNIT ( $, .STERADIAN. ) SOLID_ANGLE_UNIT ( ) );
#57 = ORIENTED_EDGE ( 'NONE', *, *, #208, .F. ) ;
#58 = AXIS2_PLACEMENT_3D ( 'NONE', #337, #22, #141 ) ;
#59 = ADVANCED_FACE ( 'NONE', ( #320 ), #27, .F. ) ;
#60 = DIRECTION ( 'NONE',  ( 0.000000000000000000, 0.000000000000000000, 1.000000000000000000 ) ) ;
#61 = CIRCLE ( 'NONE', #263, 1.100000000000000089 ) ;
#62 = SECURITY_CLASSIFICATION_LEVEL ( 'unclassified' ) ;
#63 = DIRECTION ( 'NONE',  ( 1.000000000000000000, 0.000000000000000000, 0.000000000000000000 ) ) ;
#64 = UNCERTAINTY_MEASURE_WITH_UNIT (LENGTH_MEASURE( 1.000000000000000082E-05 ), #245, 'distance_accuracy_value', 'NONE');
#65 = COORDINATED_UNIVERSAL_TIME_OFFSET ( 1, 0, .AHEAD. ) ;
#66 = DIRECTION ( 'NONE',  ( 0.000000000000000000, 0.000000000000000000, 1.000000000000000000 ) ) ;
#67 = ORIENTED_EDGE ( 'NONE', *, *, #191, .F. ) ;
#68 = DIRECTION ( 'NONE',  ( -0.000000000000000000, -0.000000000000000000, -1.000000000000000000 ) ) ;
#69 = EDGE_CURVE ( 'NONE', #86, #271, #280, .T. ) ;
#70 = EDGE_LOOP ( 'NONE', ( #363, #108, #165, #247 ) ) ;
#71 = PERSON_AND_ORGANIZATION ( #134, #283 ) ;
#72 = CARTESIAN_POINT ( 'NONE',  ( 0.000000000000000000, 0.000000000000000000, 0.000000000000000000 ) ) ;
#73 = AXIS2_PLACEMENT_3D ( 'NONE', #93, #253, #91 ) ;
#74 = APPROVAL ( #343, 'NEURÈENÝ' ) ;
#75 = FACE_OUTER_BOUND ( 'NONE', #122, .T. ) ;
#76 = CARTESIAN_POINT ( 'NONE',  ( -2.000000000000000000, 0.000000000000000000, 278.0000000000000000 ) ) ;
#77 = ORIENTED_EDGE ( 'NONE', *, *, #166, .T. ) ;
#78 = ORIENTED_EDGE ( 'NONE', *, *, #114, .F. ) ;
#79 = DIRECTION ( 'NONE',  ( -0.000000000000000000, -0.000000000000000000, -1.000000000000000000 ) ) ;
#80 = ORIENTED_EDGE ( 'NONE', *, *, #13, .T. ) ;
#81 = CIRCLE ( 'NONE', #249, 2.000000000000000000 ) ;
#82 = CARTESIAN_POINT ( 'NONE',  ( -4.000000000000000000, 0.000000000000000000, 3.000000000000000000 ) ) ;
#83 = ADVANCED_FACE ( 'NONE', ( #117, #279 ), #30, .T. ) ;
#84 = CARTESIAN_POINT ( 'NONE',  ( 0.000000000000000000, 0.000000000000000000, 0.000000000000000000 ) ) ;
#85 = APPROVAL_STATUS ( 'not_yet_approved' ) ;
#86 = VERTEX_POINT ( 'NONE', #123 ) ;
#87 = ADVANCED_FACE ( 'NONE', ( #121, #231 ), #147, .T. ) ;
#88 = APPROVAL_DATE_TIME ( #200, #262 ) ;
#89 = DIRECTION ( 'NONE',  ( 0.000000000000000000, 0.000000000000000000, 1.000000000000000000 ) ) ;
#90 = CIRCLE ( 'NONE', #58, 4.000000000000000000 ) ;
#91 = DIRECTION ( 'NONE',  ( 1.000000000000000000, 0.000000000000000000, -0.000000000000000000 ) ) ;
#92 = AXIS2_PLACEMENT_3D ( 'NONE', #264, #237, #101 ) ;
#93 = CARTESIAN_POINT ( 'NONE',  ( 0.000000000000000000, 0.000000000000000000, 3.000000000000000000 ) ) ;
#94 = CLOSED_SHELL ( 'NONE', ( #59, #270, #197, #219, #308, #87, #336, #235, #83, #242, #302 ) ) ;
#95 = APPROVAL_ROLE ( '' ) ;
#96 = EDGE_CURVE ( 'NONE', #360, #339, #173, .T. ) ;
#97 = DIRECTION ( 'NONE',  ( 1.000000000000000000, 0.000000000000000000, 0.000000000000000000 ) ) ;
#98 = CIRCLE ( 'NONE', #236, 1.100000000000000089 ) ;
#99 = ORIENTED_EDGE ( 'NONE', *, *, #290, .T. ) ;
#100 = DATE_TIME_ROLE ( 'classification_date' ) ;
#101 = DIRECTION ( 'NONE',  ( -1.000000000000000000, 0.000000000000000000, 0.000000000000000000 ) ) ;
#102 = ORIENTED_EDGE ( 'NONE', *, *, #273, .F. ) ;
#103 = EDGE_CURVE ( 'NONE', #327, #360, #316, .T. ) ;
#104 = CARTESIAN_POINT ( 'NONE',  ( 0.000000000000000000, 0.000000000000000000, 278.0000000000000000 ) ) ;
#105 = ORIENTED_EDGE ( 'NONE', *, *, #154, .F. ) ;
#106 = APPROVAL_DATE_TIME ( #295, #133 ) ;
#107 = CYLINDRICAL_SURFACE ( 'NONE', #54, 2.000000000000000000 ) ;
#108 = ORIENTED_EDGE ( 'NONE', *, *, #20, .T. ) ;
#109 = DIRECTION ( 'NONE',  ( 1.000000000000000000, 0.000000000000000000, 0.000000000000000000 ) ) ;
#110 = VECTOR ( 'NONE', #182, 1000.000000000000000 ) ;
#111 = PRODUCT_RELATED_PRODUCT_CATEGORY ( 'detail', '', ( #301 ) ) ;
#112 =( NAMED_UNIT ( * ) PLANE_ANGLE_UNIT ( ) SI_UNIT ( $, .RADIAN. ) );
#113 = VERTEX_POINT ( 'NONE', #311 ) ;
#114 = EDGE_CURVE ( 'NONE', #317, #12, #139, .T. ) ;
#115 = ORIENTED_EDGE ( 'NONE', *, *, #69, .F. ) ;
#116 = DIRECTION ( 'NONE',  ( 0.000000000000000000, 0.000000000000000000, 1.000000000000000000 ) ) ;
#117 = FACE_BOUND ( 'NONE', #334, .T. ) ;
#118 = SECURITY_CLASSIFICATION ( '', '', #62 ) ;
#119 = PRODUCT_DEFINITION_SHAPE ( 'NONE', 'NONE',  #257 ) ;
#120 = PERSON_AND_ORGANIZATION_ROLE ( 'creator' ) ;
#121 = FACE_BOUND ( 'NONE', #186, .T. ) ;
#122 = EDGE_LOOP ( 'NONE', ( #211, #99, #37, #341 ) ) ;
#123 = CARTESIAN_POINT ( 'NONE',  ( -2.000000000000000000, 0.000000000000000000, 3.300000000000025135 ) ) ;
#124 = VECTOR ( 'NONE', #281, 1000.000000000000000 ) ;
#125 = DIRECTION ( 'NONE',  ( -0.000000000000000000, -0.000000000000000000, -1.000000000000000000 ) ) ;
#126 = CYLINDRICAL_SURFACE ( 'NONE', #378, 2.000000000000000000 ) ;
#127 = EDGE_CURVE ( 'NONE', #113, #271, #243, .T. ) ;
#128 = AXIS2_PLACEMENT_3D ( 'NONE', #33, #151, #286 ) ;
#129 = CARTESIAN_POINT ( 'NONE',  ( 1.100000000000000089, 1.347111479062088503E-16, 278.0000000000000000 ) ) ;
#130 = APPLICATION_CONTEXT ( 'configuration controlled 3d designs of mechanical parts and assemblies' ) ;
#131 = ORIENTED_EDGE ( 'NONE', *, *, #13, .F. ) ;
#132 = FACE_OUTER_BOUND ( 'NONE', #5, .T. ) ;
#133 = APPROVAL ( #292, 'NEURÈENÝ' ) ;
#134 = PERSON ( 'NEURÈENÝ', 'NEURÈENÝ', 'NEURÈENÝ', ('NEURÈENÝ'), ('NEURÈENÝ'), ('NEURÈENÝ') ) ;
#135 = CARTESIAN_POINT ( 'NONE',  ( 0.000000000000000000, 0.000000000000000000, 0.000000000000000000 ) ) ;
#136 = PLANE ( 'NONE',  #55 ) ;
#137 = CC_DESIGN_DATE_AND_TIME_ASSIGNMENT ( #310, #171, ( #257 ) ) ;
#138 = VECTOR ( 'NONE', #326, 1000.000000000000000 ) ;
#139 = CIRCLE ( 'NONE', #23, 1.100000000000000089 ) ;
#140 = CARTESIAN_POINT ( 'NONE',  ( 4.000000000000000000, 4.898587196589412829E-16, 0.000000000000000000 ) ) ;
#141 = DIRECTION ( 'NONE',  ( 1.000000000000000000, 0.000000000000000000, 0.000000000000000000 ) ) ;
#142 = ORIENTED_EDGE ( 'NONE', *, *, #103, .T. ) ;
#143 = PERSON_AND_ORGANIZATION ( #134, #283 ) ;
#144 = CARTESIAN_POINT ( 'NONE',  ( 2.000000000000000000, 2.449293598294706414E-16, 3.300000000000025135 ) ) ;
#145 = CIRCLE ( 'NONE', #338, 4.000000000000000000 ) ;
#146 = PERSON_AND_ORGANIZATION_ROLE ( 'creator' ) ;
#147 = PLANE ( 'NONE',  #73 ) ;
#148 = PERSON_AND_ORGANIZATION_ROLE ( 'classification_officer' ) ;
#149 = DIRECTION ( 'NONE',  ( -1.000000000000000000, 1.224646799147353207E-16, 0.000000000000000000 ) ) ;
#150 = CALENDAR_DATE ( 2022, 8, 7 ) ;
#151 = DIRECTION ( 'NONE',  ( -0.000000000000000000, -0.000000000000000000, -1.000000000000000000 ) ) ;
#152 = CIRCLE ( 'NONE', #195, 2.000000000000000000 ) ;
#153 = CARTESIAN_POINT ( 'NONE',  ( 0.000000000000000000, 0.000000000000000000, 0.000000000000000000 ) ) ;
#154 = EDGE_CURVE ( 'NONE', #271, #113, #266, .T. ) ;
#155 = FACE_OUTER_BOUND ( 'NONE', #70, .T. ) ;
#156 = ORIENTED_EDGE ( 'NONE', *, *, #230, .F. ) ;
#157 = ORIENTED_EDGE ( 'NONE', *, *, #127, .F. ) ;
#158 = CARTESIAN_POINT ( 'NONE',  ( 4.000000000000000000, 4.898587196589412829E-16, 3.000000000000000000 ) ) ;
#159 = AXIS2_PLACEMENT_3D ( 'NONE', #342, #348, #201 ) ;
#160 = DIRECTION ( 'NONE',  ( 0.000000000000000000, 0.000000000000000000, -1.000000000000000000 ) ) ;
#161 = ORIENTED_EDGE ( 'NONE', *, *, #290, .F. ) ;
#162 = PRODUCT_DEFINITION_FORMATION_WITH_SPECIFIED_SOURCE ( 'LIBOVOLNÝ', '', #301, .NOT_KNOWN. ) ;
#163 = CARTESIAN_POINT ( 'NONE',  ( 2.000000000000000000, 2.449293598294706414E-16, 278.0000000000000000 ) ) ;
#164 = CYLINDRICAL_SURFACE ( 'NONE', #227, 4.000000000000000000 ) ;
#165 = ORIENTED_EDGE ( 'NONE', *, *, #191, .T. ) ;
#166 = EDGE_CURVE ( 'NONE', #248, #199, #81, .T. ) ;
#167 = FACE_OUTER_BOUND ( 'NONE', #43, .T. ) ;
#168 = FACE_BOUND ( 'NONE', #289, .T. ) ;
#169 = APPLICATION_PROTOCOL_DEFINITION ( 'international standard', 'config_control_design', 1994, #130 ) ;
#170 = LINE ( 'NONE', #207, #124 ) ;
#171 = DATE_TIME_ROLE ( 'creation_date' ) ;
#172 = CARTESIAN_POINT ( 'NONE',  ( 0.000000000000000000, 0.000000000000000000, 278.0000000000000000 ) ) ;
#173 = CIRCLE ( 'NONE', #313, 4.000000000000000000 ) ;
#174 = PERSON_AND_ORGANIZATION ( #134, #283 ) ;
#175 = CC_DESIGN_PERSON_AND_ORGANIZATION_ASSIGNMENT ( #174, #148, ( #118 ) ) ;
#176 = DIRECTION ( 'NONE',  ( -0.000000000000000000, -0.000000000000000000, -1.000000000000000000 ) ) ;
#177 = APPROVAL_ROLE ( '' ) ;
#178 = APPLICATION_CONTEXT ( 'configuration controlled 3d designs of mechanical parts and assemblies' ) ;
#179 = CALENDAR_DATE ( 2022, 8, 7 ) ;
#180 = AXIS2_PLACEMENT_3D ( 'NONE', #252, #312, #377 ) ;
#181 = DIRECTION ( 'NONE',  ( 0.000000000000000000, 0.000000000000000000, 1.000000000000000000 ) ) ;
#182 = DIRECTION ( 'NONE',  ( 0.000000000000000000, 0.000000000000000000, -1.000000000000000000 ) ) ;
#183 = EDGE_LOOP ( 'NONE', ( #156, #212, #209, #297 ) ) ;
#184 = CC_DESIGN_APPROVAL ( #262, ( #257 ) ) ;
#185 = DIRECTION ( 'NONE',  ( 0.000000000000000000, 0.000000000000000000, 1.000000000000000000 ) ) ;
#186 = EDGE_LOOP ( 'NONE', ( #26, #381 ) ) ;
#187 = CYLINDRICAL_SURFACE ( 'NONE', #92, 4.000000000000000000 ) ;
#188 = ORIENTED_EDGE ( 'NONE', *, *, #20, .F. ) ;
#189 = CARTESIAN_POINT ( 'NONE',  ( 0.000000000000000000, 0.000000000000000000, 3.300000000000025135 ) ) ;
#190 = EDGE_LOOP ( 'NONE', ( #8, #215, #265, #206 ) ) ;
#191 = EDGE_CURVE ( 'NONE', #339, #360, #6, .T. ) ;
#192 = CARTESIAN_POINT ( 'NONE',  ( 1.100000000000000089, 1.347111479062088503E-16, 278.0000000000000000 ) ) ;
#193 = DIRECTION ( 'NONE',  ( 1.000000000000000000, 0.000000000000000000, -0.000000000000000000 ) ) ;
#194 = CARTESIAN_POINT ( 'NONE',  ( -4.000000000000000000, 0.000000000000000000, 0.000000000000000000 ) ) ;
#195 = AXIS2_PLACEMENT_3D ( 'NONE', #331, #42, #46 ) ;
#196 = ORIENTED_EDGE ( 'NONE', *, *, #96, .T. ) ;
#197 = ADVANCED_FACE ( 'NONE', ( #75 ), #126, .T. ) ;
#198 = COORDINATED_UNIVERSAL_TIME_OFFSET ( 1, 0, .AHEAD. ) ;
#199 = VERTEX_POINT ( 'NONE', #293 ) ;
#200 = DATE_AND_TIME ( #250, #3 ) ;
#201 = DIRECTION ( 'NONE',  ( 1.000000000000000000, 0.000000000000000000, -0.000000000000000000 ) ) ;
#202 = CC_DESIGN_PERSON_AND_ORGANIZATION_ASSIGNMENT ( #32, #120, ( #257 ) ) ;
#203 = CARTESIAN_POINT ( 'NONE',  ( 0.000000000000000000, 0.000000000000000000, 3.000000000000000000 ) ) ;
#204 = MECHANICAL_CONTEXT ( 'NONE', #130, 'mechanical' ) ;
#205 = DIRECTION ( 'NONE',  ( 1.000000000000000000, 0.000000000000000000, 0.000000000000000000 ) ) ;
#206 = ORIENTED_EDGE ( 'NONE', *, *, #24, .F. ) ;
#207 = CARTESIAN_POINT ( 'NONE',  ( -1.100000000000000089, 0.000000000000000000, 278.0000000000000000 ) ) ;
#208 = EDGE_CURVE ( 'NONE', #258, #218, #61, .T. ) ;
#209 = ORIENTED_EDGE ( 'NONE', *, *, #24, .T. ) ;
#210 = COORDINATED_UNIVERSAL_TIME_OFFSET ( 1, 0, .AHEAD. ) ;
#211 = ORIENTED_EDGE ( 'NONE', *, *, #323, .F. ) ;
#212 = ORIENTED_EDGE ( 'NONE', *, *, #114, .T. ) ;
#213 = CC_DESIGN_SECURITY_CLASSIFICATION ( #118, ( #162 ) ) ;
#214 = APPROVAL_PERSON_ORGANIZATION ( #255, #74, #177 ) ;
#215 = ORIENTED_EDGE ( 'NONE', *, *, #230, .T. ) ;
#216 = CARTESIAN_POINT ( 'NONE',  ( -1.100000000000000089, 0.000000000000000000, 0.000000000000000000 ) ) ;
#217 = VECTOR ( 'NONE', #125, 1000.000000000000000 ) ;
#218 = VERTEX_POINT ( 'NONE', #239 ) ;
#219 = ADVANCED_FACE ( 'NONE', ( #155 ), #187, .T. ) ;
#220 = EDGE_LOOP ( 'NONE', ( #115, #322, #80, #105 ) ) ;
#221 = LOCAL_TIME ( 17, 49, 39.00000000000000000, #210 ) ;
#222 = AXIS2_PLACEMENT_3D ( 'NONE', #153, #1, #355 ) ;
#223 = DIRECTION ( 'NONE',  ( 0.000000000000000000, 0.000000000000000000, 1.000000000000000000 ) ) ;
#224 = ADVANCED_BREP_SHAPE_REPRESENTATION ( 'c10b', ( #268, #47 ), #344 ) ;
#225 = DIRECTION ( 'NONE',  ( 0.000000000000000000, 0.000000000000000000, -1.000000000000000000 ) ) ;
#226 = EDGE_LOOP ( 'NONE', ( #299, #276 ) ) ;
#227 = AXIS2_PLACEMENT_3D ( 'NONE', #51, #79, #335 ) ;
#228 = CARTESIAN_POINT ( 'NONE',  ( 2.299999999999999822, 0.000000000000000000, 3.300000000000025135 ) ) ;
#229 = CARTESIAN_POINT ( 'NONE',  ( -2.299999999999999822, 2.816687638038912056E-16, 3.300000000000025135 ) ) ;
#230 = EDGE_CURVE ( 'NONE', #317, #218, #358, .T. ) ;
#231 = FACE_OUTER_BOUND ( 'NONE', #226, .T. ) ;
#232 = AXIS2_PLACEMENT_3D ( 'NONE', #203, #176, #205 ) ;
#233 = DIRECTION ( 'NONE',  ( 1.224646799147353207E-16, 1.000000000000000000, -0.000000000000000000 ) ) ;
#234 = ORIENTED_EDGE ( 'NONE', *, *, #53, .F. ) ;
#235 = ADVANCED_FACE ( 'NONE', ( #132 ), #107, .T. ) ;
#236 = AXIS2_PLACEMENT_3D ( 'NONE', #135, #246, #365 ) ;
#237 = DIRECTION ( 'NONE',  ( -0.000000000000000000, -0.000000000000000000, -1.000000000000000000 ) ) ;
#238 = CC_DESIGN_PERSON_AND_ORGANIZATION_ASSIGNMENT ( #371, #35, ( #162 ) ) ;
#239 = CARTESIAN_POINT ( 'NONE',  ( 1.100000000000000089, 1.347111479062088503E-16, 0.000000000000000000 ) ) ;
#240 = CIRCLE ( 'NONE', #18, 2.000000000000000000 ) ;
#241 = DIRECTION ( 'NONE',  ( -0.000000000000000000, -0.000000000000000000, -1.000000000000000000 ) ) ;
#242 = ADVANCED_FACE ( 'NONE', ( #321 ), #294, .F. ) ;
#243 = CIRCLE ( 'NONE', #232, 2.299999999999999822 ) ;
#244 = LOCAL_TIME ( 17, 49, 39.00000000000000000, #278 ) ;
#245 =( LENGTH_UNIT ( ) NAMED_UNIT ( * ) SI_UNIT ( .MILLI., .METRE. ) );
#246 = DIRECTION ( 'NONE',  ( -0.000000000000000000, -0.000000000000000000, -1.000000000000000000 ) ) ;
#247 = ORIENTED_EDGE ( 'NONE', *, *, #103, .F. ) ;
#248 = VERTEX_POINT ( 'NONE', #38 ) ;
#249 = AXIS2_PLACEMENT_3D ( 'NONE', #256, #379, #36 ) ;
#250 = CALENDAR_DATE ( 2022, 8, 7 ) ;
#251 = EDGE_CURVE ( 'NONE', #248, #86, #41, .T. ) ;
#252 = CARTESIAN_POINT ( 'NONE',  ( 0.000000000000000000, 0.000000000000000000, 278.0000000000000000 ) ) ;
#253 = DIRECTION ( 'NONE',  ( 0.000000000000000000, 0.000000000000000000, 1.000000000000000000 ) ) ;
#254 = PERSON_AND_ORGANIZATION_ROLE ( 'design_owner' ) ;
#255 = PERSON_AND_ORGANIZATION ( #134, #283 ) ;
#256 = CARTESIAN_POINT ( 'NONE',  ( 0.000000000000000000, 0.000000000000000000, 278.0000000000000000 ) ) ;
#257 = PRODUCT_DEFINITION ( 'NEZNÁMÝ', '', #162, #269 ) ;
#258 = VERTEX_POINT ( 'NONE', #216 ) ;
#259 = DIRECTION ( 'NONE',  ( -0.000000000000000000, -0.000000000000000000, -1.000000000000000000 ) ) ;
#260 = APPROVAL_PERSON_ORGANIZATION ( #143, #262, #95 ) ;
#261 = CARTESIAN_POINT ( 'NONE',  ( 0.000000000000000000, 0.000000000000000000, 3.300000000000025135 ) ) ;
#262 = APPROVAL ( #85, 'NEURÈENÝ' ) ;
#263 = AXIS2_PLACEMENT_3D ( 'NONE', #72, #259, #4 ) ;
#264 = CARTESIAN_POINT ( 'NONE',  ( 0.000000000000000000, 0.000000000000000000, 3.000000000000000000 ) ) ;
#265 = ORIENTED_EDGE ( 'NONE', *, *, #346, .T. ) ;
#266 = CIRCLE ( 'NONE', #128, 2.299999999999999822 ) ;
#267 = ORIENTED_EDGE ( 'NONE', *, *, #96, .F. ) ;
#268 = MANIFOLD_SOLID_BREP ( 'Odebrat vysunutím3', #94 ) ;
#269 = DESIGN_CONTEXT ( 'detailed design', #178, 'design' ) ;
#270 = ADVANCED_FACE ( 'NONE', ( #324 ), #359, .F. ) ;
#271 = VERTEX_POINT ( 'NONE', #14 ) ;
#272 = FACE_OUTER_BOUND ( 'NONE', #329, .T. ) ;
#273 = EDGE_CURVE ( 'NONE', #86, #16, #152, .T. ) ;
#274 = DIRECTION ( 'NONE',  ( 0.000000000000000000, 0.000000000000000000, 1.000000000000000000 ) ) ;
#275 = DIRECTION ( 'NONE',  ( 0.000000000000000000, 0.000000000000000000, 1.000000000000000000 ) ) ;
#276 = ORIENTED_EDGE ( 'NONE', *, *, #364, .T. ) ;
#277 = CARTESIAN_POINT ( 'NONE',  ( 0.000000000000000000, 0.000000000000000000, 3.000000000000000000 ) ) ;
#278 = COORDINATED_UNIVERSAL_TIME_OFFSET ( 1, 0, .AHEAD. ) ;
#279 = FACE_OUTER_BOUND ( 'NONE', #291, .T. ) ;
#280 = CIRCLE ( 'NONE', #380, 0.2999999999999999334 ) ;
#281 = DIRECTION ( 'NONE',  ( 0.000000000000000000, 0.000000000000000000, -1.000000000000000000 ) ) ;
#282 = CARTESIAN_POINT ( 'NONE',  ( 0.000000000000000000, 0.000000000000000000, 0.000000000000000000 ) ) ;
#283 = ORGANIZATION ( 'NEURÈENÝ', 'NEURÈENÝ', '' ) ;
#284 = CARTESIAN_POINT ( 'NONE',  ( 0.000000000000000000, 0.000000000000000000, 0.000000000000000000 ) ) ;
#285 = APPROVAL_DATE_TIME ( #375, #74 ) ;
#286 = DIRECTION ( 'NONE',  ( 1.000000000000000000, 0.000000000000000000, 0.000000000000000000 ) ) ;
#287 = VERTEX_POINT ( 'NONE', #158 ) ;
#288 = DIRECTION ( 'NONE',  ( 1.000000000000000000, 0.000000000000000000, 0.000000000000000000 ) ) ;
#289 = EDGE_LOOP ( 'NONE', ( #57, #349 ) ) ;
#290 = EDGE_CURVE ( 'NONE', #199, #16, #296, .T. ) ;
#291 = EDGE_LOOP ( 'NONE', ( #77, #356 ) ) ;
#292 = APPROVAL_STATUS ( 'not_yet_approved' ) ;
#293 = CARTESIAN_POINT ( 'NONE',  ( 2.000000000000000000, 2.449293598294706414E-16, 278.0000000000000000 ) ) ;
#294 = TOROIDAL_SURFACE ( 'NONE', #305, 2.299999999999999822, 0.2999999999999999889 ) ;
#295 = DATE_AND_TIME ( #179, #221 ) ;
#296 = LINE ( 'NONE', #163, #340 ) ;
#297 = ORIENTED_EDGE ( 'NONE', *, *, #208, .T. ) ;
#298 = CARTESIAN_POINT ( 'NONE',  ( 0.000000000000000000, 0.000000000000000000, 3.300000000000025135 ) ) ;
#299 = ORIENTED_EDGE ( 'NONE', *, *, #53, .T. ) ;
#300 = CARTESIAN_POINT ( 'NONE',  ( 0.000000000000000000, 0.000000000000000000, 278.0000000000000000 ) ) ;
#301 = PRODUCT ( 'c10b', 'c10b', '', ( #204 ) ) ;
#302 = ADVANCED_FACE ( 'NONE', ( #11 ), #52, .F. ) ;
#303 = CC_DESIGN_APPROVAL ( #74, ( #162 ) ) ;
#304 = CARTESIAN_POINT ( 'NONE',  ( 0.000000000000000000, 0.000000000000000000, 278.0000000000000000 ) ) ;
#305 = AXIS2_PLACEMENT_3D ( 'NONE', #261, #181, #288 ) ;
#306 = DIRECTION ( 'NONE',  ( 0.000000000000000000, 0.000000000000000000, 1.000000000000000000 ) ) ;
#307 = CARTESIAN_POINT ( 'NONE',  ( -1.100000000000000089, 0.000000000000000000, 278.0000000000000000 ) ) ;
#308 = ADVANCED_FACE ( 'NONE', ( #167 ), #164, .T. ) ;
#309 = DIRECTION ( 'NONE',  ( 0.000000000000000000, -1.000000000000000000, 0.000000000000000000 ) ) ;
#310 = DATE_AND_TIME ( #150, #376 ) ;
#311 = CARTESIAN_POINT ( 'NONE',  ( 2.299999999999999822, 0.000000000000000000, 3.000000000000012434 ) ) ;
#312 = DIRECTION ( 'NONE',  ( 0.000000000000000000, 0.000000000000000000, -1.000000000000000000 ) ) ;
#313 = AXIS2_PLACEMENT_3D ( 'NONE', #284, #60, #63 ) ;
#314 = PERSON_AND_ORGANIZATION ( #134, #283 ) ;
#315 = CC_DESIGN_DATE_AND_TIME_ASSIGNMENT ( #40, #100, ( #118 ) ) ;
#316 = LINE ( 'NONE', #351, #366 ) ;
#317 = VERTEX_POINT ( 'NONE', #192 ) ;
#318 = CALENDAR_DATE ( 2022, 8, 7 ) ;
#319 = AXIS2_PLACEMENT_3D ( 'NONE', #304, #275, #109 ) ;
#320 = FACE_OUTER_BOUND ( 'NONE', #190, .T. ) ;
#321 = FACE_OUTER_BOUND ( 'NONE', #220, .T. ) ;
#322 = ORIENTED_EDGE ( 'NONE', *, *, #332, .F. ) ;
#323 = EDGE_CURVE ( 'NONE', #199, #248, #240, .T. ) ;
#324 = FACE_OUTER_BOUND ( 'NONE', #325, .T. ) ;
#325 = EDGE_LOOP ( 'NONE', ( #102, #369, #157, #131 ) ) ;
#326 = DIRECTION ( 'NONE',  ( -0.000000000000000000, -0.000000000000000000, -1.000000000000000000 ) ) ;
#327 = VERTEX_POINT ( 'NONE', #82 ) ;
#328 = DIRECTION ( 'NONE',  ( 1.000000000000000000, 0.000000000000000000, 0.000000000000000000 ) ) ;
#329 = EDGE_LOOP ( 'NONE', ( #267, #67 ) ) ;
#330 = COORDINATED_UNIVERSAL_TIME_OFFSET ( 1, 0, .AHEAD. ) ;
#331 = CARTESIAN_POINT ( 'NONE',  ( 0.000000000000000000, 0.000000000000000000, 3.300000000000025135 ) ) ;
#332 = EDGE_CURVE ( 'NONE', #16, #86, #48, .T. ) ;
#333 = ORIENTED_EDGE ( 'NONE', *, *, #273, .T. ) ;
#334 = EDGE_LOOP ( 'NONE', ( #2, #78 ) ) ;
#335 = DIRECTION ( 'NONE',  ( -1.000000000000000000, 0.000000000000000000, 0.000000000000000000 ) ) ;
#336 = ADVANCED_FACE ( 'NONE', ( #168, #272 ), #136, .F. ) ;
#337 = CARTESIAN_POINT ( 'NONE',  ( 0.000000000000000000, 0.000000000000000000, 3.000000000000000000 ) ) ;
#338 = AXIS2_PLACEMENT_3D ( 'NONE', #277, #89, #372 ) ;
#339 = VERTEX_POINT ( 'NONE', #140 ) ;
#340 = VECTOR ( 'NONE', #44, 1000.000000000000000 ) ;
#341 = ORIENTED_EDGE ( 'NONE', *, *, #251, .F. ) ;
#342 = CARTESIAN_POINT ( 'NONE',  ( 0.000000000000000000, 0.000000000000000000, 278.0000000000000000 ) ) ;
#343 = APPROVAL_STATUS ( 'not_yet_approved' ) ;
#344 =( GEOMETRIC_REPRESENTATION_CONTEXT ( 3 ) GLOBAL_UNCERTAINTY_ASSIGNED_CONTEXT ( ( #64 ) ) GLOBAL_UNIT_ASSIGNED_CONTEXT ( ( #245, #112, #56 ) ) REPRESENTATION_CONTEXT ( 'NONE', 'WORKASPACE' ) );
#345 = CARTESIAN_POINT ( 'NONE',  ( 4.000000000000000000, 4.898587196589412829E-16, 3.000000000000000000 ) ) ;
#346 = EDGE_CURVE ( 'NONE', #218, #258, #98, .T. ) ;
#347 = AXIS2_PLACEMENT_3D ( 'NONE', #298, #185, #328 ) ;
#348 = DIRECTION ( 'NONE',  ( 0.000000000000000000, 0.000000000000000000, 1.000000000000000000 ) ) ;
#349 = ORIENTED_EDGE ( 'NONE', *, *, #346, .F. ) ;
#350 = DIRECTION ( 'NONE',  ( 1.000000000000000000, 0.000000000000000000, 0.000000000000000000 ) ) ;
#351 = CARTESIAN_POINT ( 'NONE',  ( -4.000000000000000000, 0.000000000000000000, 3.000000000000000000 ) ) ;
#352 = LINE ( 'NONE', #345, #217 ) ;
#353 = CALENDAR_DATE ( 2022, 8, 7 ) ;
#354 = DIRECTION ( 'NONE',  ( -1.000000000000000000, 0.000000000000000000, 0.000000000000000000 ) ) ;
#355 = DIRECTION ( 'NONE',  ( 1.000000000000000000, 0.000000000000000000, 0.000000000000000000 ) ) ;
#356 = ORIENTED_EDGE ( 'NONE', *, *, #323, .T. ) ;
#357 = EDGE_CURVE ( 'NONE', #12, #317, #31, .T. ) ;
#358 = LINE ( 'NONE', #129, #110 ) ;
#359 = TOROIDAL_SURFACE ( 'NONE', #347, 2.299999999999999822, 0.2999999999999999889 ) ;
#360 = VERTEX_POINT ( 'NONE', #194 ) ;
#361 = AXIS2_PLACEMENT_3D ( 'NONE', #228, #309, #160 ) ;
#362 = DIRECTION ( 'NONE',  ( -0.000000000000000000, -0.000000000000000000, -1.000000000000000000 ) ) ;
#363 = ORIENTED_EDGE ( 'NONE', *, *, #364, .F. ) ;
#364 = EDGE_CURVE ( 'NONE', #287, #327, #90, .T. ) ;
#365 = DIRECTION ( 'NONE',  ( 1.000000000000000000, 0.000000000000000000, 0.000000000000000000 ) ) ;
#366 = VECTOR ( 'NONE', #68, 1000.000000000000000 ) ;
#367 = CC_DESIGN_APPROVAL ( #133, ( #118 ) ) ;
#368 = DIRECTION ( 'NONE',  ( 1.000000000000000000, 0.000000000000000000, 0.000000000000000000 ) ) ;
#369 = ORIENTED_EDGE ( 'NONE', *, *, #69, .T. ) ;
#370 = APPLICATION_PROTOCOL_DEFINITION ( 'international standard', 'config_control_design', 1994, #178 ) ;
#371 = PERSON_AND_ORGANIZATION ( #134, #283 ) ;
#372 = DIRECTION ( 'NONE',  ( 1.000000000000000000, 0.000000000000000000, 0.000000000000000000 ) ) ;
#373 = CC_DESIGN_PERSON_AND_ORGANIZATION_ASSIGNMENT ( #28, #146, ( #162 ) ) ;
#374 = LOCAL_TIME ( 17, 49, 39.00000000000000000, #330 ) ;
#375 = DATE_AND_TIME ( #318, #244 ) ;
#376 = LOCAL_TIME ( 17, 49, 39.00000000000000000, #198 ) ;
#377 = DIRECTION ( 'NONE',  ( -1.000000000000000000, 0.000000000000000000, 0.000000000000000000 ) ) ;
#378 = AXIS2_PLACEMENT_3D ( 'NONE', #7, #241, #354 ) ;
#379 = DIRECTION ( 'NONE',  ( 0.000000000000000000, 0.000000000000000000, 1.000000000000000000 ) ) ;
#380 = AXIS2_PLACEMENT_3D ( 'NONE', #229, #233, #149 ) ;
#381 = ORIENTED_EDGE ( 'NONE', *, *, #154, .T. ) ;
ENDSEC;
END-ISO-10303-21;
