ISO-10303-21;
HEADER;
FILE_DESCRIPTION (( 'STEP AP203' ),
    '1' );
FILE_NAME ('d51e.STEP',
    '2022-07-08T14:17:57',
    ( '' ),
    ( '' ),
    'SwSTEP 2.0',
    'SolidWorks 2019',
    '' );
FILE_SCHEMA (( 'CONFIG_CONTROL_DESIGN' ));
ENDSEC;

DATA;
#1 = DIRECTION ( 'NONE',  ( -0.000000000000000000, -0.000000000000000000, -1.000000000000000000 ) ) ;
#2 = DIRECTION ( 'NONE',  ( 0.000000000000000000, 0.000000000000000000, 1.000000000000000000 ) ) ;
#3 = CIRCLE ( 'NONE', #258, 8.000000000000000000 ) ;
#4 = EDGE_LOOP ( 'NONE', ( #363, #187 ) ) ;
#5 = CARTESIAN_POINT ( 'NONE',  ( -8.000000000000000000, 0.000000000000000000, 657.0000000000000000 ) ) ;
#6 = FACE_OUTER_BOUND ( 'NONE', #207, .T. ) ;
#7 = ORIENTED_EDGE ( 'NONE', *, *, #303, .T. ) ;
#8 = PERSON_AND_ORGANIZATION ( #23, #175 ) ;
#9 = DIRECTION ( 'NONE',  ( -1.000000000000000000, 0.000000000000000000, 0.000000000000000000 ) ) ;
#10 = ORIENTED_EDGE ( 'NONE', *, *, #307, .T. ) ;
#11 = DATE_AND_TIME ( #306, #161 ) ;
#12 = AXIS2_PLACEMENT_3D ( 'NONE', #41, #156, #247 ) ;
#13 = ORIENTED_EDGE ( 'NONE', *, *, #222, .F. ) ;
#14 = APPROVAL_STATUS ( 'not_yet_approved' ) ;
#15 = DIRECTION ( 'NONE',  ( -1.000000000000000000, 0.000000000000000000, 0.000000000000000000 ) ) ;
#16 = VERTEX_POINT ( 'NONE', #273 ) ;
#17 = EDGE_CURVE ( 'NONE', #305, #190, #237, .T. ) ;
#18 = CARTESIAN_POINT ( 'NONE',  ( 6.000000000000000888, 7.347880794884120722E-16, 657.0000000000000000 ) ) ;
#19 = ORIENTED_EDGE ( 'NONE', *, *, #290, .F. ) ;
#20 = PERSON_AND_ORGANIZATION ( #23, #175 ) ;
#21 = DIRECTION ( 'NONE',  ( 0.000000000000000000, 0.000000000000000000, 1.000000000000000000 ) ) ;
#22 = PERSON_AND_ORGANIZATION_ROLE ( 'creator' ) ;
#23 = PERSON ( 'NEURÈENÝ', 'NEURÈENÝ', 'NEURÈENÝ', ('NEURÈENÝ'), ('NEURÈENÝ'), ('NEURÈENÝ') ) ;
#24 = CIRCLE ( 'NONE', #201, 11.00000000000000000 ) ;
#25 = CIRCLE ( 'NONE', #77, 6.000000000000000888 ) ;
#26 = CARTESIAN_POINT ( 'NONE',  ( -6.000000000000000888, 0.000000000000000000, 657.0000000000000000 ) ) ;
#27 = COORDINATED_UNIVERSAL_TIME_OFFSET ( 1, 0, .AHEAD. ) ;
#28 = ADVANCED_FACE ( 'NONE', ( #315 ), #147, .F. ) ;
#29 = CIRCLE ( 'NONE', #350, 6.000000000000000888 ) ;
#30 = EDGE_CURVE ( 'NONE', #233, #190, #24, .T. ) ;
#31 = CARTESIAN_POINT ( 'NONE',  ( 0.000000000000000000, 0.000000000000000000, 0.000000000000000000 ) ) ;
#32 = CYLINDRICAL_SURFACE ( 'NONE', #276, 6.000000000000000888 ) ;
#33 = ORIENTED_EDGE ( 'NONE', *, *, #84, .F. ) ;
#34 = CARTESIAN_POINT ( 'NONE',  ( 0.000000000000000000, 0.000000000000000000, 7.000000000000000000 ) ) ;
#35 = AXIS2_PLACEMENT_3D ( 'NONE', #336, #1, #70 ) ;
#36 = DIRECTION ( 'NONE',  ( -0.000000000000000000, -0.000000000000000000, -1.000000000000000000 ) ) ;
#37 = DIRECTION ( 'NONE',  ( 1.000000000000000000, 0.000000000000000000, 0.000000000000000000 ) ) ;
#38 = VERTEX_POINT ( 'NONE', #163 ) ;
#39 = CARTESIAN_POINT ( 'NONE',  ( 0.000000000000000000, 0.000000000000000000, 657.0000000000000000 ) ) ;
#40 = VERTEX_POINT ( 'NONE', #56 ) ;
#41 = CARTESIAN_POINT ( 'NONE',  ( 0.000000000000000000, 0.000000000000000000, 0.000000000000000000 ) ) ;
#42 = DIRECTION ( 'NONE',  ( 0.000000000000000000, 0.000000000000000000, -1.000000000000000000 ) ) ;
#43 = APPROVAL ( #14, 'NEURÈENÝ' ) ;
#44 = CIRCLE ( 'NONE', #360, 0.7000000000000000666 ) ;
#45 = ORIENTED_EDGE ( 'NONE', *, *, #292, .F. ) ;
#46 = FACE_OUTER_BOUND ( 'NONE', #110, .T. ) ;
#47 = LOCAL_TIME ( 16, 17, 57.00000000000000000, #250 ) ;
#48 = DIRECTION ( 'NONE',  ( 1.000000000000000000, 0.000000000000000000, 0.000000000000000000 ) ) ;
#49 = EDGE_LOOP ( 'NONE', ( #150, #19 ) ) ;
#50 = CARTESIAN_POINT ( 'NONE',  ( -6.000000000000000888, 0.000000000000000000, 0.000000000000000000 ) ) ;
#51 = DIRECTION ( 'NONE',  ( -0.000000000000000000, -0.000000000000000000, -1.000000000000000000 ) ) ;
#52 = DIRECTION ( 'NONE',  ( -0.000000000000000000, -0.000000000000000000, -1.000000000000000000 ) ) ;
#53 = APPROVAL_ROLE ( '' ) ;
#54 = CIRCLE ( 'NONE', #228, 11.00000000000000000 ) ;
#55 = PRODUCT_DEFINITION_FORMATION_WITH_SPECIFIED_SOURCE ( 'LIBOVOLNÝ', '', #335, .NOT_KNOWN. ) ;
#56 = CARTESIAN_POINT ( 'NONE',  ( -8.000000000000000000, 0.000000000000000000, 7.700000000000040146 ) ) ;
#57 = VECTOR ( 'NONE', #197, 1000.000000000000000 ) ;
#58 = CC_DESIGN_PERSON_AND_ORGANIZATION_ASSIGNMENT ( #374, #171, ( #55 ) ) ;
#59 = LOCAL_TIME ( 16, 17, 57.00000000000000000, #329 ) ;
#60 = DIRECTION ( 'NONE',  ( -1.000000000000000000, 1.224646799147353207E-16, 0.000000000000000000 ) ) ;
#61 = EDGE_LOOP ( 'NONE', ( #63, #316 ) ) ;
#62 = CARTESIAN_POINT ( 'NONE',  ( 0.000000000000000000, 0.000000000000000000, 7.700000000000040146 ) ) ;
#63 = ORIENTED_EDGE ( 'NONE', *, *, #302, .F. ) ;
#64 = DIRECTION ( 'NONE',  ( -0.000000000000000000, -0.000000000000000000, -1.000000000000000000 ) ) ;
#65 = CARTESIAN_POINT ( 'NONE',  ( -11.00000000000000000, 0.000000000000000000, 0.000000000000000000 ) ) ;
#66 = AXIS2_PLACEMENT_3D ( 'NONE', #346, #21, #48 ) ;
#67 = MANIFOLD_SOLID_BREP ( 'Odebrat vysunutím3', #259 ) ;
#68 = EDGE_LOOP ( 'NONE', ( #309, #243 ) ) ;
#69 = COORDINATED_UNIVERSAL_TIME_OFFSET ( 1, 0, .AHEAD. ) ;
#70 = DIRECTION ( 'NONE',  ( 1.000000000000000000, 0.000000000000000000, 0.000000000000000000 ) ) ;
#71 = ORIENTED_EDGE ( 'NONE', *, *, #102, .F. ) ;
#72 = CARTESIAN_POINT ( 'NONE',  ( 8.000000000000000000, 9.797174393178825657E-16, 657.0000000000000000 ) ) ;
#73 = VERTEX_POINT ( 'NONE', #81 ) ;
#74 = VERTEX_POINT ( 'NONE', #285 ) ;
#75 = DIRECTION ( 'NONE',  ( 1.000000000000000000, 0.000000000000000000, 0.000000000000000000 ) ) ;
#76 = CARTESIAN_POINT ( 'NONE',  ( -8.000000000000000000, 0.000000000000000000, 657.0000000000000000 ) ) ;
#77 = AXIS2_PLACEMENT_3D ( 'NONE', #359, #122, #206 ) ;
#78 = APPROVAL_ROLE ( '' ) ;
#79 = LINE ( 'NONE', #223, #57 ) ;
#80 = SHAPE_DEFINITION_REPRESENTATION ( #271, #236 ) ;
#81 = CARTESIAN_POINT ( 'NONE',  ( 8.000000000000000000, 9.797174393178825657E-16, 7.700000000000040146 ) ) ;
#82 = DIRECTION ( 'NONE',  ( -1.000000000000000000, 0.000000000000000000, 0.000000000000000000 ) ) ;
#83 = CALENDAR_DATE ( 2022, 8, 7 ) ;
#84 = EDGE_CURVE ( 'NONE', #129, #131, #280, .T. ) ;
#85 = VECTOR ( 'NONE', #93, 1000.000000000000000 ) ;
#86 = EDGE_CURVE ( 'NONE', #74, #233, #79, .T. ) ;
#87 = CC_DESIGN_APPROVAL ( #88, ( #172 ) ) ;
#88 = APPROVAL ( #255, 'NEURÈENÝ' ) ;
#89 = AXIS2_PLACEMENT_3D ( 'NONE', #239, #2, #90 ) ;
#90 = DIRECTION ( 'NONE',  ( 1.000000000000000000, 0.000000000000000000, -0.000000000000000000 ) ) ;
#91 = CARTESIAN_POINT ( 'NONE',  ( 0.000000000000000000, 0.000000000000000000, 7.000000000000000000 ) ) ;
#92 = ORIENTED_EDGE ( 'NONE', *, *, #347, .T. ) ;
#93 = DIRECTION ( 'NONE',  ( -0.000000000000000000, -0.000000000000000000, -1.000000000000000000 ) ) ;
#94 = DIRECTION ( 'NONE',  ( 1.000000000000000000, 0.000000000000000000, 0.000000000000000000 ) ) ;
#95 = ORIENTED_EDGE ( 'NONE', *, *, #272, .T. ) ;
#96 = PERSON_AND_ORGANIZATION_ROLE ( 'design_owner' ) ;
#97 = EDGE_CURVE ( 'NONE', #146, #299, #348, .T. ) ;
#98 = CIRCLE ( 'NONE', #371, 8.699999999999999289 ) ;
#99 = DIRECTION ( 'NONE',  ( 0.000000000000000000, 0.000000000000000000, 1.000000000000000000 ) ) ;
#100 = EDGE_LOOP ( 'NONE', ( #366, #361 ) ) ;
#101 = CYLINDRICAL_SURFACE ( 'NONE', #141, 8.000000000000000000 ) ;
#102 = EDGE_CURVE ( 'NONE', #16, #328, #112, .T. ) ;
#103 = UNCERTAINTY_MEASURE_WITH_UNIT (LENGTH_MEASURE( 1.000000000000000082E-05 ), #219, 'distance_accuracy_value', 'NONE');
#104 = ORIENTED_EDGE ( 'NONE', *, *, #102, .T. ) ;
#105 = APPLICATION_PROTOCOL_DEFINITION ( 'international standard', 'config_control_design', 1994, #154 ) ;
#106 = DIRECTION ( 'NONE',  ( 1.000000000000000000, 0.000000000000000000, 0.000000000000000000 ) ) ;
#107 = AXIS2_PLACEMENT_3D ( 'NONE', #133, #42, #82 ) ;
#108 = EDGE_LOOP ( 'NONE', ( #45, #240, #269, #155 ) ) ;
#109 = FACE_OUTER_BOUND ( 'NONE', #331, .T. ) ;
#110 = EDGE_LOOP ( 'NONE', ( #357, #92, #278, #297 ) ) ;
#111 = CALENDAR_DATE ( 2022, 8, 7 ) ;
#112 = LINE ( 'NONE', #26, #379 ) ;
#113 = DATE_TIME_ROLE ( 'classification_date' ) ;
#114 = EDGE_CURVE ( 'NONE', #73, #146, #44, .T. ) ;
#115 = CIRCLE ( 'NONE', #35, 6.000000000000000888 ) ;
#116 = CC_DESIGN_PERSON_AND_ORGANIZATION_ASSIGNMENT ( #188, #96, ( #335 ) ) ;
#117 = LOCAL_TIME ( 16, 17, 57.00000000000000000, #27 ) ;
#118 = EDGE_CURVE ( 'NONE', #305, #74, #54, .T. ) ;
#119 = EDGE_CURVE ( 'NONE', #38, #185, #323, .T. ) ;
#120 = AXIS2_PLACEMENT_3D ( 'NONE', #354, #356, #60 ) ;
#121 = DIRECTION ( 'NONE',  ( -0.000000000000000000, -0.000000000000000000, -1.000000000000000000 ) ) ;
#122 = DIRECTION ( 'NONE',  ( 0.000000000000000000, 0.000000000000000000, 1.000000000000000000 ) ) ;
#123 = ORIENTED_EDGE ( 'NONE', *, *, #302, .T. ) ;
#124 = DATE_AND_TIME ( #159, #59 ) ;
#125 = APPLICATION_CONTEXT ( 'configuration controlled 3d designs of mechanical parts and assemblies' ) ;
#126 = DIRECTION ( 'NONE',  ( 0.000000000000000000, 0.000000000000000000, 1.000000000000000000 ) ) ;
#127 = EDGE_LOOP ( 'NONE', ( #13, #216, #337, #265 ) ) ;
#128 = DIRECTION ( 'NONE',  ( 0.000000000000000000, 0.000000000000000000, -1.000000000000000000 ) ) ;
#129 = VERTEX_POINT ( 'NONE', #200 ) ;
#130 = DATE_TIME_ROLE ( 'creation_date' ) ;
#131 = VERTEX_POINT ( 'NONE', #165 ) ;
#132 = DIRECTION ( 'NONE',  ( -0.000000000000000000, -0.000000000000000000, -1.000000000000000000 ) ) ;
#133 = CARTESIAN_POINT ( 'NONE',  ( 0.000000000000000000, 0.000000000000000000, 657.0000000000000000 ) ) ;
#134 = CARTESIAN_POINT ( 'NONE',  ( 11.00000000000000000, 1.347111479062088405E-15, 0.000000000000000000 ) ) ;
#135 = PERSON_AND_ORGANIZATION_ROLE ( 'classification_officer' ) ;
#136 = DIRECTION ( 'NONE',  ( 1.000000000000000000, 0.000000000000000000, 0.000000000000000000 ) ) ;
#137 = AXIS2_PLACEMENT_3D ( 'NONE', #362, #195, #241 ) ;
#138 = CARTESIAN_POINT ( 'NONE',  ( 0.000000000000000000, 0.000000000000000000, 0.000000000000000000 ) ) ;
#139 = APPROVAL_ROLE ( '' ) ;
#140 = AXIS2_PLACEMENT_3D ( 'NONE', #217, #341, #106 ) ;
#141 = AXIS2_PLACEMENT_3D ( 'NONE', #279, #64, #300 ) ;
#142 = APPROVAL_PERSON_ORGANIZATION ( #344, #88, #139 ) ;
#143 = DIRECTION ( 'NONE',  ( 1.000000000000000000, 0.000000000000000000, 0.000000000000000000 ) ) ;
#144 = ADVANCED_FACE ( 'NONE', ( #288 ), #317, .T. ) ;
#145 = DIRECTION ( 'NONE',  ( 1.000000000000000000, 0.000000000000000000, 0.000000000000000000 ) ) ;
#146 = VERTEX_POINT ( 'NONE', #251 ) ;
#147 = TOROIDAL_SURFACE ( 'NONE', #182, 8.699999999999999289, 0.6999999999999999556 ) ;
#148 = AXIS2_PLACEMENT_3D ( 'NONE', #34, #126, #295 ) ;
#149 = DIRECTION ( 'NONE',  ( -1.000000000000000000, 0.000000000000000000, 0.000000000000000000 ) ) ;
#150 = ORIENTED_EDGE ( 'NONE', *, *, #30, .F. ) ;
#151 = LINE ( 'NONE', #5, #212 ) ;
#152 = CC_DESIGN_PERSON_AND_ORGANIZATION_ASSIGNMENT ( #256, #135, ( #172 ) ) ;
#153 = DIRECTION ( 'NONE',  ( -0.000000000000000000, -0.000000000000000000, -1.000000000000000000 ) ) ;
#154 = APPLICATION_CONTEXT ( 'configuration controlled 3d designs of mechanical parts and assemblies' ) ;
#155 = ORIENTED_EDGE ( 'NONE', *, *, #114, .F. ) ;
#156 = DIRECTION ( 'NONE',  ( 0.000000000000000000, 0.000000000000000000, 1.000000000000000000 ) ) ;
#157 = DIRECTION ( 'NONE',  ( -0.000000000000000000, -0.000000000000000000, -1.000000000000000000 ) ) ;
#158 = EDGE_LOOP ( 'NONE', ( #312, #313, #10, #178 ) ) ;
#159 = CALENDAR_DATE ( 2022, 8, 7 ) ;
#160 = DIRECTION ( 'NONE',  ( 0.000000000000000000, 0.000000000000000000, 1.000000000000000000 ) ) ;
#161 = LOCAL_TIME ( 16, 17, 57.00000000000000000, #69 ) ;
#162 = ORIENTED_EDGE ( 'NONE', *, *, #86, .F. ) ;
#163 = CARTESIAN_POINT ( 'NONE',  ( 8.000000000000000000, 9.797174393178825657E-16, 657.0000000000000000 ) ) ;
#164 = ORIENTED_EDGE ( 'NONE', *, *, #30, .T. ) ;
#165 = CARTESIAN_POINT ( 'NONE',  ( 6.000000000000000888, 7.347880794884120722E-16, 0.000000000000000000 ) ) ;
#166 = DATE_AND_TIME ( #111, #47 ) ;
#167 = DIRECTION ( 'NONE',  ( 1.000000000000000000, 0.000000000000000000, 0.000000000000000000 ) ) ;
#168 = ADVANCED_FACE ( 'NONE', ( #109 ), #311, .F. ) ;
#169 = CIRCLE ( 'NONE', #120, 0.6999999999999992895 ) ;
#170 = ADVANCED_FACE ( 'NONE', ( #246 ), #352, .F. ) ;
#171 = PERSON_AND_ORGANIZATION_ROLE ( 'design_supplier' ) ;
#172 = SECURITY_CLASSIFICATION ( '', '', #282 ) ;
#173 = CARTESIAN_POINT ( 'NONE',  ( 0.000000000000000000, 0.000000000000000000, 7.000000000000000000 ) ) ;
#174 =( GEOMETRIC_REPRESENTATION_CONTEXT ( 3 ) GLOBAL_UNCERTAINTY_ASSIGNED_CONTEXT ( ( #103 ) ) GLOBAL_UNIT_ASSIGNED_CONTEXT ( ( #219, #191, #340 ) ) REPRESENTATION_CONTEXT ( 'NONE', 'WORKASPACE' ) );
#175 = ORGANIZATION ( 'NEURÈENÝ', 'NEURÈENÝ', '' ) ;
#176 = DIRECTION ( 'NONE',  ( 0.000000000000000000, 0.000000000000000000, 1.000000000000000000 ) ) ;
#177 = DIRECTION ( 'NONE',  ( -0.000000000000000000, -0.000000000000000000, -1.000000000000000000 ) ) ;
#178 = ORIENTED_EDGE ( 'NONE', *, *, #292, .T. ) ;
#179 = DIRECTION ( 'NONE',  ( 0.000000000000000000, 0.000000000000000000, 1.000000000000000000 ) ) ;
#180 = CARTESIAN_POINT ( 'NONE',  ( 11.00000000000000000, 1.347111479062088405E-15, 7.000000000000000000 ) ) ;
#181 = APPROVAL_DATE_TIME ( #124, #194 ) ;
#182 = AXIS2_PLACEMENT_3D ( 'NONE', #254, #160, #136 ) ;
#183 = AXIS2_PLACEMENT_3D ( 'NONE', #343, #177, #149 ) ;
#184 = PLANE ( 'NONE',  #286 ) ;
#185 = VERTEX_POINT ( 'NONE', #76 ) ;
#186 = CARTESIAN_POINT ( 'NONE',  ( 0.000000000000000000, 0.000000000000000000, 0.000000000000000000 ) ) ;
#187 = ORIENTED_EDGE ( 'NONE', *, *, #119, .T. ) ;
#188 = PERSON_AND_ORGANIZATION ( #23, #175 ) ;
#189 = ORIENTED_EDGE ( 'NONE', *, *, #97, .T. ) ;
#190 = VERTEX_POINT ( 'NONE', #134 ) ;
#191 =( NAMED_UNIT ( * ) PLANE_ANGLE_UNIT ( ) SI_UNIT ( $, .RADIAN. ) );
#192 = DIRECTION ( 'NONE',  ( 1.000000000000000000, 0.000000000000000000, 0.000000000000000000 ) ) ;
#193 = AXIS2_PLACEMENT_3D ( 'NONE', #283, #51, #15 ) ;
#194 = APPROVAL ( #266, 'NEURÈENÝ' ) ;
#195 = DIRECTION ( 'NONE',  ( 0.000000000000000000, 0.000000000000000000, 1.000000000000000000 ) ) ;
#196 = DIRECTION ( 'NONE',  ( 0.000000000000000000, 0.000000000000000000, -1.000000000000000000 ) ) ;
#197 = DIRECTION ( 'NONE',  ( -0.000000000000000000, -0.000000000000000000, -1.000000000000000000 ) ) ;
#198 = ORIENTED_EDGE ( 'NONE', *, *, #17, .T. ) ;
#199 = DATE_AND_TIME ( #377, #353 ) ;
#200 = CARTESIAN_POINT ( 'NONE',  ( 6.000000000000000888, 7.347880794884120722E-16, 657.0000000000000000 ) ) ;
#201 = AXIS2_PLACEMENT_3D ( 'NONE', #138, #320, #345 ) ;
#202 = DATE_AND_TIME ( #83, #117 ) ;
#203 = CIRCLE ( 'NONE', #252, 11.00000000000000000 ) ;
#204 = PRODUCT_RELATED_PRODUCT_CATEGORY ( 'detail', '', ( #335 ) ) ;
#205 = FACE_OUTER_BOUND ( 'NONE', #339, .T. ) ;
#206 = DIRECTION ( 'NONE',  ( 1.000000000000000000, 0.000000000000000000, 0.000000000000000000 ) ) ;
#207 = EDGE_LOOP ( 'NONE', ( #210, #198, #262, #162 ) ) ;
#208 = LINE ( 'NONE', #72, #85 ) ;
#209 = CARTESIAN_POINT ( 'NONE',  ( 0.000000000000000000, 0.000000000000000000, 7.000000000000000000 ) ) ;
#210 = ORIENTED_EDGE ( 'NONE', *, *, #118, .F. ) ;
#211 = VECTOR ( 'NONE', #375, 1000.000000000000000 ) ;
#212 = VECTOR ( 'NONE', #132, 1000.000000000000000 ) ;
#213 = CARTESIAN_POINT ( 'NONE',  ( -8.699999999999999289, 1.065442715258197248E-15, 7.000000000000020428 ) ) ;
#214 = ORIENTED_EDGE ( 'NONE', *, *, #17, .F. ) ;
#215 = ADVANCED_FACE ( 'NONE', ( #248 ), #368, .T. ) ;
#216 = ORIENTED_EDGE ( 'NONE', *, *, #245, .F. ) ;
#217 = CARTESIAN_POINT ( 'NONE',  ( 0.000000000000000000, 0.000000000000000000, 7.700000000000040146 ) ) ;
#218 = ORIENTED_EDGE ( 'NONE', *, *, #84, .T. ) ;
#219 =( LENGTH_UNIT ( ) NAMED_UNIT ( * ) SI_UNIT ( .MILLI., .METRE. ) );
#220 = CARTESIAN_POINT ( 'NONE',  ( 8.699999999999999289, 0.000000000000000000, 7.700000000000040146 ) ) ;
#221 = CIRCLE ( 'NONE', #148, 11.00000000000000000 ) ;
#222 = EDGE_CURVE ( 'NONE', #40, #299, #169, .T. ) ;
#223 = CARTESIAN_POINT ( 'NONE',  ( -11.00000000000000000, 0.000000000000000000, 7.000000000000000000 ) ) ;
#224 = PRODUCT_DEFINITION ( 'NEZNÁMÝ', '', #55, #257 ) ;
#225 = APPROVAL_DATE_TIME ( #202, #43 ) ;
#226 = CARTESIAN_POINT ( 'NONE',  ( 0.000000000000000000, 0.000000000000000000, 7.000000000000000000 ) ) ;
#227 = APPROVAL_PERSON_ORGANIZATION ( #342, #194, #78 ) ;
#228 = AXIS2_PLACEMENT_3D ( 'NONE', #226, #365, #192 ) ;
#229 = CC_DESIGN_PERSON_AND_ORGANIZATION_ASSIGNMENT ( #8, #332, ( #224 ) ) ;
#230 = DIRECTION ( 'NONE',  ( 1.000000000000000000, 0.000000000000000000, 0.000000000000000000 ) ) ;
#231 = AXIS2_PLACEMENT_3D ( 'NONE', #62, #176, #145 ) ;
#232 = CARTESIAN_POINT ( 'NONE',  ( 0.000000000000000000, 0.000000000000000000, 7.700000000000040146 ) ) ;
#233 = VERTEX_POINT ( 'NONE', #65 ) ;
#234 = FACE_OUTER_BOUND ( 'NONE', #68, .T. ) ;
#235 = DIRECTION ( 'NONE',  ( 0.000000000000000000, 0.000000000000000000, 1.000000000000000000 ) ) ;
#236 = ADVANCED_BREP_SHAPE_REPRESENTATION ( 'd51e', ( #67, #12 ), #174 ) ;
#237 = LINE ( 'NONE', #180, #322 ) ;
#238 = CARTESIAN_POINT ( 'NONE',  ( 11.00000000000000000, 1.347111479062088405E-15, 7.000000000000000000 ) ) ;
#239 = CARTESIAN_POINT ( 'NONE',  ( 0.000000000000000000, 0.000000000000000000, 657.0000000000000000 ) ) ;
#240 = ORIENTED_EDGE ( 'NONE', *, *, #222, .T. ) ;
#241 = DIRECTION ( 'NONE',  ( 1.000000000000000000, 0.000000000000000000, -0.000000000000000000 ) ) ;
#242 = ADVANCED_FACE ( 'NONE', ( #205 ), #32, .F. ) ;
#243 = ORIENTED_EDGE ( 'NONE', *, *, #118, .T. ) ;
#244 = ADVANCED_FACE ( 'NONE', ( #6 ), #327, .T. ) ;
#245 = EDGE_CURVE ( 'NONE', #73, #40, #380, .T. ) ;
#246 = FACE_OUTER_BOUND ( 'NONE', #127, .T. ) ;
#247 = DIRECTION ( 'NONE',  ( 1.000000000000000000, 0.000000000000000000, 0.000000000000000000 ) ) ;
#248 = FACE_OUTER_BOUND ( 'NONE', #281, .T. ) ;
#249 = EDGE_CURVE ( 'NONE', #185, #38, #3, .T. ) ;
#250 = COORDINATED_UNIVERSAL_TIME_OFFSET ( 1, 0, .AHEAD. ) ;
#251 = CARTESIAN_POINT ( 'NONE',  ( 8.699999999999999289, 0.000000000000000000, 7.000000000000020428 ) ) ;
#252 = AXIS2_PLACEMENT_3D ( 'NONE', #31, #235, #94 ) ;
#253 = ORIENTED_EDGE ( 'NONE', *, *, #275, .F. ) ;
#254 = CARTESIAN_POINT ( 'NONE',  ( 0.000000000000000000, 0.000000000000000000, 7.700000000000040146 ) ) ;
#255 = APPROVAL_STATUS ( 'not_yet_approved' ) ;
#256 = PERSON_AND_ORGANIZATION ( #23, #175 ) ;
#257 = DESIGN_CONTEXT ( 'detailed design', #154, 'design' ) ;
#258 = AXIS2_PLACEMENT_3D ( 'NONE', #39, #179, #37 ) ;
#259 = CLOSED_SHELL ( 'NONE', ( #242, #28, #372, #244, #215, #349, #293, #144, #268, #170, #168 ) ) ;
#260 = DIRECTION ( 'NONE',  ( 1.000000000000000000, 0.000000000000000000, -0.000000000000000000 ) ) ;
#261 = FACE_OUTER_BOUND ( 'NONE', #4, .T. ) ;
#262 = ORIENTED_EDGE ( 'NONE', *, *, #290, .T. ) ;
#263 = AXIS2_PLACEMENT_3D ( 'NONE', #173, #52, #167 ) ;
#264 = FACE_OUTER_BOUND ( 'NONE', #49, .T. ) ;
#265 = ORIENTED_EDGE ( 'NONE', *, *, #272, .F. ) ;
#266 = APPROVAL_STATUS ( 'not_yet_approved' ) ;
#267 = DIRECTION ( 'NONE',  ( -1.000000000000000000, 0.000000000000000000, 0.000000000000000000 ) ) ;
#268 = ADVANCED_FACE ( 'NONE', ( #326, #261 ), #296, .T. ) ;
#269 = ORIENTED_EDGE ( 'NONE', *, *, #97, .F. ) ;
#270 = PLANE ( 'NONE',  #137 ) ;
#271 = PRODUCT_DEFINITION_SHAPE ( 'NONE', 'NONE',  #224 ) ;
#272 = EDGE_CURVE ( 'NONE', #299, #146, #98, .T. ) ;
#273 = CARTESIAN_POINT ( 'NONE',  ( -6.000000000000000888, 0.000000000000000000, 657.0000000000000000 ) ) ;
#274 = PERSON_AND_ORGANIZATION ( #23, #175 ) ;
#275 = EDGE_CURVE ( 'NONE', #74, #305, #221, .T. ) ;
#276 = AXIS2_PLACEMENT_3D ( 'NONE', #308, #128, #267 ) ;
#277 = DIRECTION ( 'NONE',  ( 0.000000000000000000, -1.000000000000000000, 0.000000000000000000 ) ) ;
#278 = ORIENTED_EDGE ( 'NONE', *, *, #245, .T. ) ;
#279 = CARTESIAN_POINT ( 'NONE',  ( 0.000000000000000000, 0.000000000000000000, 657.0000000000000000 ) ) ;
#280 = LINE ( 'NONE', #18, #211 ) ;
#281 = EDGE_LOOP ( 'NONE', ( #214, #253, #338, #164 ) ) ;
#282 = SECURITY_CLASSIFICATION_LEVEL ( 'unclassified' ) ;
#283 = CARTESIAN_POINT ( 'NONE',  ( 0.000000000000000000, 0.000000000000000000, 657.0000000000000000 ) ) ;
#284 = COORDINATED_UNIVERSAL_TIME_OFFSET ( 1, 0, .AHEAD. ) ;
#285 = CARTESIAN_POINT ( 'NONE',  ( -11.00000000000000000, 0.000000000000000000, 7.000000000000000000 ) ) ;
#286 = AXIS2_PLACEMENT_3D ( 'NONE', #304, #99, #260 ) ;
#287 = APPROVAL_PERSON_ORGANIZATION ( #274, #43, #53 ) ;
#288 = FACE_OUTER_BOUND ( 'NONE', #158, .T. ) ;
#289 = EDGE_CURVE ( 'NONE', #16, #129, #25, .T. ) ;
#290 = EDGE_CURVE ( 'NONE', #190, #233, #203, .T. ) ;
#291 = AXIS2_PLACEMENT_3D ( 'NONE', #232, #351, #143 ) ;
#292 = EDGE_CURVE ( 'NONE', #40, #73, #378, .T. ) ;
#293 = ADVANCED_FACE ( 'NONE', ( #298, #264 ), #184, .F. ) ;
#294 = AXIS2_PLACEMENT_3D ( 'NONE', #186, #121, #230 ) ;
#295 = DIRECTION ( 'NONE',  ( 1.000000000000000000, 0.000000000000000000, 0.000000000000000000 ) ) ;
#296 = PLANE ( 'NONE',  #89 ) ;
#297 = ORIENTED_EDGE ( 'NONE', *, *, #307, .F. ) ;
#298 = FACE_BOUND ( 'NONE', #61, .T. ) ;
#299 = VERTEX_POINT ( 'NONE', #213 ) ;
#300 = DIRECTION ( 'NONE',  ( -1.000000000000000000, 0.000000000000000000, 0.000000000000000000 ) ) ;
#301 = AXIS2_PLACEMENT_3D ( 'NONE', #91, #153, #9 ) ;
#302 = EDGE_CURVE ( 'NONE', #328, #131, #115, .T. ) ;
#303 = EDGE_CURVE ( 'NONE', #131, #328, #319, .T. ) ;
#304 = CARTESIAN_POINT ( 'NONE',  ( 0.000000000000000000, 0.000000000000000000, 0.000000000000000000 ) ) ;
#305 = VERTEX_POINT ( 'NONE', #238 ) ;
#306 = CALENDAR_DATE ( 2022, 8, 7 ) ;
#307 = EDGE_CURVE ( 'NONE', #185, #40, #151, .T. ) ;
#308 = CARTESIAN_POINT ( 'NONE',  ( 0.000000000000000000, 0.000000000000000000, 657.0000000000000000 ) ) ;
#309 = ORIENTED_EDGE ( 'NONE', *, *, #275, .T. ) ;
#310 = FACE_BOUND ( 'NONE', #369, .T. ) ;
#311 = CYLINDRICAL_SURFACE ( 'NONE', #107, 6.000000000000000888 ) ;
#312 = ORIENTED_EDGE ( 'NONE', *, *, #347, .F. ) ;
#313 = ORIENTED_EDGE ( 'NONE', *, *, #249, .F. ) ;
#314 = CARTESIAN_POINT ( 'NONE',  ( 0.000000000000000000, 0.000000000000000000, 657.0000000000000000 ) ) ;
#315 = FACE_OUTER_BOUND ( 'NONE', #108, .T. ) ;
#316 = ORIENTED_EDGE ( 'NONE', *, *, #303, .F. ) ;
#317 = CYLINDRICAL_SURFACE ( 'NONE', #193, 8.000000000000000000 ) ;
#318 = DIRECTION ( 'NONE',  ( 0.000000000000000000, 0.000000000000000000, -1.000000000000000000 ) ) ;
#319 = CIRCLE ( 'NONE', #294, 6.000000000000000888 ) ;
#320 = DIRECTION ( 'NONE',  ( 0.000000000000000000, 0.000000000000000000, 1.000000000000000000 ) ) ;
#321 = CC_DESIGN_DATE_AND_TIME_ASSIGNMENT ( #11, #130, ( #224 ) ) ;
#322 = VECTOR ( 'NONE', #36, 1000.000000000000000 ) ;
#323 = CIRCLE ( 'NONE', #66, 8.000000000000000000 ) ;
#324 = CC_DESIGN_APPROVAL ( #194, ( #224 ) ) ;
#325 = CC_DESIGN_PERSON_AND_ORGANIZATION_ASSIGNMENT ( #20, #22, ( #55 ) ) ;
#326 = FACE_BOUND ( 'NONE', #100, .T. ) ;
#327 = CYLINDRICAL_SURFACE ( 'NONE', #301, 11.00000000000000000 ) ;
#328 = VERTEX_POINT ( 'NONE', #50 ) ;
#329 = COORDINATED_UNIVERSAL_TIME_OFFSET ( 1, 0, .AHEAD. ) ;
#330 = DIRECTION ( 'NONE',  ( 1.000000000000000000, 0.000000000000000000, 0.000000000000000000 ) ) ;
#331 = EDGE_LOOP ( 'NONE', ( #33, #373, #104, #123 ) ) ;
#332 = PERSON_AND_ORGANIZATION_ROLE ( 'creator' ) ;
#333 = CC_DESIGN_DATE_AND_TIME_ASSIGNMENT ( #166, #113, ( #172 ) ) ;
#334 = CC_DESIGN_APPROVAL ( #43, ( #55 ) ) ;
#335 = PRODUCT ( 'd51e', 'd51e', '', ( #358 ) ) ;
#336 = CARTESIAN_POINT ( 'NONE',  ( 0.000000000000000000, 0.000000000000000000, 0.000000000000000000 ) ) ;
#337 = ORIENTED_EDGE ( 'NONE', *, *, #114, .T. ) ;
#338 = ORIENTED_EDGE ( 'NONE', *, *, #86, .T. ) ;
#339 = EDGE_LOOP ( 'NONE', ( #355, #218, #7, #71 ) ) ;
#340 =( NAMED_UNIT ( * ) SI_UNIT ( $, .STERADIAN. ) SOLID_ANGLE_UNIT ( ) );
#341 = DIRECTION ( 'NONE',  ( 0.000000000000000000, 0.000000000000000000, 1.000000000000000000 ) ) ;
#342 = PERSON_AND_ORGANIZATION ( #23, #175 ) ;
#343 = CARTESIAN_POINT ( 'NONE',  ( 0.000000000000000000, 0.000000000000000000, 7.000000000000000000 ) ) ;
#344 = PERSON_AND_ORGANIZATION ( #23, #175 ) ;
#345 = DIRECTION ( 'NONE',  ( 1.000000000000000000, 0.000000000000000000, 0.000000000000000000 ) ) ;
#346 = CARTESIAN_POINT ( 'NONE',  ( 0.000000000000000000, 0.000000000000000000, 657.0000000000000000 ) ) ;
#347 = EDGE_CURVE ( 'NONE', #38, #73, #208, .T. ) ;
#348 = CIRCLE ( 'NONE', #263, 8.699999999999999289 ) ;
#349 = ADVANCED_FACE ( 'NONE', ( #310, #234 ), #270, .T. ) ;
#350 = AXIS2_PLACEMENT_3D ( 'NONE', #314, #364, #75 ) ;
#351 = DIRECTION ( 'NONE',  ( 0.000000000000000000, 0.000000000000000000, 1.000000000000000000 ) ) ;
#352 = TOROIDAL_SURFACE ( 'NONE', #140, 8.699999999999999289, 0.6999999999999999556 ) ;
#353 = LOCAL_TIME ( 16, 17, 57.00000000000000000, #284 ) ;
#354 = CARTESIAN_POINT ( 'NONE',  ( -8.699999999999999289, 1.065442715258197248E-15, 7.700000000000040146 ) ) ;
#355 = ORIENTED_EDGE ( 'NONE', *, *, #289, .T. ) ;
#356 = DIRECTION ( 'NONE',  ( 1.224646799147353207E-16, 1.000000000000000000, -0.000000000000000000 ) ) ;
#357 = ORIENTED_EDGE ( 'NONE', *, *, #119, .F. ) ;
#358 = MECHANICAL_CONTEXT ( 'NONE', #125, 'mechanical' ) ;
#359 = CARTESIAN_POINT ( 'NONE',  ( 0.000000000000000000, 0.000000000000000000, 657.0000000000000000 ) ) ;
#360 = AXIS2_PLACEMENT_3D ( 'NONE', #220, #277, #196 ) ;
#361 = ORIENTED_EDGE ( 'NONE', *, *, #376, .F. ) ;
#362 = CARTESIAN_POINT ( 'NONE',  ( 0.000000000000000000, 0.000000000000000000, 7.000000000000000000 ) ) ;
#363 = ORIENTED_EDGE ( 'NONE', *, *, #249, .T. ) ;
#364 = DIRECTION ( 'NONE',  ( 0.000000000000000000, 0.000000000000000000, 1.000000000000000000 ) ) ;
#365 = DIRECTION ( 'NONE',  ( 0.000000000000000000, 0.000000000000000000, 1.000000000000000000 ) ) ;
#366 = ORIENTED_EDGE ( 'NONE', *, *, #289, .F. ) ;
#367 = APPLICATION_PROTOCOL_DEFINITION ( 'international standard', 'config_control_design', 1994, #125 ) ;
#368 = CYLINDRICAL_SURFACE ( 'NONE', #183, 11.00000000000000000 ) ;
#369 = EDGE_LOOP ( 'NONE', ( #189, #95 ) ) ;
#370 = APPROVAL_DATE_TIME ( #199, #88 ) ;
#371 = AXIS2_PLACEMENT_3D ( 'NONE', #209, #157, #330 ) ;
#372 = ADVANCED_FACE ( 'NONE', ( #46 ), #101, .T. ) ;
#373 = ORIENTED_EDGE ( 'NONE', *, *, #376, .T. ) ;
#374 = PERSON_AND_ORGANIZATION ( #23, #175 ) ;
#375 = DIRECTION ( 'NONE',  ( 0.000000000000000000, 0.000000000000000000, -1.000000000000000000 ) ) ;
#376 = EDGE_CURVE ( 'NONE', #129, #16, #29, .T. ) ;
#377 = CALENDAR_DATE ( 2022, 8, 7 ) ;
#378 = CIRCLE ( 'NONE', #291, 8.000000000000000000 ) ;
#379 = VECTOR ( 'NONE', #318, 1000.000000000000000 ) ;
#380 = CIRCLE ( 'NONE', #231, 8.000000000000000000 ) ;
#381 = CC_DESIGN_SECURITY_CLASSIFICATION ( #172, ( #55 ) ) ;
ENDSEC;
END-ISO-10303-21;
