ISO-10303-21;
HEADER;
FILE_DESCRIPTION (( 'STEP AP203' ),
    '1' );
FILE_NAME ('1ca6.STEP',
    '2022-07-08T15:24:00',
    ( '' ),
    ( '' ),
    'SwSTEP 2.0',
    'SolidWorks 2019',
    '' );
FILE_SCHEMA (( 'CONFIG_CONTROL_DESIGN' ));
ENDSEC;

DATA;
#1 = CARTESIAN_POINT ( 'NONE',  ( -2.250000000000000000, 0.000000000000000000, 230.0000000000000000 ) ) ;
#2 = SHAPE_DEFINITION_REPRESENTATION ( #45, #32 ) ;
#3 = FACE_OUTER_BOUND ( 'NONE', #291, .T. ) ;
#4 = AXIS2_PLACEMENT_3D ( 'NONE', #304, #44, #158 ) ;
#5 = PLANE ( 'NONE',  #200 ) ;
#6 = CC_DESIGN_PERSON_AND_ORGANIZATION_ASSIGNMENT ( #87, #139, ( #282 ) ) ;
#7 = CARTESIAN_POINT ( 'NONE',  ( 7.000000000000000000, 8.572527594031473190E-16, 5.000000000000000000 ) ) ;
#8 = CARTESIAN_POINT ( 'NONE',  ( 2.250000000000000000, 2.755455298081544285E-16, 230.0000000000000000 ) ) ;
#9 = AXIS2_PLACEMENT_3D ( 'NONE', #273, #365, #104 ) ;
#10 = CC_DESIGN_PERSON_AND_ORGANIZATION_ASSIGNMENT ( #315, #54, ( #153 ) ) ;
#11 = CYLINDRICAL_SURFACE ( 'NONE', #206, 2.250000000000000000 ) ;
#12 = VERTEX_POINT ( 'NONE', #166 ) ;
#13 = DIRECTION ( 'NONE',  ( 1.000000000000000000, 0.000000000000000000, -0.000000000000000000 ) ) ;
#14 = EDGE_CURVE ( 'NONE', #274, #279, #205, .T. ) ;
#15 = ORIENTED_EDGE ( 'NONE', *, *, #346, .F. ) ;
#16 = VECTOR ( 'NONE', #322, 1000.000000000000000 ) ;
#17 = DIRECTION ( 'NONE',  ( -1.000000000000000000, 0.000000000000000000, 0.000000000000000000 ) ) ;
#18 = ORIENTED_EDGE ( 'NONE', *, *, #369, .F. ) ;
#19 = DATE_AND_TIME ( #189, #215 ) ;
#20 = ORIENTED_EDGE ( 'NONE', *, *, #362, .T. ) ;
#21 = DIRECTION ( 'NONE',  ( 0.000000000000000000, 0.000000000000000000, 1.000000000000000000 ) ) ;
#22 = EDGE_LOOP ( 'NONE', ( #258, #20 ) ) ;
#23 = ADVANCED_FACE ( 'NONE', ( #378 ), #224, .T. ) ;
#24 = AXIS2_PLACEMENT_3D ( 'NONE', #280, #240, #122 ) ;
#25 = MECHANICAL_CONTEXT ( 'NONE', #212, 'mechanical' ) ;
#26 = CARTESIAN_POINT ( 'NONE',  ( 0.000000000000000000, 0.000000000000000000, 5.500000000000005329 ) ) ;
#27 = VERTEX_POINT ( 'NONE', #343 ) ;
#28 = AXIS2_PLACEMENT_3D ( 'NONE', #94, #52, #163 ) ;
#29 = CIRCLE ( 'NONE', #354, 2.250000000000000000 ) ;
#30 = ORIENTED_EDGE ( 'NONE', *, *, #144, .F. ) ;
#31 = FACE_OUTER_BOUND ( 'NONE', #357, .T. ) ;
#32 = ADVANCED_BREP_SHAPE_REPRESENTATION ( '1ca6', ( #195, #331 ), #59 ) ;
#33 = EDGE_LOOP ( 'NONE', ( #261, #337, #340, #328 ) ) ;
#34 = DIRECTION ( 'NONE',  ( 0.000000000000000000, 0.000000000000000000, -1.000000000000000000 ) ) ;
#35 = AXIS2_PLACEMENT_3D ( 'NONE', #119, #353, #97 ) ;
#36 = CARTESIAN_POINT ( 'NONE',  ( 0.000000000000000000, 0.000000000000000000, 230.0000000000000000 ) ) ;
#37 = FACE_OUTER_BOUND ( 'NONE', #220, .T. ) ;
#38 = ADVANCED_FACE ( 'NONE', ( #319 ), #58, .T. ) ;
#39 = CARTESIAN_POINT ( 'NONE',  ( 0.000000000000000000, 0.000000000000000000, 230.0000000000000000 ) ) ;
#40 = LOCAL_TIME ( 17, 24, 0.000000000000000000, #193 ) ;
#41 = CARTESIAN_POINT ( 'NONE',  ( -7.000000000000000000, 0.000000000000000000, 5.000000000000000000 ) ) ;
#42 = ORIENTED_EDGE ( 'NONE', *, *, #83, .T. ) ;
#43 = EDGE_CURVE ( 'NONE', #244, #69, #259, .T. ) ;
#44 = DIRECTION ( 'NONE',  ( -0.000000000000000000, -0.000000000000000000, -1.000000000000000000 ) ) ;
#45 = PRODUCT_DEFINITION_SHAPE ( 'NONE', 'NONE',  #282 ) ;
#46 = CARTESIAN_POINT ( 'NONE',  ( 0.000000000000000000, 0.000000000000000000, 230.0000000000000000 ) ) ;
#47 = AXIS2_PLACEMENT_3D ( 'NONE', #229, #191, #345 ) ;
#48 = CIRCLE ( 'NONE', #9, 7.000000000000000000 ) ;
#49 = DIRECTION ( 'NONE',  ( 0.000000000000000000, 0.000000000000000000, -1.000000000000000000 ) ) ;
#50 = ORIENTED_EDGE ( 'NONE', *, *, #330, .T. ) ;
#51 = APPROVAL_DATE_TIME ( #19, #303 ) ;
#52 = DIRECTION ( 'NONE',  ( 0.000000000000000000, 0.000000000000000000, 1.000000000000000000 ) ) ;
#53 = AXIS2_PLACEMENT_3D ( 'NONE', #219, #309, #49 ) ;
#54 = PERSON_AND_ORGANIZATION_ROLE ( 'design_supplier' ) ;
#55 = CC_DESIGN_APPROVAL ( #303, ( #148 ) ) ;
#56 = DATE_AND_TIME ( #115, #164 ) ;
#57 = COORDINATED_UNIVERSAL_TIME_OFFSET ( 1, 0, .AHEAD. ) ;
#58 = CYLINDRICAL_SURFACE ( 'NONE', #186, 7.000000000000000000 ) ;
#59 =( GEOMETRIC_REPRESENTATION_CONTEXT ( 3 ) GLOBAL_UNCERTAINTY_ASSIGNED_CONTEXT ( ( #271 ) ) GLOBAL_UNIT_ASSIGNED_CONTEXT ( ( #168, #313, #223 ) ) REPRESENTATION_CONTEXT ( 'NONE', 'WORKASPACE' ) );
#60 = DIRECTION ( 'NONE',  ( 0.000000000000000000, 0.000000000000000000, 1.000000000000000000 ) ) ;
#61 = DIRECTION ( 'NONE',  ( -1.000000000000000000, 0.000000000000000000, 0.000000000000000000 ) ) ;
#62 = EDGE_CURVE ( 'NONE', #279, #274, #80, .T. ) ;
#63 = DIRECTION ( 'NONE',  ( 0.000000000000000000, 0.000000000000000000, -1.000000000000000000 ) ) ;
#64 = LINE ( 'NONE', #121, #106 ) ;
#65 = AXIS2_PLACEMENT_3D ( 'NONE', #237, #361, #102 ) ;
#66 = ADVANCED_FACE ( 'NONE', ( #120 ), #266, .F. ) ;
#67 = CARTESIAN_POINT ( 'NONE',  ( -2.250000000000000000, 0.000000000000000000, 230.0000000000000000 ) ) ;
#68 = CARTESIAN_POINT ( 'NONE',  ( 0.000000000000000000, 0.000000000000000000, 0.000000000000000000 ) ) ;
#69 = VERTEX_POINT ( 'NONE', #7 ) ;
#70 = CARTESIAN_POINT ( 'NONE',  ( 4.000000000000000000, 4.898587196589412829E-16, 5.500000000000005329 ) ) ;
#71 = EDGE_LOOP ( 'NONE', ( #161, #312 ) ) ;
#72 = VECTOR ( 'NONE', #63, 1000.000000000000000 ) ;
#73 = CARTESIAN_POINT ( 'NONE',  ( 4.000000000000000000, 4.898587196589412829E-16, 230.0000000000000000 ) ) ;
#74 = VERTEX_POINT ( 'NONE', #8 ) ;
#75 = EDGE_CURVE ( 'NONE', #74, #12, #64, .T. ) ;
#76 = DIRECTION ( 'NONE',  ( 1.000000000000000000, 0.000000000000000000, 0.000000000000000000 ) ) ;
#77 = ORIENTED_EDGE ( 'NONE', *, *, #330, .F. ) ;
#78 = DIRECTION ( 'NONE',  ( 1.000000000000000000, 0.000000000000000000, 0.000000000000000000 ) ) ;
#79 = VERTEX_POINT ( 'NONE', #207 ) ;
#80 = CIRCLE ( 'NONE', #293, 4.000000000000000000 ) ;
#81 = AXIS2_PLACEMENT_3D ( 'NONE', #370, #298, #185 ) ;
#82 = DATE_AND_TIME ( #339, #250 ) ;
#83 = EDGE_CURVE ( 'NONE', #183, #84, #202, .T. ) ;
#84 = VERTEX_POINT ( 'NONE', #230 ) ;
#85 = APPROVAL_STATUS ( 'not_yet_approved' ) ;
#86 = DIRECTION ( 'NONE',  ( -0.000000000000000000, -0.000000000000000000, -1.000000000000000000 ) ) ;
#87 = PERSON_AND_ORGANIZATION ( #108, #379 ) ;
#88 = DIRECTION ( 'NONE',  ( 1.000000000000000000, 0.000000000000000000, 0.000000000000000000 ) ) ;
#89 = CIRCLE ( 'NONE', #123, 7.000000000000000000 ) ;
#90 = CIRCLE ( 'NONE', #296, 2.250000000000000000 ) ;
#91 = PERSON_AND_ORGANIZATION_ROLE ( 'creator' ) ;
#92 = ORIENTED_EDGE ( 'NONE', *, *, #352, .T. ) ;
#93 = APPROVAL_ROLE ( '' ) ;
#94 = CARTESIAN_POINT ( 'NONE',  ( 0.000000000000000000, 0.000000000000000000, 5.000000000000000000 ) ) ;
#95 = CARTESIAN_POINT ( 'NONE',  ( 0.000000000000000000, 0.000000000000000000, 230.0000000000000000 ) ) ;
#96 = AXIS2_PLACEMENT_3D ( 'NONE', #95, #34, #61 ) ;
#97 = DIRECTION ( 'NONE',  ( 1.000000000000000000, 0.000000000000000000, 0.000000000000000000 ) ) ;
#98 = ADVANCED_FACE ( 'NONE', ( #232, #172 ), #5, .T. ) ;
#99 = DIRECTION ( 'NONE',  ( 0.000000000000000000, 0.000000000000000000, 1.000000000000000000 ) ) ;
#100 = DIRECTION ( 'NONE',  ( -1.000000000000000000, 0.000000000000000000, 0.000000000000000000 ) ) ;
#101 = APPROVAL_PERSON_ORGANIZATION ( #251, #110, #374 ) ;
#102 = DIRECTION ( 'NONE',  ( -1.000000000000000000, 1.224646799147351482E-16, 0.000000000000000000 ) ) ;
#103 = DIRECTION ( 'NONE',  ( 0.000000000000000000, 0.000000000000000000, 1.000000000000000000 ) ) ;
#104 = DIRECTION ( 'NONE',  ( 1.000000000000000000, 0.000000000000000000, 0.000000000000000000 ) ) ;
#105 = ORIENTED_EDGE ( 'NONE', *, *, #208, .F. ) ;
#106 = VECTOR ( 'NONE', #204, 1000.000000000000000 ) ;
#107 = LINE ( 'NONE', #41, #170 ) ;
#108 = PERSON ( 'NEURÈENÝ', 'NEURÈENÝ', 'NEURÈENÝ', ('NEURÈENÝ'), ('NEURÈENÝ'), ('NEURÈENÝ') ) ;
#109 = DIRECTION ( 'NONE',  ( 1.000000000000000000, 0.000000000000000000, 0.000000000000000000 ) ) ;
#110 = APPROVAL ( #289, 'NEURÈENÝ' ) ;
#111 = TOROIDAL_SURFACE ( 'NONE', #286, 4.500000000000000888, 0.5000000000000000000 ) ;
#112 = DATE_TIME_ROLE ( 'classification_date' ) ;
#113 = CARTESIAN_POINT ( 'NONE',  ( 0.000000000000000000, 0.000000000000000000, 5.500000000000005329 ) ) ;
#114 = ORIENTED_EDGE ( 'NONE', *, *, #352, .F. ) ;
#115 = CALENDAR_DATE ( 2022, 8, 7 ) ;
#116 = CARTESIAN_POINT ( 'NONE',  ( 0.000000000000000000, 0.000000000000000000, 5.000000000000000000 ) ) ;
#117 = AXIS2_PLACEMENT_3D ( 'NONE', #329, #327, #245 ) ;
#118 = COORDINATED_UNIVERSAL_TIME_OFFSET ( 1, 0, .AHEAD. ) ;
#119 = CARTESIAN_POINT ( 'NONE',  ( 0.000000000000000000, 0.000000000000000000, 230.0000000000000000 ) ) ;
#120 = FACE_OUTER_BOUND ( 'NONE', #154, .T. ) ;
#121 = CARTESIAN_POINT ( 'NONE',  ( 2.250000000000000000, 2.755455298081544285E-16, 230.0000000000000000 ) ) ;
#122 = DIRECTION ( 'NONE',  ( 1.000000000000000000, 0.000000000000000000, 0.000000000000000000 ) ) ;
#123 = AXIS2_PLACEMENT_3D ( 'NONE', #294, #297, #264 ) ;
#124 = CARTESIAN_POINT ( 'NONE',  ( 0.000000000000000000, 0.000000000000000000, 0.000000000000000000 ) ) ;
#125 = CC_DESIGN_PERSON_AND_ORGANIZATION_ASSIGNMENT ( #228, #283, ( #148 ) ) ;
#126 = FACE_BOUND ( 'NONE', #140, .T. ) ;
#127 = CARTESIAN_POINT ( 'NONE',  ( 0.000000000000000000, 0.000000000000000000, 230.0000000000000000 ) ) ;
#128 = CIRCLE ( 'NONE', #24, 4.000000000000000000 ) ;
#129 = ORIENTED_EDGE ( 'NONE', *, *, #83, .F. ) ;
#130 = CARTESIAN_POINT ( 'NONE',  ( -4.000000000000000000, 0.000000000000000000, 5.500000000000005329 ) ) ;
#131 = ORIENTED_EDGE ( 'NONE', *, *, #203, .T. ) ;
#132 = ADVANCED_FACE ( 'NONE', ( #31 ), #173, .T. ) ;
#133 = ORIENTED_EDGE ( 'NONE', *, *, #43, .F. ) ;
#134 = CIRCLE ( 'NONE', #348, 7.000000000000000000 ) ;
#135 = PERSON_AND_ORGANIZATION ( #108, #379 ) ;
#136 = APPROVAL_ROLE ( '' ) ;
#137 = ADVANCED_FACE ( 'NONE', ( #175, #326 ), #177, .T. ) ;
#138 = EDGE_LOOP ( 'NONE', ( #317, #105 ) ) ;
#139 = PERSON_AND_ORGANIZATION_ROLE ( 'creator' ) ;
#140 = EDGE_LOOP ( 'NONE', ( #349, #333 ) ) ;
#141 = CIRCLE ( 'NONE', #117, 4.500000000000000888 ) ;
#142 = APPROVAL_PERSON_ORGANIZATION ( #257, #303, #93 ) ;
#143 = ORIENTED_EDGE ( 'NONE', *, *, #208, .T. ) ;
#144 = EDGE_CURVE ( 'NONE', #281, #292, #89, .T. ) ;
#145 = DIRECTION ( 'NONE',  ( 1.000000000000000000, 0.000000000000000000, 0.000000000000000000 ) ) ;
#146 = DIRECTION ( 'NONE',  ( 1.000000000000000000, 0.000000000000000000, 0.000000000000000000 ) ) ;
#147 = EDGE_LOOP ( 'NONE', ( #30, #114 ) ) ;
#148 = SECURITY_CLASSIFICATION ( '', '', #190 ) ;
#149 = ADVANCED_FACE ( 'NONE', ( #37 ), #111, .F. ) ;
#150 = DIRECTION ( 'NONE',  ( 1.000000000000000000, 0.000000000000000000, -0.000000000000000000 ) ) ;
#151 = CARTESIAN_POINT ( 'NONE',  ( 0.000000000000000000, 0.000000000000000000, 5.500000000000005329 ) ) ;
#152 = CARTESIAN_POINT ( 'NONE',  ( 0.000000000000000000, 0.000000000000000000, 0.000000000000000000 ) ) ;
#153 = PRODUCT_DEFINITION_FORMATION_WITH_SPECIFIED_SOURCE ( 'LIBOVOLNÝ', '', #341, .NOT_KNOWN. ) ;
#154 = EDGE_LOOP ( 'NONE', ( #253, #335, #287, #129 ) ) ;
#155 = ADVANCED_FACE ( 'NONE', ( #3 ), #321, .F. ) ;
#156 = FACE_OUTER_BOUND ( 'NONE', #147, .T. ) ;
#157 = DESIGN_CONTEXT ( 'detailed design', #252, 'design' ) ;
#158 = DIRECTION ( 'NONE',  ( 1.000000000000000000, 0.000000000000000000, 0.000000000000000000 ) ) ;
#159 = CARTESIAN_POINT ( 'NONE',  ( -7.000000000000000000, 0.000000000000000000, 0.000000000000000000 ) ) ;
#160 = EDGE_LOOP ( 'NONE', ( #198, #143, #42, #216 ) ) ;
#161 = ORIENTED_EDGE ( 'NONE', *, *, #346, .T. ) ;
#162 = PERSON_AND_ORGANIZATION ( #108, #379 ) ;
#163 = DIRECTION ( 'NONE',  ( 1.000000000000000000, 0.000000000000000000, 0.000000000000000000 ) ) ;
#164 = LOCAL_TIME ( 17, 24, 0.000000000000000000, #118 ) ;
#165 = EDGE_CURVE ( 'NONE', #69, #292, #199, .T. ) ;
#166 = CARTESIAN_POINT ( 'NONE',  ( 2.250000000000000000, 2.755455298081544285E-16, 0.000000000000000000 ) ) ;
#167 = DATE_AND_TIME ( #196, #214 ) ;
#168 =( LENGTH_UNIT ( ) NAMED_UNIT ( * ) SI_UNIT ( .MILLI., .METRE. ) );
#169 = CC_DESIGN_PERSON_AND_ORGANIZATION_ASSIGNMENT ( #135, #285, ( #341 ) ) ;
#170 = VECTOR ( 'NONE', #243, 1000.000000000000000 ) ;
#171 = ORIENTED_EDGE ( 'NONE', *, *, #256, .T. ) ;
#172 = FACE_OUTER_BOUND ( 'NONE', #71, .T. ) ;
#173 = CYLINDRICAL_SURFACE ( 'NONE', #299, 4.000000000000000000 ) ;
#174 = AXIS2_PLACEMENT_3D ( 'NONE', #359, #99, #150 ) ;
#175 = FACE_BOUND ( 'NONE', #366, .T. ) ;
#176 = ORIENTED_EDGE ( 'NONE', *, *, #165, .T. ) ;
#177 = PLANE ( 'NONE',  #174 ) ;
#178 = FACE_OUTER_BOUND ( 'NONE', #265, .T. ) ;
#179 = ORIENTED_EDGE ( 'NONE', *, *, #381, .F. ) ;
#180 = CYLINDRICAL_SURFACE ( 'NONE', #81, 7.000000000000000000 ) ;
#181 = VECTOR ( 'NONE', #262, 1000.000000000000000 ) ;
#182 = CARTESIAN_POINT ( 'NONE',  ( 7.000000000000000000, 8.572527594031473190E-16, 0.000000000000000000 ) ) ;
#183 = VERTEX_POINT ( 'NONE', #1 ) ;
#184 = CARTESIAN_POINT ( 'NONE',  ( 0.000000000000000000, 0.000000000000000000, 0.000000000000000000 ) ) ;
#185 = DIRECTION ( 'NONE',  ( -1.000000000000000000, 0.000000000000000000, 0.000000000000000000 ) ) ;
#186 = AXIS2_PLACEMENT_3D ( 'NONE', #116, #86, #314 ) ;
#187 = CC_DESIGN_APPROVAL ( #110, ( #282 ) ) ;
#188 = ORIENTED_EDGE ( 'NONE', *, *, #256, .F. ) ;
#189 = CALENDAR_DATE ( 2022, 8, 7 ) ;
#190 = SECURITY_CLASSIFICATION_LEVEL ( 'unclassified' ) ;
#191 = DIRECTION ( 'NONE',  ( -0.000000000000000000, -0.000000000000000000, -1.000000000000000000 ) ) ;
#192 = EDGE_CURVE ( 'NONE', #364, #246, #194, .T. ) ;
#193 = COORDINATED_UNIVERSAL_TIME_OFFSET ( 1, 0, .AHEAD. ) ;
#194 = CIRCLE ( 'NONE', #35, 4.000000000000000000 ) ;
#195 = MANIFOLD_SOLID_BREP ( 'Odebrat vysunutím3', #360 ) ;
#196 = CALENDAR_DATE ( 2022, 8, 7 ) ;
#197 = CC_DESIGN_PERSON_AND_ORGANIZATION_ASSIGNMENT ( #162, #91, ( #153 ) ) ;
#198 = ORIENTED_EDGE ( 'NONE', *, *, #75, .F. ) ;
#199 = LINE ( 'NONE', #231, #181 ) ;
#200 = AXIS2_PLACEMENT_3D ( 'NONE', #36, #295, #233 ) ;
#201 = LINE ( 'NONE', #355, #16 ) ;
#202 = LINE ( 'NONE', #67, #72 ) ;
#203 = EDGE_CURVE ( 'NONE', #246, #274, #201, .T. ) ;
#204 = DIRECTION ( 'NONE',  ( 0.000000000000000000, 0.000000000000000000, -1.000000000000000000 ) ) ;
#205 = CIRCLE ( 'NONE', #234, 4.000000000000000000 ) ;
#206 = AXIS2_PLACEMENT_3D ( 'NONE', #46, #210, #17 ) ;
#207 = CARTESIAN_POINT ( 'NONE',  ( -4.500000000000000888, 5.510910596163088569E-16, 5.000000000000002665 ) ) ;
#208 = EDGE_CURVE ( 'NONE', #74, #183, #338, .T. ) ;
#209 = DIRECTION ( 'NONE',  ( -0.000000000000000000, -0.000000000000000000, -1.000000000000000000 ) ) ;
#210 = DIRECTION ( 'NONE',  ( 0.000000000000000000, 0.000000000000000000, -1.000000000000000000 ) ) ;
#211 = ORIENTED_EDGE ( 'NONE', *, *, #324, .T. ) ;
#212 = APPLICATION_CONTEXT ( 'configuration controlled 3d designs of mechanical parts and assemblies' ) ;
#213 = CARTESIAN_POINT ( 'NONE',  ( 4.000000000000000000, 4.898587196589412829E-16, 230.0000000000000000 ) ) ;
#214 = LOCAL_TIME ( 17, 24, 0.000000000000000000, #254 ) ;
#215 = LOCAL_TIME ( 17, 24, 0.000000000000000000, #57 ) ;
#216 = ORIENTED_EDGE ( 'NONE', *, *, #235, .T. ) ;
#217 = EDGE_CURVE ( 'NONE', #274, #79, #372, .T. ) ;
#218 = DIRECTION ( 'NONE',  ( -0.000000000000000000, -0.000000000000000000, -1.000000000000000000 ) ) ;
#219 = CARTESIAN_POINT ( 'NONE',  ( 4.500000000000000888, 0.000000000000000000, 5.500000000000005329 ) ) ;
#220 = EDGE_LOOP ( 'NONE', ( #307, #241, #188, #371 ) ) ;
#221 = CALENDAR_DATE ( 2022, 8, 7 ) ;
#222 = ORIENTED_EDGE ( 'NONE', *, *, #14, .T. ) ;
#223 =( NAMED_UNIT ( * ) SI_UNIT ( $, .STERADIAN. ) SOLID_ANGLE_UNIT ( ) );
#224 = CYLINDRICAL_SURFACE ( 'NONE', #47, 4.000000000000000000 ) ;
#225 = APPROVAL_DATE_TIME ( #56, #110 ) ;
#226 = AXIS2_PLACEMENT_3D ( 'NONE', #39, #103, #363 ) ;
#227 = ADVANCED_FACE ( 'NONE', ( #336 ), #11, .F. ) ;
#228 = PERSON_AND_ORGANIZATION ( #108, #379 ) ;
#229 = CARTESIAN_POINT ( 'NONE',  ( 0.000000000000000000, 0.000000000000000000, 230.0000000000000000 ) ) ;
#230 = CARTESIAN_POINT ( 'NONE',  ( -2.250000000000000000, 0.000000000000000000, 0.000000000000000000 ) ) ;
#231 = CARTESIAN_POINT ( 'NONE',  ( 7.000000000000000000, 8.572527594031473190E-16, 5.000000000000000000 ) ) ;
#232 = FACE_BOUND ( 'NONE', #138, .T. ) ;
#233 = DIRECTION ( 'NONE',  ( 1.000000000000000000, 0.000000000000000000, -0.000000000000000000 ) ) ;
#234 = AXIS2_PLACEMENT_3D ( 'NONE', #113, #380, #351 ) ;
#235 = EDGE_CURVE ( 'NONE', #84, #12, #242, .T. ) ;
#236 = CC_DESIGN_APPROVAL ( #263, ( #153 ) ) ;
#237 = CARTESIAN_POINT ( 'NONE',  ( -4.500000000000000888, 5.510910596163089556E-16, 5.500000000000005329 ) ) ;
#238 = PLANE ( 'NONE',  #367 ) ;
#239 = ORIENTED_EDGE ( 'NONE', *, *, #62, .F. ) ;
#240 = DIRECTION ( 'NONE',  ( 0.000000000000000000, 0.000000000000000000, 1.000000000000000000 ) ) ;
#241 = ORIENTED_EDGE ( 'NONE', *, *, #217, .T. ) ;
#242 = CIRCLE ( 'NONE', #277, 2.250000000000000000 ) ;
#243 = DIRECTION ( 'NONE',  ( -0.000000000000000000, -0.000000000000000000, -1.000000000000000000 ) ) ;
#244 = VERTEX_POINT ( 'NONE', #278 ) ;
#245 = DIRECTION ( 'NONE',  ( 1.000000000000000000, 0.000000000000000000, 0.000000000000000000 ) ) ;
#246 = VERTEX_POINT ( 'NONE', #306 ) ;
#247 = DATE_AND_TIME ( #221, #40 ) ;
#248 = EDGE_CURVE ( 'NONE', #12, #84, #29, .T. ) ;
#249 = COORDINATED_UNIVERSAL_TIME_OFFSET ( 1, 0, .AHEAD. ) ;
#250 = LOCAL_TIME ( 17, 24, 0.000000000000000000, #249 ) ;
#251 = PERSON_AND_ORGANIZATION ( #108, #379 ) ;
#252 = APPLICATION_CONTEXT ( 'configuration controlled 3d designs of mechanical parts and assemblies' ) ;
#253 = ORIENTED_EDGE ( 'NONE', *, *, #310, .T. ) ;
#254 = COORDINATED_UNIVERSAL_TIME_OFFSET ( 1, 0, .AHEAD. ) ;
#255 = EDGE_LOOP ( 'NONE', ( #373, #133, #50, #302 ) ) ;
#256 = EDGE_CURVE ( 'NONE', #27, #79, #141, .T. ) ;
#257 = PERSON_AND_ORGANIZATION ( #108, #379 ) ;
#258 = ORIENTED_EDGE ( 'NONE', *, *, #43, .T. ) ;
#259 = CIRCLE ( 'NONE', #28, 7.000000000000000000 ) ;
#260 = VECTOR ( 'NONE', #218, 1000.000000000000000 ) ;
#261 = ORIENTED_EDGE ( 'NONE', *, *, #192, .F. ) ;
#262 = DIRECTION ( 'NONE',  ( -0.000000000000000000, -0.000000000000000000, -1.000000000000000000 ) ) ;
#263 = APPROVAL ( #85, 'NEURÈENÝ' ) ;
#264 = DIRECTION ( 'NONE',  ( 1.000000000000000000, 0.000000000000000000, 0.000000000000000000 ) ) ;
#265 = EDGE_LOOP ( 'NONE', ( #305, #176, #92, #77 ) ) ;
#266 = CYLINDRICAL_SURFACE ( 'NONE', #96, 2.250000000000000000 ) ;
#267 = ADVANCED_FACE ( 'NONE', ( #126, #156 ), #238, .F. ) ;
#268 = DIRECTION ( 'NONE',  ( 0.000000000000000000, 0.000000000000000000, 1.000000000000000000 ) ) ;
#269 = CIRCLE ( 'NONE', #53, 0.5000000000000004441 ) ;
#270 = DIRECTION ( 'NONE',  ( 0.000000000000000000, 0.000000000000000000, 1.000000000000000000 ) ) ;
#271 = UNCERTAINTY_MEASURE_WITH_UNIT (LENGTH_MEASURE( 1.000000000000000082E-05 ), #168, 'distance_accuracy_value', 'NONE');
#272 = ORIENTED_EDGE ( 'NONE', *, *, #217, .F. ) ;
#273 = CARTESIAN_POINT ( 'NONE',  ( 0.000000000000000000, 0.000000000000000000, 5.000000000000000000 ) ) ;
#274 = VERTEX_POINT ( 'NONE', #130 ) ;
#275 = PRODUCT_RELATED_PRODUCT_CATEGORY ( 'detail', '', ( #341 ) ) ;
#276 = DIRECTION ( 'NONE',  ( 1.000000000000000000, 0.000000000000000000, 0.000000000000000000 ) ) ;
#277 = AXIS2_PLACEMENT_3D ( 'NONE', #124, #334, #76 ) ;
#278 = CARTESIAN_POINT ( 'NONE',  ( -7.000000000000000000, 0.000000000000000000, 5.000000000000000000 ) ) ;
#279 = VERTEX_POINT ( 'NONE', #70 ) ;
#280 = CARTESIAN_POINT ( 'NONE',  ( 0.000000000000000000, 0.000000000000000000, 230.0000000000000000 ) ) ;
#281 = VERTEX_POINT ( 'NONE', #159 ) ;
#282 = PRODUCT_DEFINITION ( 'NEZNÁMÝ', '', #153, #157 ) ;
#283 = PERSON_AND_ORGANIZATION_ROLE ( 'classification_officer' ) ;
#284 = ORIENTED_EDGE ( 'NONE', *, *, #381, .T. ) ;
#285 = PERSON_AND_ORGANIZATION_ROLE ( 'design_owner' ) ;
#286 = AXIS2_PLACEMENT_3D ( 'NONE', #151, #268, #146 ) ;
#287 = ORIENTED_EDGE ( 'NONE', *, *, #248, .T. ) ;
#288 = ADVANCED_FACE ( 'NONE', ( #178 ), #180, .T. ) ;
#289 = APPROVAL_STATUS ( 'not_yet_approved' ) ;
#290 = PERSON_AND_ORGANIZATION ( #108, #379 ) ;
#291 = EDGE_LOOP ( 'NONE', ( #272, #239, #211, #179 ) ) ;
#292 = VERTEX_POINT ( 'NONE', #182 ) ;
#293 = AXIS2_PLACEMENT_3D ( 'NONE', #26, #376, #88 ) ;
#294 = CARTESIAN_POINT ( 'NONE',  ( 0.000000000000000000, 0.000000000000000000, 0.000000000000000000 ) ) ;
#295 = DIRECTION ( 'NONE',  ( 0.000000000000000000, 0.000000000000000000, 1.000000000000000000 ) ) ;
#296 = AXIS2_PLACEMENT_3D ( 'NONE', #127, #301, #109 ) ;
#297 = DIRECTION ( 'NONE',  ( 0.000000000000000000, 0.000000000000000000, 1.000000000000000000 ) ) ;
#298 = DIRECTION ( 'NONE',  ( -0.000000000000000000, -0.000000000000000000, -1.000000000000000000 ) ) ;
#299 = AXIS2_PLACEMENT_3D ( 'NONE', #323, #358, #100 ) ;
#300 = CC_DESIGN_SECURITY_CLASSIFICATION ( #148, ( #153 ) ) ;
#301 = DIRECTION ( 'NONE',  ( 0.000000000000000000, 0.000000000000000000, 1.000000000000000000 ) ) ;
#302 = ORIENTED_EDGE ( 'NONE', *, *, #144, .T. ) ;
#303 = APPROVAL ( #350, 'NEURÈENÝ' ) ;
#304 = CARTESIAN_POINT ( 'NONE',  ( 0.000000000000000000, 0.000000000000000000, 5.000000000000000000 ) ) ;
#305 = ORIENTED_EDGE ( 'NONE', *, *, #362, .F. ) ;
#306 = CARTESIAN_POINT ( 'NONE',  ( -4.000000000000000000, 0.000000000000000000, 230.0000000000000000 ) ) ;
#307 = ORIENTED_EDGE ( 'NONE', *, *, #14, .F. ) ;
#308 = AXIS2_PLACEMENT_3D ( 'NONE', #320, #60, #145 ) ;
#309 = DIRECTION ( 'NONE',  ( 0.000000000000000000, -1.000000000000000000, 0.000000000000000000 ) ) ;
#310 = EDGE_CURVE ( 'NONE', #183, #74, #90, .T. ) ;
#311 = DIRECTION ( 'NONE',  ( 1.000000000000000000, 0.000000000000000000, 0.000000000000000000 ) ) ;
#312 = ORIENTED_EDGE ( 'NONE', *, *, #192, .T. ) ;
#313 =( NAMED_UNIT ( * ) PLANE_ANGLE_UNIT ( ) SI_UNIT ( $, .RADIAN. ) );
#314 = DIRECTION ( 'NONE',  ( -1.000000000000000000, 0.000000000000000000, 0.000000000000000000 ) ) ;
#315 = PERSON_AND_ORGANIZATION ( #108, #379 ) ;
#316 = APPROVAL_PERSON_ORGANIZATION ( #290, #263, #136 ) ;
#317 = ORIENTED_EDGE ( 'NONE', *, *, #310, .F. ) ;
#318 = APPROVAL_DATE_TIME ( #82, #263 ) ;
#319 = FACE_OUTER_BOUND ( 'NONE', #255, .T. ) ;
#320 = CARTESIAN_POINT ( 'NONE',  ( 0.000000000000000000, 0.000000000000000000, 5.500000000000005329 ) ) ;
#321 = TOROIDAL_SURFACE ( 'NONE', #308, 4.500000000000000888, 0.5000000000000000000 ) ;
#322 = DIRECTION ( 'NONE',  ( -0.000000000000000000, -0.000000000000000000, -1.000000000000000000 ) ) ;
#323 = CARTESIAN_POINT ( 'NONE',  ( 0.000000000000000000, 0.000000000000000000, 230.0000000000000000 ) ) ;
#324 = EDGE_CURVE ( 'NONE', #279, #27, #269, .T. ) ;
#325 = CIRCLE ( 'NONE', #4, 4.500000000000000888 ) ;
#326 = FACE_OUTER_BOUND ( 'NONE', #22, .T. ) ;
#327 = DIRECTION ( 'NONE',  ( -0.000000000000000000, -0.000000000000000000, -1.000000000000000000 ) ) ;
#328 = ORIENTED_EDGE ( 'NONE', *, *, #203, .F. ) ;
#329 = CARTESIAN_POINT ( 'NONE',  ( 0.000000000000000000, 0.000000000000000000, 5.000000000000000000 ) ) ;
#330 = EDGE_CURVE ( 'NONE', #244, #281, #107, .T. ) ;
#331 = AXIS2_PLACEMENT_3D ( 'NONE', #377, #21, #311 ) ;
#332 = LINE ( 'NONE', #73, #260 ) ;
#333 = ORIENTED_EDGE ( 'NONE', *, *, #248, .F. ) ;
#334 = DIRECTION ( 'NONE',  ( -0.000000000000000000, -0.000000000000000000, -1.000000000000000000 ) ) ;
#335 = ORIENTED_EDGE ( 'NONE', *, *, #75, .T. ) ;
#336 = FACE_OUTER_BOUND ( 'NONE', #160, .T. ) ;
#337 = ORIENTED_EDGE ( 'NONE', *, *, #369, .T. ) ;
#338 = CIRCLE ( 'NONE', #226, 2.250000000000000000 ) ;
#339 = CALENDAR_DATE ( 2022, 8, 7 ) ;
#340 = ORIENTED_EDGE ( 'NONE', *, *, #62, .T. ) ;
#341 = PRODUCT ( '1ca6', '1ca6', '', ( #25 ) ) ;
#342 = DATE_TIME_ROLE ( 'creation_date' ) ;
#343 = CARTESIAN_POINT ( 'NONE',  ( 4.500000000000000888, 0.000000000000000000, 5.000000000000002665 ) ) ;
#344 = APPLICATION_PROTOCOL_DEFINITION ( 'international standard', 'config_control_design', 1994, #252 ) ;
#345 = DIRECTION ( 'NONE',  ( -1.000000000000000000, 0.000000000000000000, 0.000000000000000000 ) ) ;
#346 = EDGE_CURVE ( 'NONE', #246, #364, #128, .T. ) ;
#347 = APPLICATION_PROTOCOL_DEFINITION ( 'international standard', 'config_control_design', 1994, #212 ) ;
#348 = AXIS2_PLACEMENT_3D ( 'NONE', #152, #270, #276 ) ;
#349 = ORIENTED_EDGE ( 'NONE', *, *, #235, .F. ) ;
#350 = APPROVAL_STATUS ( 'not_yet_approved' ) ;
#351 = DIRECTION ( 'NONE',  ( 1.000000000000000000, 0.000000000000000000, 0.000000000000000000 ) ) ;
#352 = EDGE_CURVE ( 'NONE', #292, #281, #134, .T. ) ;
#353 = DIRECTION ( 'NONE',  ( 0.000000000000000000, 0.000000000000000000, 1.000000000000000000 ) ) ;
#354 = AXIS2_PLACEMENT_3D ( 'NONE', #184, #209, #78 ) ;
#355 = CARTESIAN_POINT ( 'NONE',  ( -4.000000000000000000, 0.000000000000000000, 230.0000000000000000 ) ) ;
#356 = CC_DESIGN_DATE_AND_TIME_ASSIGNMENT ( #247, #342, ( #282 ) ) ;
#357 = EDGE_LOOP ( 'NONE', ( #18, #15, #131, #222 ) ) ;
#358 = DIRECTION ( 'NONE',  ( -0.000000000000000000, -0.000000000000000000, -1.000000000000000000 ) ) ;
#359 = CARTESIAN_POINT ( 'NONE',  ( 0.000000000000000000, 0.000000000000000000, 5.000000000000000000 ) ) ;
#360 = CLOSED_SHELL ( 'NONE', ( #66, #149, #23, #288, #38, #137, #267, #132, #98, #155, #227 ) ) ;
#361 = DIRECTION ( 'NONE',  ( 1.224646799147353207E-16, 1.000000000000000000, -0.000000000000000000 ) ) ;
#362 = EDGE_CURVE ( 'NONE', #69, #244, #48, .T. ) ;
#363 = DIRECTION ( 'NONE',  ( 1.000000000000000000, 0.000000000000000000, 0.000000000000000000 ) ) ;
#364 = VERTEX_POINT ( 'NONE', #213 ) ;
#365 = DIRECTION ( 'NONE',  ( 0.000000000000000000, 0.000000000000000000, 1.000000000000000000 ) ) ;
#366 = EDGE_LOOP ( 'NONE', ( #171, #284 ) ) ;
#367 = AXIS2_PLACEMENT_3D ( 'NONE', #68, #368, #13 ) ;
#368 = DIRECTION ( 'NONE',  ( 0.000000000000000000, 0.000000000000000000, 1.000000000000000000 ) ) ;
#369 = EDGE_CURVE ( 'NONE', #364, #279, #332, .T. ) ;
#370 = CARTESIAN_POINT ( 'NONE',  ( 0.000000000000000000, 0.000000000000000000, 5.000000000000000000 ) ) ;
#371 = ORIENTED_EDGE ( 'NONE', *, *, #324, .F. ) ;
#372 = CIRCLE ( 'NONE', #65, 0.5000000000000004441 ) ;
#373 = ORIENTED_EDGE ( 'NONE', *, *, #165, .F. ) ;
#374 = APPROVAL_ROLE ( '' ) ;
#375 = CC_DESIGN_DATE_AND_TIME_ASSIGNMENT ( #167, #112, ( #148 ) ) ;
#376 = DIRECTION ( 'NONE',  ( 0.000000000000000000, 0.000000000000000000, 1.000000000000000000 ) ) ;
#377 = CARTESIAN_POINT ( 'NONE',  ( 0.000000000000000000, 0.000000000000000000, 0.000000000000000000 ) ) ;
#378 = FACE_OUTER_BOUND ( 'NONE', #33, .T. ) ;
#379 = ORGANIZATION ( 'NEURÈENÝ', 'NEURÈENÝ', '' ) ;
#380 = DIRECTION ( 'NONE',  ( 0.000000000000000000, 0.000000000000000000, 1.000000000000000000 ) ) ;
#381 = EDGE_CURVE ( 'NONE', #79, #27, #325, .T. ) ;
ENDSEC;
END-ISO-10303-21;
