ISO-10303-21;
HEADER;
FILE_DESCRIPTION (( 'STEP AP203' ),
    '1' );
FILE_NAME ('14b7.STEP',
    '2022-07-08T14:49:40',
    ( '' ),
    ( '' ),
    'SwSTEP 2.0',
    'SolidWorks 2019',
    '' );
FILE_SCHEMA (( 'CONFIG_CONTROL_DESIGN' ));
ENDSEC;

DATA;
#1 = DIRECTION ( 'NONE',  ( 0.000000000000000000, 0.000000000000000000, -1.000000000000000000 ) ) ;
#2 = EDGE_CURVE ( 'NONE', #315, #103, #150, .T. ) ;
#3 = DIRECTION ( 'NONE',  ( -1.000000000000000000, 0.000000000000000000, 0.000000000000000000 ) ) ;
#4 = AXIS2_PLACEMENT_3D ( 'NONE', #189, #284, #133 ) ;
#5 = CIRCLE ( 'NONE', #22, 5.000000000000000000 ) ;
#6 = ORIENTED_EDGE ( 'NONE', *, *, #90, .T. ) ;
#7 = DATE_AND_TIME ( #128, #104 ) ;
#8 = FACE_OUTER_BOUND ( 'NONE', #207, .T. ) ;
#9 = ORIENTED_EDGE ( 'NONE', *, *, #115, .T. ) ;
#10 = ADVANCED_FACE ( 'NONE', ( #82 ), #296, .F. ) ;
#11 = CARTESIAN_POINT ( 'NONE',  ( -5.000000000000000000, 0.000000000000000000, 305.0000000000000000 ) ) ;
#12 = ADVANCED_BREP_SHAPE_REPRESENTATION ( '14b7', ( #139, #224 ), #230 ) ;
#13 = EDGE_LOOP ( 'NONE', ( #293, #55 ) ) ;
#14 = APPROVAL_DATE_TIME ( #165, #40 ) ;
#15 = PLANE ( 'NONE',  #59 ) ;
#16 = COORDINATED_UNIVERSAL_TIME_OFFSET ( 1, 0, .AHEAD. ) ;
#17 = ADVANCED_FACE ( 'NONE', ( #320 ), #290, .T. ) ;
#18 = DIRECTION ( 'NONE',  ( 0.000000000000000000, 0.000000000000000000, -1.000000000000000000 ) ) ;
#19 = VERTEX_POINT ( 'NONE', #379 ) ;
#20 = CARTESIAN_POINT ( 'NONE',  ( 0.000000000000000000, 0.000000000000000000, 0.000000000000000000 ) ) ;
#21 = AXIS2_PLACEMENT_3D ( 'NONE', #24, #257, #206 ) ;
#22 = AXIS2_PLACEMENT_3D ( 'NONE', #156, #94, #34 ) ;
#23 = DIRECTION ( 'NONE',  ( 0.000000000000000000, 0.000000000000000000, 1.000000000000000000 ) ) ;
#24 = CARTESIAN_POINT ( 'NONE',  ( 0.000000000000000000, 0.000000000000000000, 5.500000000000005329 ) ) ;
#25 = DIRECTION ( 'NONE',  ( 1.000000000000000000, 0.000000000000000000, 0.000000000000000000 ) ) ;
#26 = PERSON ( 'NEURÈENÝ', 'NEURÈENÝ', 'NEURÈENÝ', ('NEURÈENÝ'), ('NEURÈENÝ'), ('NEURÈENÝ') ) ;
#27 = CARTESIAN_POINT ( 'NONE',  ( 0.000000000000000000, 0.000000000000000000, 305.0000000000000000 ) ) ;
#28 = ORGANIZATION ( 'NEURÈENÝ', 'NEURÈENÝ', '' ) ;
#29 = CARTESIAN_POINT ( 'NONE',  ( -8.000000000000000000, 0.000000000000000000, 5.000000000000000000 ) ) ;
#30 = ADVANCED_FACE ( 'NONE', ( #233 ), #344, .T. ) ;
#31 = AXIS2_PLACEMENT_3D ( 'NONE', #292, #349, #148 ) ;
#32 = CC_DESIGN_APPROVAL ( #163, ( #171 ) ) ;
#33 = EDGE_CURVE ( 'NONE', #114, #19, #158, .T. ) ;
#34 = DIRECTION ( 'NONE',  ( 1.000000000000000000, 0.000000000000000000, 0.000000000000000000 ) ) ;
#35 = MECHANICAL_CONTEXT ( 'NONE', #62, 'mechanical' ) ;
#36 = APPROVAL_STATUS ( 'not_yet_approved' ) ;
#37 = ORIENTED_EDGE ( 'NONE', *, *, #318, .F. ) ;
#38 = AXIS2_PLACEMENT_3D ( 'NONE', #378, #263, #319 ) ;
#39 = DIRECTION ( 'NONE',  ( -0.000000000000000000, -0.000000000000000000, -1.000000000000000000 ) ) ;
#40 = APPROVAL ( #41, 'NEURÈENÝ' ) ;
#41 = APPROVAL_STATUS ( 'not_yet_approved' ) ;
#42 = CARTESIAN_POINT ( 'NONE',  ( 0.000000000000000000, 0.000000000000000000, 305.0000000000000000 ) ) ;
#43 = EDGE_LOOP ( 'NONE', ( #64, #194, #120, #143 ) ) ;
#44 = EDGE_CURVE ( 'NONE', #97, #277, #362, .T. ) ;
#45 = AXIS2_PLACEMENT_3D ( 'NONE', #211, #325, #58 ) ;
#46 = DIRECTION ( 'NONE',  ( 1.000000000000000000, 0.000000000000000000, 0.000000000000000000 ) ) ;
#47 = ORIENTED_EDGE ( 'NONE', *, *, #318, .T. ) ;
#48 = EDGE_LOOP ( 'NONE', ( #274, #304 ) ) ;
#49 = FACE_OUTER_BOUND ( 'NONE', #43, .T. ) ;
#50 = EDGE_CURVE ( 'NONE', #97, #114, #352, .T. ) ;
#51 = EDGE_LOOP ( 'NONE', ( #177, #85 ) ) ;
#52 = FACE_OUTER_BOUND ( 'NONE', #51, .T. ) ;
#53 = EDGE_LOOP ( 'NONE', ( #235, #342, #100, #167 ) ) ;
#54 = DIRECTION ( 'NONE',  ( 0.000000000000000000, 0.000000000000000000, 1.000000000000000000 ) ) ;
#55 = ORIENTED_EDGE ( 'NONE', *, *, #105, .T. ) ;
#56 = DIRECTION ( 'NONE',  ( 1.000000000000000000, 0.000000000000000000, 0.000000000000000000 ) ) ;
#57 = CC_DESIGN_PERSON_AND_ORGANIZATION_ASSIGNMENT ( #202, #338, ( #171 ) ) ;
#58 = DIRECTION ( 'NONE',  ( 1.000000000000000000, 0.000000000000000000, 0.000000000000000000 ) ) ;
#59 = AXIS2_PLACEMENT_3D ( 'NONE', #20, #131, #367 ) ;
#60 = CIRCLE ( 'NONE', #302, 5.500000000000000000 ) ;
#61 = CARTESIAN_POINT ( 'NONE',  ( 8.000000000000000000, 9.797174393178825657E-16, 5.000000000000000000 ) ) ;
#62 = APPLICATION_CONTEXT ( 'configuration controlled 3d designs of mechanical parts and assemblies' ) ;
#63 =( NAMED_UNIT ( * ) SI_UNIT ( $, .STERADIAN. ) SOLID_ANGLE_UNIT ( ) );
#64 = ORIENTED_EDGE ( 'NONE', *, *, #66, .F. ) ;
#65 = APPROVAL_ROLE ( '' ) ;
#66 = EDGE_CURVE ( 'NONE', #277, #19, #243, .T. ) ;
#67 = CARTESIAN_POINT ( 'NONE',  ( 0.000000000000000000, 0.000000000000000000, 5.500000000000005329 ) ) ;
#68 = VERTEX_POINT ( 'NONE', #11 ) ;
#69 = AXIS2_PLACEMENT_3D ( 'NONE', #348, #81, #56 ) ;
#70 = SECURITY_CLASSIFICATION_LEVEL ( 'unclassified' ) ;
#71 = DIRECTION ( 'NONE',  ( 1.000000000000000000, 0.000000000000000000, 0.000000000000000000 ) ) ;
#72 = DATE_TIME_ROLE ( 'creation_date' ) ;
#73 = CARTESIAN_POINT ( 'NONE',  ( 3.100000000000000089, 3.796405077356794918E-16, 305.0000000000000000 ) ) ;
#74 = EDGE_CURVE ( 'NONE', #277, #97, #371, .T. ) ;
#75 = COORDINATED_UNIVERSAL_TIME_OFFSET ( 1, 0, .AHEAD. ) ;
#76 = CARTESIAN_POINT ( 'NONE',  ( -5.000000000000000000, 0.000000000000000000, 305.0000000000000000 ) ) ;
#77 = VERTEX_POINT ( 'NONE', #73 ) ;
#78 = AXIS2_PLACEMENT_3D ( 'NONE', #140, #142, #339 ) ;
#79 = VECTOR ( 'NONE', #125, 1000.000000000000000 ) ;
#80 = CARTESIAN_POINT ( 'NONE',  ( 0.000000000000000000, 0.000000000000000000, 5.000000000000000000 ) ) ;
#81 = DIRECTION ( 'NONE',  ( 0.000000000000000000, 0.000000000000000000, 1.000000000000000000 ) ) ;
#82 = FACE_OUTER_BOUND ( 'NONE', #350, .T. ) ;
#83 = ADVANCED_FACE ( 'NONE', ( #173, #8 ), #15, .F. ) ;
#84 = DIRECTION ( 'NONE',  ( 1.000000000000000000, 0.000000000000000000, -0.000000000000000000 ) ) ;
#85 = ORIENTED_EDGE ( 'NONE', *, *, #186, .T. ) ;
#86 = DIRECTION ( 'NONE',  ( -0.000000000000000000, -0.000000000000000000, -1.000000000000000000 ) ) ;
#87 = CIRCLE ( 'NONE', #92, 3.100000000000000089 ) ;
#88 = CC_DESIGN_SECURITY_CLASSIFICATION ( #357, ( #171 ) ) ;
#89 = ORIENTED_EDGE ( 'NONE', *, *, #242, .F. ) ;
#90 = EDGE_CURVE ( 'NONE', #129, #77, #87, .T. ) ;
#91 = DIRECTION ( 'NONE',  ( 0.000000000000000000, 0.000000000000000000, 1.000000000000000000 ) ) ;
#92 = AXIS2_PLACEMENT_3D ( 'NONE', #42, #283, #303 ) ;
#93 = DIRECTION ( 'NONE',  ( 1.000000000000000000, 0.000000000000000000, 0.000000000000000000 ) ) ;
#94 = DIRECTION ( 'NONE',  ( 0.000000000000000000, 0.000000000000000000, 1.000000000000000000 ) ) ;
#95 = AXIS2_PLACEMENT_3D ( 'NONE', #258, #54, #295 ) ;
#96 = DIRECTION ( 'NONE',  ( -0.000000000000000000, -0.000000000000000000, -1.000000000000000000 ) ) ;
#97 = VERTEX_POINT ( 'NONE', #196 ) ;
#98 = EDGE_CURVE ( 'NONE', #134, #97, #310, .T. ) ;
#99 = PERSON_AND_ORGANIZATION ( #26, #28 ) ;
#100 = ORIENTED_EDGE ( 'NONE', *, *, #44, .T. ) ;
#101 = APPROVAL_ROLE ( '' ) ;
#102 = CARTESIAN_POINT ( 'NONE',  ( 0.000000000000000000, 0.000000000000000000, 305.0000000000000000 ) ) ;
#103 = VERTEX_POINT ( 'NONE', #199 ) ;
#104 = LOCAL_TIME ( 16, 49, 40.00000000000000000, #16 ) ;
#105 = EDGE_CURVE ( 'NONE', #377, #204, #111, .T. ) ;
#106 = DIRECTION ( 'NONE',  ( 0.000000000000000000, 0.000000000000000000, -1.000000000000000000 ) ) ;
#107 = CYLINDRICAL_SURFACE ( 'NONE', #185, 3.100000000000000089 ) ;
#108 = PERSON_AND_ORGANIZATION_ROLE ( 'creator' ) ;
#109 = CARTESIAN_POINT ( 'NONE',  ( 5.000000000000000000, 6.123233995736766282E-16, 305.0000000000000000 ) ) ;
#110 = ORIENTED_EDGE ( 'NONE', *, *, #247, .T. ) ;
#111 = CIRCLE ( 'NONE', #272, 8.000000000000000000 ) ;
#112 = CC_DESIGN_APPROVAL ( #157, ( #357 ) ) ;
#113 = DIRECTION ( 'NONE',  ( -0.000000000000000000, -0.000000000000000000, -1.000000000000000000 ) ) ;
#114 = VERTEX_POINT ( 'NONE', #248 ) ;
#115 = EDGE_CURVE ( 'NONE', #129, #197, #369, .T. ) ;
#116 = APPLICATION_CONTEXT ( 'configuration controlled 3d designs of mechanical parts and assemblies' ) ;
#117 = CARTESIAN_POINT ( 'NONE',  ( 0.000000000000000000, 0.000000000000000000, 5.000000000000000000 ) ) ;
#118 = DIRECTION ( 'NONE',  ( -1.000000000000000000, 0.000000000000000000, 0.000000000000000000 ) ) ;
#119 = PLANE ( 'NONE',  #240 ) ;
#120 = ORIENTED_EDGE ( 'NONE', *, *, #50, .T. ) ;
#121 = DIRECTION ( 'NONE',  ( 1.000000000000000000, 0.000000000000000000, -0.000000000000000000 ) ) ;
#122 = ADVANCED_FACE ( 'NONE', ( #255 ), #107, .F. ) ;
#123 = CYLINDRICAL_SURFACE ( 'NONE', #314, 8.000000000000000000 ) ;
#124 = FACE_OUTER_BOUND ( 'NONE', #209, .T. ) ;
#125 = DIRECTION ( 'NONE',  ( 0.000000000000000000, 0.000000000000000000, -1.000000000000000000 ) ) ;
#126 = EDGE_CURVE ( 'NONE', #68, #277, #375, .T. ) ;
#127 = ORIENTED_EDGE ( 'NONE', *, *, #242, .T. ) ;
#128 = CALENDAR_DATE ( 2022, 8, 7 ) ;
#129 = VERTEX_POINT ( 'NONE', #228 ) ;
#130 = PERSON_AND_ORGANIZATION_ROLE ( 'creator' ) ;
#131 = DIRECTION ( 'NONE',  ( 0.000000000000000000, 0.000000000000000000, 1.000000000000000000 ) ) ;
#132 = PERSON_AND_ORGANIZATION ( #26, #28 ) ;
#133 = DIRECTION ( 'NONE',  ( 1.000000000000000000, 0.000000000000000000, 0.000000000000000000 ) ) ;
#134 = VERTEX_POINT ( 'NONE', #109 ) ;
#135 = CC_DESIGN_APPROVAL ( #40, ( #335 ) ) ;
#136 = CALENDAR_DATE ( 2022, 8, 7 ) ;
#137 = DIRECTION ( 'NONE',  ( 0.000000000000000000, 0.000000000000000000, -1.000000000000000000 ) ) ;
#138 = PERSON_AND_ORGANIZATION ( #26, #28 ) ;
#139 = MANIFOLD_SOLID_BREP ( 'Odebrat vysunutím3', #154 ) ;
#140 = CARTESIAN_POINT ( 'NONE',  ( -5.500000000000000000, 6.735557395310442023E-16, 5.500000000000005329 ) ) ;
#141 = EDGE_LOOP ( 'NONE', ( #244, #200, #9, #225 ) ) ;
#142 = DIRECTION ( 'NONE',  ( 1.224646799147353207E-16, 1.000000000000000000, -0.000000000000000000 ) ) ;
#143 = ORIENTED_EDGE ( 'NONE', *, *, #247, .F. ) ;
#144 = AXIS2_PLACEMENT_3D ( 'NONE', #80, #336, #372 ) ;
#145 = CARTESIAN_POINT ( 'NONE',  ( 0.000000000000000000, 0.000000000000000000, 305.0000000000000000 ) ) ;
#146 = CYLINDRICAL_SURFACE ( 'NONE', #223, 5.000000000000000000 ) ;
#147 = ADVANCED_FACE ( 'NONE', ( #172, #52 ), #354, .T. ) ;
#148 = DIRECTION ( 'NONE',  ( 1.000000000000000000, 0.000000000000000000, 0.000000000000000000 ) ) ;
#149 = CARTESIAN_POINT ( 'NONE',  ( -5.000000000000000000, 0.000000000000000000, 5.500000000000005329 ) ) ;
#150 = CIRCLE ( 'NONE', #31, 8.000000000000000000 ) ;
#151 = VECTOR ( 'NONE', #218, 1000.000000000000000 ) ;
#152 = CARTESIAN_POINT ( 'NONE',  ( 0.000000000000000000, 0.000000000000000000, 0.000000000000000000 ) ) ;
#153 = LINE ( 'NONE', #359, #79 ) ;
#154 = CLOSED_SHELL ( 'NONE', ( #347, #10, #17, #281, #30, #201, #83, #232, #147, #268, #122 ) ) ;
#155 = DIRECTION ( 'NONE',  ( -1.000000000000000000, 0.000000000000000000, 0.000000000000000000 ) ) ;
#156 = CARTESIAN_POINT ( 'NONE',  ( 0.000000000000000000, 0.000000000000000000, 305.0000000000000000 ) ) ;
#157 = APPROVAL ( #198, 'NEURÈENÝ' ) ;
#158 = CIRCLE ( 'NONE', #380, 5.500000000000000000 ) ;
#159 = APPROVAL_PERSON_ORGANIZATION ( #278, #163, #101 ) ;
#160 = LOCAL_TIME ( 16, 49, 40.00000000000000000, #312 ) ;
#161 = APPLICATION_PROTOCOL_DEFINITION ( 'international standard', 'config_control_design', 1994, #116 ) ;
#162 = DIRECTION ( 'NONE',  ( 1.000000000000000000, 0.000000000000000000, 0.000000000000000000 ) ) ;
#163 = APPROVAL ( #36, 'NEURÈENÝ' ) ;
#164 = ORIENTED_EDGE ( 'NONE', *, *, #212, .F. ) ;
#165 = DATE_AND_TIME ( #136, #334 ) ;
#166 = DIRECTION ( 'NONE',  ( -0.000000000000000000, -0.000000000000000000, -1.000000000000000000 ) ) ;
#167 = ORIENTED_EDGE ( 'NONE', *, *, #126, .F. ) ;
#168 = DATE_AND_TIME ( #366, #252 ) ;
#169 = CARTESIAN_POINT ( 'NONE',  ( -3.100000000000000089, 0.000000000000000000, 305.0000000000000000 ) ) ;
#170 = AXIS2_PLACEMENT_3D ( 'NONE', #316, #226, #106 ) ;
#171 = PRODUCT_DEFINITION_FORMATION_WITH_SPECIFIED_SOURCE ( 'LIBOVOLNÝ', '', #175, .NOT_KNOWN. ) ;
#172 = FACE_BOUND ( 'NONE', #253, .T. ) ;
#173 = FACE_BOUND ( 'NONE', #48, .T. ) ;
#174 = ORIENTED_EDGE ( 'NONE', *, *, #2, .F. ) ;
#175 = PRODUCT ( '14b7', '14b7', '', ( #35 ) ) ;
#176 = TOROIDAL_SURFACE ( 'NONE', #291, 5.500000000000000000, 0.5000000000000000000 ) ;
#177 = ORIENTED_EDGE ( 'NONE', *, *, #307, .T. ) ;
#178 = EDGE_CURVE ( 'NONE', #197, #259, #289, .T. ) ;
#179 = ORIENTED_EDGE ( 'NONE', *, *, #105, .F. ) ;
#180 = DIRECTION ( 'NONE',  ( 1.000000000000000000, 0.000000000000000000, 0.000000000000000000 ) ) ;
#181 = CARTESIAN_POINT ( 'NONE',  ( -3.100000000000000089, 0.000000000000000000, 0.000000000000000000 ) ) ;
#182 = AXIS2_PLACEMENT_3D ( 'NONE', #355, #1, #155 ) ;
#183 = CC_DESIGN_PERSON_AND_ORGANIZATION_ASSIGNMENT ( #305, #245, ( #175 ) ) ;
#184 = CARTESIAN_POINT ( 'NONE',  ( -8.000000000000000000, 0.000000000000000000, 5.000000000000000000 ) ) ;
#185 = AXIS2_PLACEMENT_3D ( 'NONE', #102, #18, #306 ) ;
#186 = EDGE_CURVE ( 'NONE', #134, #68, #190, .T. ) ;
#187 = ORIENTED_EDGE ( 'NONE', *, *, #74, .F. ) ;
#188 = CALENDAR_DATE ( 2022, 8, 7 ) ;
#189 = CARTESIAN_POINT ( 'NONE',  ( 0.000000000000000000, 0.000000000000000000, 5.500000000000005329 ) ) ;
#190 = CIRCLE ( 'NONE', #45, 5.000000000000000000 ) ;
#191 = AXIS2_PLACEMENT_3D ( 'NONE', #210, #237, #180 ) ;
#192 = ORIENTED_EDGE ( 'NONE', *, *, #50, .F. ) ;
#193 = CARTESIAN_POINT ( 'NONE',  ( 0.000000000000000000, 0.000000000000000000, 5.000000000000000000 ) ) ;
#194 = ORIENTED_EDGE ( 'NONE', *, *, #44, .F. ) ;
#195 = PERSON_AND_ORGANIZATION_ROLE ( 'classification_officer' ) ;
#196 = CARTESIAN_POINT ( 'NONE',  ( 5.000000000000000000, 6.123233995736766282E-16, 5.500000000000005329 ) ) ;
#197 = VERTEX_POINT ( 'NONE', #181 ) ;
#198 = APPROVAL_STATUS ( 'not_yet_approved' ) ;
#199 = CARTESIAN_POINT ( 'NONE',  ( -8.000000000000000000, 0.000000000000000000, 0.000000000000000000 ) ) ;
#200 = ORIENTED_EDGE ( 'NONE', *, *, #270, .T. ) ;
#201 = ADVANCED_FACE ( 'NONE', ( #324, #297 ), #119, .T. ) ;
#202 = PERSON_AND_ORGANIZATION ( #26, #28 ) ;
#203 = DIRECTION ( 'NONE',  ( 0.000000000000000000, 0.000000000000000000, 1.000000000000000000 ) ) ;
#204 = VERTEX_POINT ( 'NONE', #29 ) ;
#205 = DIRECTION ( 'NONE',  ( -1.000000000000000000, 0.000000000000000000, 0.000000000000000000 ) ) ;
#206 = DIRECTION ( 'NONE',  ( 1.000000000000000000, 0.000000000000000000, 0.000000000000000000 ) ) ;
#207 = EDGE_LOOP ( 'NONE', ( #89, #174 ) ) ;
#208 = CIRCLE ( 'NONE', #217, 3.100000000000000089 ) ;
#209 = EDGE_LOOP ( 'NONE', ( #6, #308, #331, #231 ) ) ;
#210 = CARTESIAN_POINT ( 'NONE',  ( 0.000000000000000000, 0.000000000000000000, 305.0000000000000000 ) ) ;
#211 = CARTESIAN_POINT ( 'NONE',  ( 0.000000000000000000, 0.000000000000000000, 305.0000000000000000 ) ) ;
#212 = EDGE_CURVE ( 'NONE', #204, #377, #266, .T. ) ;
#213 = AXIS2_PLACEMENT_3D ( 'NONE', #145, #262, #118 ) ;
#214 = DIRECTION ( 'NONE',  ( -0.000000000000000000, -0.000000000000000000, -1.000000000000000000 ) ) ;
#215 = APPLICATION_PROTOCOL_DEFINITION ( 'international standard', 'config_control_design', 1994, #62 ) ;
#216 = VECTOR ( 'NONE', #39, 1000.000000000000000 ) ;
#217 = AXIS2_PLACEMENT_3D ( 'NONE', #360, #381, #327 ) ;
#218 = DIRECTION ( 'NONE',  ( -0.000000000000000000, -0.000000000000000000, -1.000000000000000000 ) ) ;
#219 = ORIENTED_EDGE ( 'NONE', *, *, #33, .T. ) ;
#220 = CARTESIAN_POINT ( 'NONE',  ( 0.000000000000000000, 0.000000000000000000, 5.000000000000000000 ) ) ;
#221 = PERSON_AND_ORGANIZATION ( #26, #28 ) ;
#222 = CC_DESIGN_DATE_AND_TIME_ASSIGNMENT ( #229, #227, ( #357 ) ) ;
#223 = AXIS2_PLACEMENT_3D ( 'NONE', #27, #113, #205 ) ;
#224 = AXIS2_PLACEMENT_3D ( 'NONE', #152, #269, #93 ) ;
#225 = ORIENTED_EDGE ( 'NONE', *, *, #178, .T. ) ;
#226 = DIRECTION ( 'NONE',  ( 0.000000000000000000, -1.000000000000000000, 0.000000000000000000 ) ) ;
#227 = DATE_TIME_ROLE ( 'classification_date' ) ;
#228 = CARTESIAN_POINT ( 'NONE',  ( -3.100000000000000089, 0.000000000000000000, 305.0000000000000000 ) ) ;
#229 = DATE_AND_TIME ( #332, #160 ) ;
#230 =( GEOMETRIC_REPRESENTATION_CONTEXT ( 3 ) GLOBAL_UNCERTAINTY_ASSIGNED_CONTEXT ( ( #340 ) ) GLOBAL_UNIT_ASSIGNED_CONTEXT ( ( #271, #298, #63 ) ) REPRESENTATION_CONTEXT ( 'NONE', 'WORKASPACE' ) );
#231 = ORIENTED_EDGE ( 'NONE', *, *, #115, .F. ) ;
#232 = ADVANCED_FACE ( 'NONE', ( #234 ), #146, .T. ) ;
#233 = FACE_OUTER_BOUND ( 'NONE', #317, .T. ) ;
#234 = FACE_OUTER_BOUND ( 'NONE', #337, .T. ) ;
#235 = ORIENTED_EDGE ( 'NONE', *, *, #186, .F. ) ;
#236 = AXIS2_PLACEMENT_3D ( 'NONE', #238, #91, #84 ) ;
#237 = DIRECTION ( 'NONE',  ( 0.000000000000000000, 0.000000000000000000, 1.000000000000000000 ) ) ;
#238 = CARTESIAN_POINT ( 'NONE',  ( 0.000000000000000000, 0.000000000000000000, 305.0000000000000000 ) ) ;
#239 = PRODUCT_RELATED_PRODUCT_CATEGORY ( 'detail', '', ( #175 ) ) ;
#240 = AXIS2_PLACEMENT_3D ( 'NONE', #321, #23, #121 ) ;
#241 = LINE ( 'NONE', #184, #151 ) ;
#242 = EDGE_CURVE ( 'NONE', #103, #315, #313, .T. ) ;
#243 = CIRCLE ( 'NONE', #78, 0.5000000000000004441 ) ;
#244 = ORIENTED_EDGE ( 'NONE', *, *, #361, .F. ) ;
#245 = PERSON_AND_ORGANIZATION_ROLE ( 'design_owner' ) ;
#246 = ORIENTED_EDGE ( 'NONE', *, *, #33, .F. ) ;
#247 = EDGE_CURVE ( 'NONE', #19, #114, #60, .T. ) ;
#248 = CARTESIAN_POINT ( 'NONE',  ( 5.500000000000000000, 0.000000000000000000, 5.000000000000002665 ) ) ;
#249 = ORIENTED_EDGE ( 'NONE', *, *, #90, .F. ) ;
#250 = COORDINATED_UNIVERSAL_TIME_OFFSET ( 1, 0, .AHEAD. ) ;
#251 = AXIS2_PLACEMENT_3D ( 'NONE', #67, #203, #46 ) ;
#252 = LOCAL_TIME ( 16, 49, 40.00000000000000000, #75 ) ;
#253 = EDGE_LOOP ( 'NONE', ( #249, #346 ) ) ;
#254 = DESIGN_CONTEXT ( 'detailed design', #116, 'design' ) ;
#255 = FACE_OUTER_BOUND ( 'NONE', #141, .T. ) ;
#256 = CARTESIAN_POINT ( 'NONE',  ( 5.000000000000000000, 6.123233995736766282E-16, 305.0000000000000000 ) ) ;
#257 = DIRECTION ( 'NONE',  ( 0.000000000000000000, 0.000000000000000000, 1.000000000000000000 ) ) ;
#258 = CARTESIAN_POINT ( 'NONE',  ( 0.000000000000000000, 0.000000000000000000, 5.000000000000000000 ) ) ;
#259 = VERTEX_POINT ( 'NONE', #265 ) ;
#260 = VECTOR ( 'NONE', #214, 1000.000000000000000 ) ;
#261 = DIRECTION ( 'NONE',  ( 1.000000000000000000, 0.000000000000000000, 0.000000000000000000 ) ) ;
#262 = DIRECTION ( 'NONE',  ( -0.000000000000000000, -0.000000000000000000, -1.000000000000000000 ) ) ;
#263 = DIRECTION ( 'NONE',  ( -0.000000000000000000, -0.000000000000000000, -1.000000000000000000 ) ) ;
#264 = ORIENTED_EDGE ( 'NONE', *, *, #329, .F. ) ;
#265 = CARTESIAN_POINT ( 'NONE',  ( 3.100000000000000089, 3.796405077356794918E-16, 0.000000000000000000 ) ) ;
#266 = CIRCLE ( 'NONE', #95, 8.000000000000000000 ) ;
#267 = FACE_OUTER_BOUND ( 'NONE', #286, .T. ) ;
#268 = ADVANCED_FACE ( 'NONE', ( #49 ), #176, .F. ) ;
#269 = DIRECTION ( 'NONE',  ( 0.000000000000000000, 0.000000000000000000, 1.000000000000000000 ) ) ;
#270 = EDGE_CURVE ( 'NONE', #77, #129, #328, .T. ) ;
#271 =( LENGTH_UNIT ( ) NAMED_UNIT ( * ) SI_UNIT ( .MILLI., .METRE. ) );
#272 = AXIS2_PLACEMENT_3D ( 'NONE', #193, #276, #162 ) ;
#273 = APPROVAL_PERSON_ORGANIZATION ( #138, #40, #65 ) ;
#274 = ORIENTED_EDGE ( 'NONE', *, *, #178, .F. ) ;
#275 = PERSON_AND_ORGANIZATION ( #26, #28 ) ;
#276 = DIRECTION ( 'NONE',  ( 0.000000000000000000, 0.000000000000000000, 1.000000000000000000 ) ) ;
#277 = VERTEX_POINT ( 'NONE', #149 ) ;
#278 = PERSON_AND_ORGANIZATION ( #26, #28 ) ;
#279 = DIRECTION ( 'NONE',  ( -0.000000000000000000, -0.000000000000000000, -1.000000000000000000 ) ) ;
#280 = ORIENTED_EDGE ( 'NONE', *, *, #126, .T. ) ;
#281 = ADVANCED_FACE ( 'NONE', ( #267 ), #123, .T. ) ;
#282 = SHAPE_DEFINITION_REPRESENTATION ( #323, #12 ) ;
#283 = DIRECTION ( 'NONE',  ( 0.000000000000000000, 0.000000000000000000, 1.000000000000000000 ) ) ;
#284 = DIRECTION ( 'NONE',  ( 0.000000000000000000, 0.000000000000000000, 1.000000000000000000 ) ) ;
#285 = ORIENTED_EDGE ( 'NONE', *, *, #98, .F. ) ;
#286 = EDGE_LOOP ( 'NONE', ( #179, #322, #365, #37 ) ) ;
#287 = DIRECTION ( 'NONE',  ( 0.000000000000000000, 0.000000000000000000, 1.000000000000000000 ) ) ;
#288 = CC_DESIGN_DATE_AND_TIME_ASSIGNMENT ( #341, #72, ( #335 ) ) ;
#289 = CIRCLE ( 'NONE', #38, 3.100000000000000089 ) ;
#290 = CYLINDRICAL_SURFACE ( 'NONE', #213, 5.000000000000000000 ) ;
#291 = AXIS2_PLACEMENT_3D ( 'NONE', #353, #287, #261 ) ;
#292 = CARTESIAN_POINT ( 'NONE',  ( 0.000000000000000000, 0.000000000000000000, 0.000000000000000000 ) ) ;
#293 = ORIENTED_EDGE ( 'NONE', *, *, #212, .T. ) ;
#294 = CC_DESIGN_PERSON_AND_ORGANIZATION_ASSIGNMENT ( #132, #130, ( #335 ) ) ;
#295 = DIRECTION ( 'NONE',  ( 1.000000000000000000, 0.000000000000000000, 0.000000000000000000 ) ) ;
#296 = TOROIDAL_SURFACE ( 'NONE', #21, 5.500000000000000000, 0.5000000000000000000 ) ;
#297 = FACE_OUTER_BOUND ( 'NONE', #13, .T. ) ;
#298 =( NAMED_UNIT ( * ) PLANE_ANGLE_UNIT ( ) SI_UNIT ( $, .RADIAN. ) );
#299 = CARTESIAN_POINT ( 'NONE',  ( 8.000000000000000000, 9.797174393178825657E-16, 5.000000000000000000 ) ) ;
#300 = LINE ( 'NONE', #61, #260 ) ;
#301 = CC_DESIGN_PERSON_AND_ORGANIZATION_ASSIGNMENT ( #99, #108, ( #171 ) ) ;
#302 = AXIS2_PLACEMENT_3D ( 'NONE', #351, #86, #25 ) ;
#303 = DIRECTION ( 'NONE',  ( 1.000000000000000000, 0.000000000000000000, 0.000000000000000000 ) ) ;
#304 = ORIENTED_EDGE ( 'NONE', *, *, #358, .F. ) ;
#305 = PERSON_AND_ORGANIZATION ( #26, #28 ) ;
#306 = DIRECTION ( 'NONE',  ( -1.000000000000000000, 0.000000000000000000, 0.000000000000000000 ) ) ;
#307 = EDGE_CURVE ( 'NONE', #68, #134, #5, .T. ) ;
#308 = ORIENTED_EDGE ( 'NONE', *, *, #361, .T. ) ;
#309 = APPROVAL_ROLE ( '' ) ;
#310 = LINE ( 'NONE', #256, #216 ) ;
#311 = ORIENTED_EDGE ( 'NONE', *, *, #307, .F. ) ;
#312 = COORDINATED_UNIVERSAL_TIME_OFFSET ( 1, 0, .AHEAD. ) ;
#313 = CIRCLE ( 'NONE', #69, 8.000000000000000000 ) ;
#314 = AXIS2_PLACEMENT_3D ( 'NONE', #117, #96, #3 ) ;
#315 = VERTEX_POINT ( 'NONE', #363 ) ;
#316 = CARTESIAN_POINT ( 'NONE',  ( 5.500000000000000000, 0.000000000000000000, 5.500000000000005329 ) ) ;
#317 = EDGE_LOOP ( 'NONE', ( #264, #164, #47, #127 ) ) ;
#318 = EDGE_CURVE ( 'NONE', #204, #103, #241, .T. ) ;
#319 = DIRECTION ( 'NONE',  ( 1.000000000000000000, 0.000000000000000000, 0.000000000000000000 ) ) ;
#320 = FACE_OUTER_BOUND ( 'NONE', #53, .T. ) ;
#321 = CARTESIAN_POINT ( 'NONE',  ( 0.000000000000000000, 0.000000000000000000, 5.000000000000000000 ) ) ;
#322 = ORIENTED_EDGE ( 'NONE', *, *, #329, .T. ) ;
#323 = PRODUCT_DEFINITION_SHAPE ( 'NONE', 'NONE',  #335 ) ;
#324 = FACE_BOUND ( 'NONE', #333, .T. ) ;
#325 = DIRECTION ( 'NONE',  ( 0.000000000000000000, 0.000000000000000000, 1.000000000000000000 ) ) ;
#326 = VECTOR ( 'NONE', #137, 1000.000000000000000 ) ;
#327 = DIRECTION ( 'NONE',  ( 1.000000000000000000, 0.000000000000000000, 0.000000000000000000 ) ) ;
#328 = CIRCLE ( 'NONE', #191, 3.100000000000000089 ) ;
#329 = EDGE_CURVE ( 'NONE', #377, #315, #300, .T. ) ;
#330 = CYLINDRICAL_SURFACE ( 'NONE', #182, 3.100000000000000089 ) ;
#331 = ORIENTED_EDGE ( 'NONE', *, *, #358, .T. ) ;
#332 = CALENDAR_DATE ( 2022, 8, 7 ) ;
#333 = EDGE_LOOP ( 'NONE', ( #219, #110 ) ) ;
#334 = LOCAL_TIME ( 16, 49, 40.00000000000000000, #250 ) ;
#335 = PRODUCT_DEFINITION ( 'NEZNÁMÝ', '', #171, #254 ) ;
#336 = DIRECTION ( 'NONE',  ( -0.000000000000000000, -0.000000000000000000, -1.000000000000000000 ) ) ;
#337 = EDGE_LOOP ( 'NONE', ( #285, #311, #280, #373 ) ) ;
#338 = PERSON_AND_ORGANIZATION_ROLE ( 'design_supplier' ) ;
#339 = DIRECTION ( 'NONE',  ( -1.000000000000000000, 1.224646799147351482E-16, 0.000000000000000000 ) ) ;
#340 = UNCERTAINTY_MEASURE_WITH_UNIT (LENGTH_MEASURE( 1.000000000000000082E-05 ), #271, 'distance_accuracy_value', 'NONE');
#341 = DATE_AND_TIME ( #188, #345 ) ;
#342 = ORIENTED_EDGE ( 'NONE', *, *, #98, .T. ) ;
#343 = APPROVAL_DATE_TIME ( #168, #157 ) ;
#344 = CYLINDRICAL_SURFACE ( 'NONE', #144, 8.000000000000000000 ) ;
#345 = LOCAL_TIME ( 16, 49, 40.00000000000000000, #370 ) ;
#346 = ORIENTED_EDGE ( 'NONE', *, *, #270, .F. ) ;
#347 = ADVANCED_FACE ( 'NONE', ( #124 ), #330, .F. ) ;
#348 = CARTESIAN_POINT ( 'NONE',  ( 0.000000000000000000, 0.000000000000000000, 0.000000000000000000 ) ) ;
#349 = DIRECTION ( 'NONE',  ( 0.000000000000000000, 0.000000000000000000, 1.000000000000000000 ) ) ;
#350 = EDGE_LOOP ( 'NONE', ( #187, #368, #246, #192 ) ) ;
#351 = CARTESIAN_POINT ( 'NONE',  ( 0.000000000000000000, 0.000000000000000000, 5.000000000000000000 ) ) ;
#352 = CIRCLE ( 'NONE', #170, 0.5000000000000004441 ) ;
#353 = CARTESIAN_POINT ( 'NONE',  ( 0.000000000000000000, 0.000000000000000000, 5.500000000000005329 ) ) ;
#354 = PLANE ( 'NONE',  #236 ) ;
#355 = CARTESIAN_POINT ( 'NONE',  ( 0.000000000000000000, 0.000000000000000000, 305.0000000000000000 ) ) ;
#356 = VECTOR ( 'NONE', #166, 1000.000000000000000 ) ;
#357 = SECURITY_CLASSIFICATION ( '', '', #70 ) ;
#358 = EDGE_CURVE ( 'NONE', #259, #197, #208, .T. ) ;
#359 = CARTESIAN_POINT ( 'NONE',  ( 3.100000000000000089, 3.796405077356794918E-16, 305.0000000000000000 ) ) ;
#360 = CARTESIAN_POINT ( 'NONE',  ( 0.000000000000000000, 0.000000000000000000, 0.000000000000000000 ) ) ;
#361 = EDGE_CURVE ( 'NONE', #77, #259, #153, .T. ) ;
#362 = CIRCLE ( 'NONE', #251, 5.000000000000000000 ) ;
#363 = CARTESIAN_POINT ( 'NONE',  ( 8.000000000000000000, 9.797174393178825657E-16, 0.000000000000000000 ) ) ;
#364 = APPROVAL_PERSON_ORGANIZATION ( #275, #157, #309 ) ;
#365 = ORIENTED_EDGE ( 'NONE', *, *, #2, .T. ) ;
#366 = CALENDAR_DATE ( 2022, 8, 7 ) ;
#367 = DIRECTION ( 'NONE',  ( 1.000000000000000000, 0.000000000000000000, -0.000000000000000000 ) ) ;
#368 = ORIENTED_EDGE ( 'NONE', *, *, #66, .T. ) ;
#369 = LINE ( 'NONE', #169, #326 ) ;
#370 = COORDINATED_UNIVERSAL_TIME_OFFSET ( 1, 0, .AHEAD. ) ;
#371 = CIRCLE ( 'NONE', #4, 5.000000000000000000 ) ;
#372 = DIRECTION ( 'NONE',  ( -1.000000000000000000, 0.000000000000000000, 0.000000000000000000 ) ) ;
#373 = ORIENTED_EDGE ( 'NONE', *, *, #74, .T. ) ;
#374 = APPROVAL_DATE_TIME ( #7, #163 ) ;
#375 = LINE ( 'NONE', #76, #356 ) ;
#376 = CC_DESIGN_PERSON_AND_ORGANIZATION_ASSIGNMENT ( #221, #195, ( #357 ) ) ;
#377 = VERTEX_POINT ( 'NONE', #299 ) ;
#378 = CARTESIAN_POINT ( 'NONE',  ( 0.000000000000000000, 0.000000000000000000, 0.000000000000000000 ) ) ;
#379 = CARTESIAN_POINT ( 'NONE',  ( -5.500000000000000000, 6.735557395310442023E-16, 5.000000000000002665 ) ) ;
#380 = AXIS2_PLACEMENT_3D ( 'NONE', #220, #279, #71 ) ;
#381 = DIRECTION ( 'NONE',  ( -0.000000000000000000, -0.000000000000000000, -1.000000000000000000 ) ) ;
ENDSEC;
END-ISO-10303-21;
