ISO-10303-21;
HEADER;
FILE_DESCRIPTION (( 'STEP AP203' ),
    '1' );
FILE_NAME ('8864.STEP',
    '2022-07-08T14:19:49',
    ( '' ),
    ( '' ),
    'SwSTEP 2.0',
    'SolidWorks 2019',
    '' );
FILE_SCHEMA (( 'CONFIG_CONTROL_DESIGN' ));
ENDSEC;

DATA;
#1 = SHAPE_DEFINITION_REPRESENTATION ( #356, #237 ) ;
#2 = ORIENTED_EDGE ( 'NONE', *, *, #273, .T. ) ;
#3 = CC_DESIGN_PERSON_AND_ORGANIZATION_ASSIGNMENT ( #77, #50, ( #222 ) ) ;
#4 = ORIENTED_EDGE ( 'NONE', *, *, #273, .F. ) ;
#5 = CC_DESIGN_APPROVAL ( #233, ( #222 ) ) ;
#6 = ORIENTED_EDGE ( 'NONE', *, *, #302, .T. ) ;
#7 = EDGE_LOOP ( 'NONE', ( #197, #268, #207, #84 ) ) ;
#8 = CIRCLE ( 'NONE', #220, 6.000000000000000888 ) ;
#9 = LOCAL_TIME ( 16, 19, 49.00000000000000000, #280 ) ;
#10 = ORIENTED_EDGE ( 'NONE', *, *, #152, .T. ) ;
#11 =( NAMED_UNIT ( * ) PLANE_ANGLE_UNIT ( ) SI_UNIT ( $, .RADIAN. ) );
#12 = ADVANCED_FACE ( 'NONE', ( #183, #239 ), #144, .F. ) ;
#13 = DIRECTION ( 'NONE',  ( 0.000000000000000000, 0.000000000000000000, 1.000000000000000000 ) ) ;
#14 = DIRECTION ( 'NONE',  ( -0.000000000000000000, -0.000000000000000000, -1.000000000000000000 ) ) ;
#15 = CIRCLE ( 'NONE', #234, 11.00000000000000000 ) ;
#16 = LINE ( 'NONE', #358, #355 ) ;
#17 = CARTESIAN_POINT ( 'NONE',  ( 6.000000000000000888, 7.347880794884119736E-16, 0.000000000000000000 ) ) ;
#18 = DIRECTION ( 'NONE',  ( -0.000000000000000000, -0.000000000000000000, -1.000000000000000000 ) ) ;
#19 = FACE_OUTER_BOUND ( 'NONE', #324, .T. ) ;
#20 = TOROIDAL_SURFACE ( 'NONE', #380, 8.699999999999999289, 0.6999999999999999556 ) ;
#21 = DATE_TIME_ROLE ( 'creation_date' ) ;
#22 = CARTESIAN_POINT ( 'NONE',  ( -6.000000000000000888, 0.000000000000000000, 0.000000000000000000 ) ) ;
#23 = EDGE_CURVE ( 'NONE', #267, #117, #67, .T. ) ;
#24 = EDGE_CURVE ( 'NONE', #330, #60, #74, .T. ) ;
#25 = DIRECTION ( 'NONE',  ( 0.000000000000000000, 0.000000000000000000, 1.000000000000000000 ) ) ;
#26 = CALENDAR_DATE ( 2022, 8, 7 ) ;
#27 = ORIENTED_EDGE ( 'NONE', *, *, #23, .F. ) ;
#28 = DIRECTION ( 'NONE',  ( 1.000000000000000000, 0.000000000000000000, 0.000000000000000000 ) ) ;
#29 = DIRECTION ( 'NONE',  ( 1.000000000000000000, 0.000000000000000000, 0.000000000000000000 ) ) ;
#30 = CC_DESIGN_DATE_AND_TIME_ASSIGNMENT ( #164, #347, ( #222 ) ) ;
#31 = ORIENTED_EDGE ( 'NONE', *, *, #242, .T. ) ;
#32 = AXIS2_PLACEMENT_3D ( 'NONE', #162, #13, #217 ) ;
#33 = CIRCLE ( 'NONE', #37, 8.699999999999999289 ) ;
#34 = ORIENTED_EDGE ( 'NONE', *, *, #309, .T. ) ;
#35 = ORIENTED_EDGE ( 'NONE', *, *, #129, .T. ) ;
#36 = DIRECTION ( 'NONE',  ( 1.000000000000000000, 0.000000000000000000, -0.000000000000000000 ) ) ;
#37 = AXIS2_PLACEMENT_3D ( 'NONE', #182, #219, #93 ) ;
#38 = FACE_BOUND ( 'NONE', #232, .T. ) ;
#39 = ADVANCED_FACE ( 'NONE', ( #190 ), #301, .F. ) ;
#40 = CARTESIAN_POINT ( 'NONE',  ( 0.000000000000000000, 0.000000000000000000, 7.700000000000012612 ) ) ;
#41 = DIRECTION ( 'NONE',  ( 0.000000000000000000, 0.000000000000000000, 1.000000000000000000 ) ) ;
#42 = DIRECTION ( 'NONE',  ( 0.000000000000000000, 0.000000000000000000, 1.000000000000000000 ) ) ;
#43 = DIRECTION ( 'NONE',  ( 0.000000000000000000, 0.000000000000000000, 1.000000000000000000 ) ) ;
#44 = DIRECTION ( 'NONE',  ( 1.000000000000000000, 0.000000000000000000, 0.000000000000000000 ) ) ;
#45 = DIRECTION ( 'NONE',  ( 1.000000000000000000, 0.000000000000000000, 0.000000000000000000 ) ) ;
#46 = CARTESIAN_POINT ( 'NONE',  ( 0.000000000000000000, 0.000000000000000000, 0.000000000000000000 ) ) ;
#47 = UNCERTAINTY_MEASURE_WITH_UNIT (LENGTH_MEASURE( 1.000000000000000082E-05 ), #211, 'distance_accuracy_value', 'NONE');
#48 = DIRECTION ( 'NONE',  ( 0.000000000000000000, 0.000000000000000000, -1.000000000000000000 ) ) ;
#49 = DIRECTION ( 'NONE',  ( 0.000000000000000000, 0.000000000000000000, 1.000000000000000000 ) ) ;
#50 = PERSON_AND_ORGANIZATION_ROLE ( 'classification_officer' ) ;
#51 = AXIS2_PLACEMENT_3D ( 'NONE', #101, #99, #45 ) ;
#52 = CC_DESIGN_PERSON_AND_ORGANIZATION_ASSIGNMENT ( #135, #102, ( #156 ) ) ;
#53 = ORIENTED_EDGE ( 'NONE', *, *, #169, .T. ) ;
#54 = COORDINATED_UNIVERSAL_TIME_OFFSET ( 1, 0, .AHEAD. ) ;
#55 = DIRECTION ( 'NONE',  ( 1.000000000000000000, 0.000000000000000000, 0.000000000000000000 ) ) ;
#56 = DATE_AND_TIME ( #310, #87 ) ;
#57 = CYLINDRICAL_SURFACE ( 'NONE', #158, 11.00000000000000000 ) ;
#58 = PERSON_AND_ORGANIZATION_ROLE ( 'creator' ) ;
#59 = LOCAL_TIME ( 16, 19, 49.00000000000000000, #199 ) ;
#60 = VERTEX_POINT ( 'NONE', #216 ) ;
#61 = VERTEX_POINT ( 'NONE', #17 ) ;
#62 = EDGE_LOOP ( 'NONE', ( #326, #204, #31, #359 ) ) ;
#63 =( GEOMETRIC_REPRESENTATION_CONTEXT ( 3 ) GLOBAL_UNCERTAINTY_ASSIGNED_CONTEXT ( ( #47 ) ) GLOBAL_UNIT_ASSIGNED_CONTEXT ( ( #211, #11, #298 ) ) REPRESENTATION_CONTEXT ( 'NONE', 'WORKASPACE' ) );
#64 = PRODUCT_DEFINITION ( 'NEZNÁMÝ', '', #304, #271 ) ;
#65 = ORIENTED_EDGE ( 'NONE', *, *, #23, .T. ) ;
#66 = CARTESIAN_POINT ( 'NONE',  ( 0.000000000000000000, 0.000000000000000000, 0.000000000000000000 ) ) ;
#67 = LINE ( 'NONE', #123, #287 ) ;
#68 = DIRECTION ( 'NONE',  ( 1.000000000000000000, 0.000000000000000000, 0.000000000000000000 ) ) ;
#69 = AXIS2_PLACEMENT_3D ( 'NONE', #305, #213, #215 ) ;
#70 = LINE ( 'NONE', #300, #245 ) ;
#71 = DIRECTION ( 'NONE',  ( -1.000000000000000000, 1.224646799147353207E-16, 0.000000000000000000 ) ) ;
#72 = DIRECTION ( 'NONE',  ( 0.000000000000000000, 0.000000000000000000, -1.000000000000000000 ) ) ;
#73 = DIRECTION ( 'NONE',  ( 1.000000000000000000, 0.000000000000000000, 0.000000000000000000 ) ) ;
#74 = CIRCLE ( 'NONE', #362, 8.699999999999999289 ) ;
#75 = CARTESIAN_POINT ( 'NONE',  ( -8.699999999999999289, 1.065442715258197248E-15, 7.700000000000012612 ) ) ;
#76 = DIRECTION ( 'NONE',  ( -1.000000000000000000, 0.000000000000000000, 0.000000000000000000 ) ) ;
#77 = PERSON_AND_ORGANIZATION ( #248, #209 ) ;
#78 = DIRECTION ( 'NONE',  ( -0.000000000000000000, -0.000000000000000000, -1.000000000000000000 ) ) ;
#79 = APPLICATION_PROTOCOL_DEFINITION ( 'international standard', 'config_control_design', 1994, #365 ) ;
#80 = PERSON_AND_ORGANIZATION ( #248, #209 ) ;
#81 = EDGE_LOOP ( 'NONE', ( #176, #65, #325, #88 ) ) ;
#82 = DIRECTION ( 'NONE',  ( -1.000000000000000000, 0.000000000000000000, 0.000000000000000000 ) ) ;
#83 = EDGE_CURVE ( 'NONE', #89, #210, #297, .T. ) ;
#84 = ORIENTED_EDGE ( 'NONE', *, *, #242, .F. ) ;
#85 = EDGE_CURVE ( 'NONE', #124, #316, #281, .T. ) ;
#86 = AXIS2_PLACEMENT_3D ( 'NONE', #40, #133, #251 ) ;
#87 = LOCAL_TIME ( 16, 19, 49.00000000000000000, #202 ) ;
#88 = ORIENTED_EDGE ( 'NONE', *, *, #130, .F. ) ;
#89 = VERTEX_POINT ( 'NONE', #361 ) ;
#90 = VERTEX_POINT ( 'NONE', #247 ) ;
#91 = AXIS2_PLACEMENT_3D ( 'NONE', #311, #203, #29 ) ;
#92 = EDGE_LOOP ( 'NONE', ( #289, #177 ) ) ;
#93 = DIRECTION ( 'NONE',  ( 1.000000000000000000, 0.000000000000000000, 0.000000000000000000 ) ) ;
#94 = ORIENTED_EDGE ( 'NONE', *, *, #323, .F. ) ;
#95 = FACE_OUTER_BOUND ( 'NONE', #284, .T. ) ;
#96 = CARTESIAN_POINT ( 'NONE',  ( -11.00000000000000000, 0.000000000000000000, 7.000000000000000000 ) ) ;
#97 = CARTESIAN_POINT ( 'NONE',  ( 0.000000000000000000, 0.000000000000000000, 0.000000000000000000 ) ) ;
#98 = DIRECTION ( 'NONE',  ( -1.000000000000000000, 0.000000000000000000, 0.000000000000000000 ) ) ;
#99 = DIRECTION ( 'NONE',  ( 0.000000000000000000, 0.000000000000000000, 1.000000000000000000 ) ) ;
#100 = DIRECTION ( 'NONE',  ( 0.000000000000000000, 0.000000000000000000, -1.000000000000000000 ) ) ;
#101 = CARTESIAN_POINT ( 'NONE',  ( 0.000000000000000000, 0.000000000000000000, 0.000000000000000000 ) ) ;
#102 = PERSON_AND_ORGANIZATION_ROLE ( 'design_owner' ) ;
#103 = CARTESIAN_POINT ( 'NONE',  ( 8.000000000000000000, 9.797174393178825657E-16, 207.0000000000000284 ) ) ;
#104 = EDGE_CURVE ( 'NONE', #117, #90, #15, .T. ) ;
#105 = DATE_AND_TIME ( #26, #59 ) ;
#106 = CARTESIAN_POINT ( 'NONE',  ( 0.000000000000000000, 0.000000000000000000, 7.000000000000000000 ) ) ;
#107 = PRODUCT_RELATED_PRODUCT_CATEGORY ( 'detail', '', ( #156 ) ) ;
#108 = SECURITY_CLASSIFICATION_LEVEL ( 'unclassified' ) ;
#109 = DIRECTION ( 'NONE',  ( 0.000000000000000000, -1.000000000000000000, 0.000000000000000000 ) ) ;
#110 = AXIS2_PLACEMENT_3D ( 'NONE', #346, #259, #82 ) ;
#111 = CARTESIAN_POINT ( 'NONE',  ( 0.000000000000000000, 0.000000000000000000, 0.000000000000000000 ) ) ;
#112 = DIRECTION ( 'NONE',  ( 1.000000000000000000, 0.000000000000000000, -0.000000000000000000 ) ) ;
#113 = ORIENTED_EDGE ( 'NONE', *, *, #288, .T. ) ;
#114 = ADVANCED_FACE ( 'NONE', ( #19 ), #221, .T. ) ;
#115 = AXIS2_PLACEMENT_3D ( 'NONE', #339, #195, #73 ) ;
#116 = APPROVAL_PERSON_ORGANIZATION ( #138, #377, #379 ) ;
#117 = VERTEX_POINT ( 'NONE', #218 ) ;
#118 = EDGE_LOOP ( 'NONE', ( #357, #354, #6, #4 ) ) ;
#119 = ORIENTED_EDGE ( 'NONE', *, *, #83, .F. ) ;
#120 = CIRCLE ( 'NONE', #340, 11.00000000000000000 ) ;
#121 = EDGE_CURVE ( 'NONE', #267, #150, #120, .T. ) ;
#122 = CIRCLE ( 'NONE', #32, 8.000000000000000000 ) ;
#123 = CARTESIAN_POINT ( 'NONE',  ( 11.00000000000000000, 1.347111479062088405E-15, 7.000000000000000000 ) ) ;
#124 = VERTEX_POINT ( 'NONE', #224 ) ;
#125 = FACE_OUTER_BOUND ( 'NONE', #319, .T. ) ;
#126 = CARTESIAN_POINT ( 'NONE',  ( 11.00000000000000000, 1.347111479062088405E-15, 7.000000000000000000 ) ) ;
#127 = AXIS2_PLACEMENT_3D ( 'NONE', #163, #345, #336 ) ;
#128 = CARTESIAN_POINT ( 'NONE',  ( 0.000000000000000000, 0.000000000000000000, 7.000000000000000000 ) ) ;
#129 = EDGE_CURVE ( 'NONE', #210, #290, #291, .T. ) ;
#130 = EDGE_CURVE ( 'NONE', #150, #90, #134, .T. ) ;
#131 = CARTESIAN_POINT ( 'NONE',  ( -8.000000000000000000, 0.000000000000000000, 207.0000000000000284 ) ) ;
#132 = CARTESIAN_POINT ( 'NONE',  ( 0.000000000000000000, 0.000000000000000000, 207.0000000000000284 ) ) ;
#133 = DIRECTION ( 'NONE',  ( 0.000000000000000000, 0.000000000000000000, 1.000000000000000000 ) ) ;
#134 = LINE ( 'NONE', #96, #172 ) ;
#135 = PERSON_AND_ORGANIZATION ( #248, #209 ) ;
#136 = FACE_OUTER_BOUND ( 'NONE', #178, .T. ) ;
#137 = MECHANICAL_CONTEXT ( 'NONE', #299, 'mechanical' ) ;
#138 = PERSON_AND_ORGANIZATION ( #248, #209 ) ;
#139 = FACE_OUTER_BOUND ( 'NONE', #353, .T. ) ;
#140 = ORIENTED_EDGE ( 'NONE', *, *, #323, .T. ) ;
#141 = AXIS2_PLACEMENT_3D ( 'NONE', #243, #41, #277 ) ;
#142 = CALENDAR_DATE ( 2022, 8, 7 ) ;
#143 = EDGE_LOOP ( 'NONE', ( #283, #293 ) ) ;
#144 = PLANE ( 'NONE',  #189 ) ;
#145 = CIRCLE ( 'NONE', #296, 0.7000000000000000666 ) ;
#146 = AXIS2_PLACEMENT_3D ( 'NONE', #111, #200, #28 ) ;
#147 = ORIENTED_EDGE ( 'NONE', *, *, #85, .F. ) ;
#148 = ORIENTED_EDGE ( 'NONE', *, *, #327, .T. ) ;
#149 = ADVANCED_FACE ( 'NONE', ( #372 ), #260, .F. ) ;
#150 = VERTEX_POINT ( 'NONE', #369 ) ;
#151 = AXIS2_PLACEMENT_3D ( 'NONE', #155, #274, #55 ) ;
#152 = EDGE_CURVE ( 'NONE', #316, #124, #8, .T. ) ;
#153 = CYLINDRICAL_SURFACE ( 'NONE', #69, 6.000000000000000888 ) ;
#154 = CYLINDRICAL_SURFACE ( 'NONE', #363, 11.00000000000000000 ) ;
#155 = CARTESIAN_POINT ( 'NONE',  ( 0.000000000000000000, 0.000000000000000000, 0.000000000000000000 ) ) ;
#156 = PRODUCT ( '8864', '8864', '', ( #137 ) ) ;
#157 = PLANE ( 'NONE',  #378 ) ;
#158 = AXIS2_PLACEMENT_3D ( 'NONE', #286, #263, #329 ) ;
#159 = CARTESIAN_POINT ( 'NONE',  ( 0.000000000000000000, 0.000000000000000000, 207.0000000000000284 ) ) ;
#160 = DIRECTION ( 'NONE',  ( 1.000000000000000000, 0.000000000000000000, 0.000000000000000000 ) ) ;
#161 = CC_DESIGN_DATE_AND_TIME_ASSIGNMENT ( #165, #21, ( #64 ) ) ;
#162 = CARTESIAN_POINT ( 'NONE',  ( 0.000000000000000000, 0.000000000000000000, 207.0000000000000284 ) ) ;
#163 = CARTESIAN_POINT ( 'NONE',  ( 0.000000000000000000, 0.000000000000000000, 7.000000000000000000 ) ) ;
#164 = DATE_AND_TIME ( #142, #364 ) ;
#165 = DATE_AND_TIME ( #223, #332 ) ;
#166 = ORIENTED_EDGE ( 'NONE', *, *, #130, .T. ) ;
#167 = APPROVAL_DATE_TIME ( #105, #233 ) ;
#168 = ORIENTED_EDGE ( 'NONE', *, *, #231, .T. ) ;
#169 = EDGE_CURVE ( 'NONE', #150, #267, #321, .T. ) ;
#170 = PERSON_AND_ORGANIZATION ( #248, #209 ) ;
#171 = ORIENTED_EDGE ( 'NONE', *, *, #231, .F. ) ;
#172 = VECTOR ( 'NONE', #279, 1000.000000000000000 ) ;
#173 = AXIS2_PLACEMENT_3D ( 'NONE', #97, #18, #68 ) ;
#174 = PERSON_AND_ORGANIZATION_ROLE ( 'creator' ) ;
#175 = ADVANCED_FACE ( 'NONE', ( #125 ), #154, .T. ) ;
#176 = ORIENTED_EDGE ( 'NONE', *, *, #121, .F. ) ;
#177 = ORIENTED_EDGE ( 'NONE', *, *, #302, .F. ) ;
#178 = EDGE_LOOP ( 'NONE', ( #53, #269 ) ) ;
#179 = EDGE_CURVE ( 'NONE', #316, #61, #70, .T. ) ;
#180 = DIRECTION ( 'NONE',  ( -0.000000000000000000, -0.000000000000000000, -1.000000000000000000 ) ) ;
#181 = CLOSED_SHELL ( 'NONE', ( #39, #149, #114, #256, #175, #192, #12, #244, #262, #352, #350 ) ) ;
#182 = CARTESIAN_POINT ( 'NONE',  ( 0.000000000000000000, 0.000000000000000000, 7.000000000000000000 ) ) ;
#183 = FACE_BOUND ( 'NONE', #92, .T. ) ;
#184 = DIRECTION ( 'NONE',  ( 1.000000000000000000, 0.000000000000000000, 0.000000000000000000 ) ) ;
#185 = EDGE_CURVE ( 'NONE', #235, #61, #331, .T. ) ;
#186 = CARTESIAN_POINT ( 'NONE',  ( -8.000000000000000000, 0.000000000000000000, 7.700000000000012612 ) ) ;
#187 = DIRECTION ( 'NONE',  ( 0.000000000000000000, 0.000000000000000000, 1.000000000000000000 ) ) ;
#188 = LINE ( 'NONE', #278, #208 ) ;
#189 = AXIS2_PLACEMENT_3D ( 'NONE', #66, #265, #36 ) ;
#190 = FACE_OUTER_BOUND ( 'NONE', #118, .T. ) ;
#191 = CIRCLE ( 'NONE', #51, 11.00000000000000000 ) ;
#192 = ADVANCED_FACE ( 'NONE', ( #312, #136 ), #258, .T. ) ;
#193 = MANIFOLD_SOLID_BREP ( 'Odebrat vysunutím3', #181 ) ;
#194 = DIRECTION ( 'NONE',  ( -0.000000000000000000, -0.000000000000000000, -1.000000000000000000 ) ) ;
#195 = DIRECTION ( 'NONE',  ( 0.000000000000000000, 0.000000000000000000, 1.000000000000000000 ) ) ;
#196 = AXIS2_PLACEMENT_3D ( 'NONE', #249, #78, #76 ) ;
#197 = ORIENTED_EDGE ( 'NONE', *, *, #288, .F. ) ;
#198 = CC_DESIGN_SECURITY_CLASSIFICATION ( #222, ( #304 ) ) ;
#199 = COORDINATED_UNIVERSAL_TIME_OFFSET ( 1, 0, .AHEAD. ) ;
#200 = DIRECTION ( 'NONE',  ( 0.000000000000000000, 0.000000000000000000, 1.000000000000000000 ) ) ;
#201 = FACE_OUTER_BOUND ( 'NONE', #81, .T. ) ;
#202 = COORDINATED_UNIVERSAL_TIME_OFFSET ( 1, 0, .AHEAD. ) ;
#203 = DIRECTION ( 'NONE',  ( 0.000000000000000000, 0.000000000000000000, 1.000000000000000000 ) ) ;
#204 = ORIENTED_EDGE ( 'NONE', *, *, #129, .F. ) ;
#205 = CIRCLE ( 'NONE', #313, 0.6999999999999992895 ) ;
#206 = ORIENTED_EDGE ( 'NONE', *, *, #83, .T. ) ;
#207 = ORIENTED_EDGE ( 'NONE', *, *, #24, .F. ) ;
#208 = VECTOR ( 'NONE', #48, 1000.000000000000000 ) ;
#209 = ORGANIZATION ( 'NEURÈENÝ', 'NEURÈENÝ', '' ) ;
#210 = VERTEX_POINT ( 'NONE', #318 ) ;
#211 =( LENGTH_UNIT ( ) NAMED_UNIT ( * ) SI_UNIT ( .MILLI., .METRE. ) );
#212 = ORIENTED_EDGE ( 'NONE', *, *, #169, .F. ) ;
#213 = DIRECTION ( 'NONE',  ( 0.000000000000000000, 0.000000000000000000, -1.000000000000000000 ) ) ;
#214 = DIRECTION ( 'NONE',  ( 1.000000000000000000, 0.000000000000000000, 0.000000000000000000 ) ) ;
#215 = DIRECTION ( 'NONE',  ( -1.000000000000000000, 0.000000000000000000, 0.000000000000000000 ) ) ;
#216 = CARTESIAN_POINT ( 'NONE',  ( -8.699999999999999289, 1.065442715258197248E-15, 7.000000000000006217 ) ) ;
#217 = DIRECTION ( 'NONE',  ( 1.000000000000000000, 0.000000000000000000, 0.000000000000000000 ) ) ;
#218 = CARTESIAN_POINT ( 'NONE',  ( 11.00000000000000000, 1.347111479062088405E-15, 0.000000000000000000 ) ) ;
#219 = DIRECTION ( 'NONE',  ( -0.000000000000000000, -0.000000000000000000, -1.000000000000000000 ) ) ;
#220 = AXIS2_PLACEMENT_3D ( 'NONE', #308, #49, #214 ) ;
#221 = CYLINDRICAL_SURFACE ( 'NONE', #196, 8.000000000000000000 ) ;
#222 = SECURITY_CLASSIFICATION ( '', '', #108 ) ;
#223 = CALENDAR_DATE ( 2022, 8, 7 ) ;
#224 = CARTESIAN_POINT ( 'NONE',  ( -6.000000000000000888, 0.000000000000000000, 207.0000000000000284 ) ) ;
#225 = CYLINDRICAL_SURFACE ( 'NONE', #110, 8.000000000000000000 ) ;
#226 = COORDINATED_UNIVERSAL_TIME_OFFSET ( 1, 0, .AHEAD. ) ;
#227 = AXIS2_PLACEMENT_3D ( 'NONE', #132, #187, #306 ) ;
#228 = APPROVAL_PERSON_ORGANIZATION ( #80, #233, #285 ) ;
#229 = PERSON_AND_ORGANIZATION ( #248, #209 ) ;
#230 = APPLICATION_PROTOCOL_DEFINITION ( 'international standard', 'config_control_design', 1994, #299 ) ;
#231 = EDGE_CURVE ( 'NONE', #292, #89, #266, .T. ) ;
#232 = EDGE_LOOP ( 'NONE', ( #147, #376 ) ) ;
#233 = APPROVAL ( #373, 'NEURÈENÝ' ) ;
#234 = AXIS2_PLACEMENT_3D ( 'NONE', #46, #42, #44 ) ;
#235 = VERTEX_POINT ( 'NONE', #22 ) ;
#236 = ORIENTED_EDGE ( 'NONE', *, *, #179, .F. ) ;
#237 = ADVANCED_BREP_SHAPE_REPRESENTATION ( '8864', ( #193, #146 ), #63 ) ;
#238 = CC_DESIGN_PERSON_AND_ORGANIZATION_ASSIGNMENT ( #315, #58, ( #304 ) ) ;
#239 = FACE_OUTER_BOUND ( 'NONE', #264, .T. ) ;
#240 = VECTOR ( 'NONE', #14, 1000.000000000000000 ) ;
#241 = CARTESIAN_POINT ( 'NONE',  ( 0.000000000000000000, 0.000000000000000000, 7.000000000000000000 ) ) ;
#242 = EDGE_CURVE ( 'NONE', #210, #330, #145, .T. ) ;
#243 = CARTESIAN_POINT ( 'NONE',  ( 0.000000000000000000, 0.000000000000000000, 7.700000000000012612 ) ) ;
#244 = ADVANCED_FACE ( 'NONE', ( #139 ), #225, .T. ) ;
#245 = VECTOR ( 'NONE', #72, 1000.000000000000000 ) ;
#246 = CC_DESIGN_APPROVAL ( #335, ( #304 ) ) ;
#247 = CARTESIAN_POINT ( 'NONE',  ( -11.00000000000000000, 0.000000000000000000, 0.000000000000000000 ) ) ;
#248 = PERSON ( 'NEURÈENÝ', 'NEURÈENÝ', 'NEURÈENÝ', ('NEURÈENÝ'), ('NEURÈENÝ'), ('NEURÈENÝ') ) ;
#249 = CARTESIAN_POINT ( 'NONE',  ( 0.000000000000000000, 0.000000000000000000, 207.0000000000000284 ) ) ;
#250 = DIRECTION ( 'NONE',  ( 1.000000000000000000, 0.000000000000000000, -0.000000000000000000 ) ) ;
#251 = DIRECTION ( 'NONE',  ( 1.000000000000000000, 0.000000000000000000, 0.000000000000000000 ) ) ;
#252 = DIRECTION ( 'NONE',  ( 0.000000000000000000, 0.000000000000000000, 1.000000000000000000 ) ) ;
#253 = CC_DESIGN_APPROVAL ( #377, ( #64 ) ) ;
#254 = APPROVAL_DATE_TIME ( #56, #335 ) ;
#255 = CARTESIAN_POINT ( 'NONE',  ( 8.699999999999999289, 0.000000000000000000, 7.700000000000012612 ) ) ;
#256 = ADVANCED_FACE ( 'NONE', ( #201 ), #57, .T. ) ;
#257 = DATE_AND_TIME ( #375, #9 ) ;
#258 = PLANE ( 'NONE',  #275 ) ;
#259 = DIRECTION ( 'NONE',  ( -0.000000000000000000, -0.000000000000000000, -1.000000000000000000 ) ) ;
#260 = TOROIDAL_SURFACE ( 'NONE', #86, 8.699999999999999289, 0.6999999999999999556 ) ;
#261 = ORIENTED_EDGE ( 'NONE', *, *, #309, .F. ) ;
#262 = ADVANCED_FACE ( 'NONE', ( #38, #95 ), #157, .T. ) ;
#263 = DIRECTION ( 'NONE',  ( -0.000000000000000000, -0.000000000000000000, -1.000000000000000000 ) ) ;
#264 = EDGE_LOOP ( 'NONE', ( #94, #348 ) ) ;
#265 = DIRECTION ( 'NONE',  ( 0.000000000000000000, 0.000000000000000000, 1.000000000000000000 ) ) ;
#266 = CIRCLE ( 'NONE', #91, 8.000000000000000000 ) ;
#267 = VERTEX_POINT ( 'NONE', #126 ) ;
#268 = ORIENTED_EDGE ( 'NONE', *, *, #370, .T. ) ;
#269 = ORIENTED_EDGE ( 'NONE', *, *, #121, .T. ) ;
#270 = AXIS2_PLACEMENT_3D ( 'NONE', #159, #100, #98 ) ;
#271 = DESIGN_CONTEXT ( 'detailed design', #365, 'design' ) ;
#272 = DIRECTION ( 'NONE',  ( -1.000000000000000000, 0.000000000000000000, 0.000000000000000000 ) ) ;
#273 = EDGE_CURVE ( 'NONE', #124, #235, #188, .T. ) ;
#274 = DIRECTION ( 'NONE',  ( -0.000000000000000000, -0.000000000000000000, -1.000000000000000000 ) ) ;
#275 = AXIS2_PLACEMENT_3D ( 'NONE', #106, #25, #112 ) ;
#276 = CIRCLE ( 'NONE', #173, 6.000000000000000888 ) ;
#277 = DIRECTION ( 'NONE',  ( 1.000000000000000000, 0.000000000000000000, 0.000000000000000000 ) ) ;
#278 = CARTESIAN_POINT ( 'NONE',  ( -6.000000000000000888, 0.000000000000000000, 207.0000000000000284 ) ) ;
#279 = DIRECTION ( 'NONE',  ( -0.000000000000000000, -0.000000000000000000, -1.000000000000000000 ) ) ;
#280 = COORDINATED_UNIVERSAL_TIME_OFFSET ( 1, 0, .AHEAD. ) ;
#281 = CIRCLE ( 'NONE', #227, 6.000000000000000888 ) ;
#282 = APPROVAL_PERSON_ORGANIZATION ( #320, #335, #349 ) ;
#283 = ORIENTED_EDGE ( 'NONE', *, *, #24, .T. ) ;
#284 = EDGE_LOOP ( 'NONE', ( #168, #148 ) ) ;
#285 = APPROVAL_ROLE ( '' ) ;
#286 = CARTESIAN_POINT ( 'NONE',  ( 0.000000000000000000, 0.000000000000000000, 7.000000000000000000 ) ) ;
#287 = VECTOR ( 'NONE', #328, 1000.000000000000000 ) ;
#288 = EDGE_CURVE ( 'NONE', #290, #210, #303, .T. ) ;
#289 = ORIENTED_EDGE ( 'NONE', *, *, #185, .F. ) ;
#290 = VERTEX_POINT ( 'NONE', #186 ) ;
#291 = CIRCLE ( 'NONE', #115, 8.000000000000000000 ) ;
#292 = VERTEX_POINT ( 'NONE', #131 ) ;
#293 = ORIENTED_EDGE ( 'NONE', *, *, #337, .T. ) ;
#294 = CC_DESIGN_PERSON_AND_ORGANIZATION_ASSIGNMENT ( #229, #174, ( #64 ) ) ;
#295 = DIRECTION ( 'NONE',  ( 1.000000000000000000, 0.000000000000000000, 0.000000000000000000 ) ) ;
#296 = AXIS2_PLACEMENT_3D ( 'NONE', #255, #109, #374 ) ;
#297 = LINE ( 'NONE', #103, #240 ) ;
#298 =( NAMED_UNIT ( * ) SI_UNIT ( $, .STERADIAN. ) SOLID_ANGLE_UNIT ( ) );
#299 = APPLICATION_CONTEXT ( 'configuration controlled 3d designs of mechanical parts and assemblies' ) ;
#300 = CARTESIAN_POINT ( 'NONE',  ( 6.000000000000000888, 7.347880794884119736E-16, 207.0000000000000284 ) ) ;
#301 = CYLINDRICAL_SURFACE ( 'NONE', #270, 6.000000000000000888 ) ;
#302 = EDGE_CURVE ( 'NONE', #61, #235, #276, .T. ) ;
#303 = CIRCLE ( 'NONE', #141, 8.000000000000000000 ) ;
#304 = PRODUCT_DEFINITION_FORMATION_WITH_SPECIFIED_SOURCE ( 'LIBOVOLNÝ', '', #156, .NOT_KNOWN. ) ;
#305 = CARTESIAN_POINT ( 'NONE',  ( 0.000000000000000000, 0.000000000000000000, 207.0000000000000284 ) ) ;
#306 = DIRECTION ( 'NONE',  ( 1.000000000000000000, 0.000000000000000000, 0.000000000000000000 ) ) ;
#307 = FACE_OUTER_BOUND ( 'NONE', #314, .T. ) ;
#308 = CARTESIAN_POINT ( 'NONE',  ( 0.000000000000000000, 0.000000000000000000, 207.0000000000000284 ) ) ;
#309 = EDGE_CURVE ( 'NONE', #292, #290, #16, .T. ) ;
#310 = CALENDAR_DATE ( 2022, 8, 7 ) ;
#311 = CARTESIAN_POINT ( 'NONE',  ( 0.000000000000000000, 0.000000000000000000, 207.0000000000000284 ) ) ;
#312 = FACE_BOUND ( 'NONE', #143, .T. ) ;
#313 = AXIS2_PLACEMENT_3D ( 'NONE', #75, #334, #71 ) ;
#314 = EDGE_LOOP ( 'NONE', ( #236, #10, #2, #322 ) ) ;
#315 = PERSON_AND_ORGANIZATION ( #248, #209 ) ;
#316 = VERTEX_POINT ( 'NONE', #367 ) ;
#317 = APPROVAL_STATUS ( 'not_yet_approved' ) ;
#318 = CARTESIAN_POINT ( 'NONE',  ( 8.000000000000000000, 9.797174393178825657E-16, 7.700000000000012612 ) ) ;
#319 = EDGE_LOOP ( 'NONE', ( #27, #212, #166, #140 ) ) ;
#320 = PERSON_AND_ORGANIZATION ( #248, #209 ) ;
#321 = CIRCLE ( 'NONE', #127, 11.00000000000000000 ) ;
#322 = ORIENTED_EDGE ( 'NONE', *, *, #185, .T. ) ;
#323 = EDGE_CURVE ( 'NONE', #90, #117, #191, .T. ) ;
#324 = EDGE_LOOP ( 'NONE', ( #381, #206, #35, #261 ) ) ;
#325 = ORIENTED_EDGE ( 'NONE', *, *, #104, .T. ) ;
#326 = ORIENTED_EDGE ( 'NONE', *, *, #370, .F. ) ;
#327 = EDGE_CURVE ( 'NONE', #89, #292, #122, .T. ) ;
#328 = DIRECTION ( 'NONE',  ( -0.000000000000000000, -0.000000000000000000, -1.000000000000000000 ) ) ;
#329 = DIRECTION ( 'NONE',  ( -1.000000000000000000, 0.000000000000000000, 0.000000000000000000 ) ) ;
#330 = VERTEX_POINT ( 'NONE', #338 ) ;
#331 = CIRCLE ( 'NONE', #151, 6.000000000000000888 ) ;
#332 = LOCAL_TIME ( 16, 19, 49.00000000000000000, #54 ) ;
#333 = DIRECTION ( 'NONE',  ( -0.000000000000000000, -0.000000000000000000, -1.000000000000000000 ) ) ;
#334 = DIRECTION ( 'NONE',  ( 1.224646799147353207E-16, 1.000000000000000000, -0.000000000000000000 ) ) ;
#335 = APPROVAL ( #317, 'NEURÈENÝ' ) ;
#336 = DIRECTION ( 'NONE',  ( 1.000000000000000000, 0.000000000000000000, 0.000000000000000000 ) ) ;
#337 = EDGE_CURVE ( 'NONE', #60, #330, #33, .T. ) ;
#338 = CARTESIAN_POINT ( 'NONE',  ( 8.699999999999999289, 0.000000000000000000, 7.000000000000006217 ) ) ;
#339 = CARTESIAN_POINT ( 'NONE',  ( 0.000000000000000000, 0.000000000000000000, 7.700000000000012612 ) ) ;
#340 = AXIS2_PLACEMENT_3D ( 'NONE', #342, #252, #160 ) ;
#341 = CARTESIAN_POINT ( 'NONE',  ( 0.000000000000000000, 0.000000000000000000, 7.700000000000012612 ) ) ;
#342 = CARTESIAN_POINT ( 'NONE',  ( 0.000000000000000000, 0.000000000000000000, 7.000000000000000000 ) ) ;
#343 = CC_DESIGN_PERSON_AND_ORGANIZATION_ASSIGNMENT ( #170, #344, ( #304 ) ) ;
#344 = PERSON_AND_ORGANIZATION_ROLE ( 'design_supplier' ) ;
#345 = DIRECTION ( 'NONE',  ( 0.000000000000000000, 0.000000000000000000, 1.000000000000000000 ) ) ;
#346 = CARTESIAN_POINT ( 'NONE',  ( 0.000000000000000000, 0.000000000000000000, 207.0000000000000284 ) ) ;
#347 = DATE_TIME_ROLE ( 'classification_date' ) ;
#348 = ORIENTED_EDGE ( 'NONE', *, *, #104, .F. ) ;
#349 = APPROVAL_ROLE ( '' ) ;
#350 = ADVANCED_FACE ( 'NONE', ( #307 ), #153, .F. ) ;
#351 = APPROVAL_STATUS ( 'not_yet_approved' ) ;
#352 = ADVANCED_FACE ( 'NONE', ( #360 ), #20, .F. ) ;
#353 = EDGE_LOOP ( 'NONE', ( #119, #171, #34, #113 ) ) ;
#354 = ORIENTED_EDGE ( 'NONE', *, *, #179, .T. ) ;
#355 = VECTOR ( 'NONE', #194, 1000.000000000000000 ) ;
#356 = PRODUCT_DEFINITION_SHAPE ( 'NONE', 'NONE',  #64 ) ;
#357 = ORIENTED_EDGE ( 'NONE', *, *, #85, .T. ) ;
#358 = CARTESIAN_POINT ( 'NONE',  ( -8.000000000000000000, 0.000000000000000000, 207.0000000000000284 ) ) ;
#359 = ORIENTED_EDGE ( 'NONE', *, *, #337, .F. ) ;
#360 = FACE_OUTER_BOUND ( 'NONE', #62, .T. ) ;
#361 = CARTESIAN_POINT ( 'NONE',  ( 8.000000000000000000, 9.797174393178825657E-16, 207.0000000000000284 ) ) ;
#362 = AXIS2_PLACEMENT_3D ( 'NONE', #241, #180, #295 ) ;
#363 = AXIS2_PLACEMENT_3D ( 'NONE', #128, #333, #272 ) ;
#364 = LOCAL_TIME ( 16, 19, 49.00000000000000000, #226 ) ;
#365 = APPLICATION_CONTEXT ( 'configuration controlled 3d designs of mechanical parts and assemblies' ) ;
#366 = DIRECTION ( 'NONE',  ( 0.000000000000000000, 0.000000000000000000, 1.000000000000000000 ) ) ;
#367 = CARTESIAN_POINT ( 'NONE',  ( 6.000000000000000888, 7.347880794884119736E-16, 207.0000000000000284 ) ) ;
#368 = CARTESIAN_POINT ( 'NONE',  ( 0.000000000000000000, 0.000000000000000000, 207.0000000000000284 ) ) ;
#369 = CARTESIAN_POINT ( 'NONE',  ( -11.00000000000000000, 0.000000000000000000, 7.000000000000000000 ) ) ;
#370 = EDGE_CURVE ( 'NONE', #290, #60, #205, .T. ) ;
#371 = APPROVAL_DATE_TIME ( #257, #377 ) ;
#372 = FACE_OUTER_BOUND ( 'NONE', #7, .T. ) ;
#373 = APPROVAL_STATUS ( 'not_yet_approved' ) ;
#374 = DIRECTION ( 'NONE',  ( 0.000000000000000000, 0.000000000000000000, -1.000000000000000000 ) ) ;
#375 = CALENDAR_DATE ( 2022, 8, 7 ) ;
#376 = ORIENTED_EDGE ( 'NONE', *, *, #152, .F. ) ;
#377 = APPROVAL ( #351, 'NEURÈENÝ' ) ;
#378 = AXIS2_PLACEMENT_3D ( 'NONE', #368, #43, #250 ) ;
#379 = APPROVAL_ROLE ( '' ) ;
#380 = AXIS2_PLACEMENT_3D ( 'NONE', #341, #366, #184 ) ;
#381 = ORIENTED_EDGE ( 'NONE', *, *, #327, .F. ) ;
ENDSEC;
END-ISO-10303-21;
