ISO-10303-21;
HEADER;
FILE_DESCRIPTION (( 'STEP AP203' ),
    '1' );
FILE_NAME ('99c2.STEP',
    '2022-07-08T15:44:01',
    ( '' ),
    ( '' ),
    'SwSTEP 2.0',
    'SolidWorks 2019',
    '' );
FILE_SCHEMA (( 'CONFIG_CONTROL_DESIGN' ));
ENDSEC;

DATA;
#1 = ADVANCED_FACE ( 'NONE', ( #166, #376 ), #139, .T. ) ;
#2 = LOCAL_TIME ( 17, 44, 1.000000000000000000, #113 ) ;
#3 = PERSON_AND_ORGANIZATION ( #192, #291 ) ;
#4 = ORIENTED_EDGE ( 'NONE', *, *, #214, .T. ) ;
#5 = APPROVAL_DATE_TIME ( #38, #23 ) ;
#6 = CIRCLE ( 'NONE', #380, 5.000000000000000000 ) ;
#7 = ORIENTED_EDGE ( 'NONE', *, *, #64, .F. ) ;
#8 = VERTEX_POINT ( 'NONE', #279 ) ;
#9 = CC_DESIGN_DATE_AND_TIME_ASSIGNMENT ( #346, #204, ( #350 ) ) ;
#10 = DIRECTION ( 'NONE',  ( 0.000000000000000000, 0.000000000000000000, 1.000000000000000000 ) ) ;
#11 = DIRECTION ( 'NONE',  ( -0.000000000000000000, -0.000000000000000000, -1.000000000000000000 ) ) ;
#12 = TOROIDAL_SURFACE ( 'NONE', #318, 2.799999999999999822, 0.2999999999999999889 ) ;
#13 = EDGE_LOOP ( 'NONE', ( #216, #102 ) ) ;
#14 = ADVANCED_FACE ( 'NONE', ( #281, #112 ), #367, .F. ) ;
#15 = CARTESIAN_POINT ( 'NONE',  ( 0.000000000000000000, 0.000000000000000000, 3.000000000000000000 ) ) ;
#16 = ORIENTED_EDGE ( 'NONE', *, *, #247, .T. ) ;
#17 = CARTESIAN_POINT ( 'NONE',  ( 5.000000000000000000, 6.123233995736766282E-16, 3.000000000000000000 ) ) ;
#18 = DIRECTION ( 'NONE',  ( 0.000000000000000000, 0.000000000000000000, -1.000000000000000000 ) ) ;
#19 = DIRECTION ( 'NONE',  ( -0.000000000000000000, -0.000000000000000000, -1.000000000000000000 ) ) ;
#20 = AXIS2_PLACEMENT_3D ( 'NONE', #199, #133, #221 ) ;
#21 = APPROVAL_PERSON_ORGANIZATION ( #3, #23, #330 ) ;
#22 = FACE_OUTER_BOUND ( 'NONE', #361, .T. ) ;
#23 = APPROVAL ( #182, 'NEURÈENÝ' ) ;
#24 = DIRECTION ( 'NONE',  ( -0.000000000000000000, -0.000000000000000000, -1.000000000000000000 ) ) ;
#25 = APPROVAL_ROLE ( '' ) ;
#26 = DIRECTION ( 'NONE',  ( 0.000000000000000000, 0.000000000000000000, -1.000000000000000000 ) ) ;
#27 = AXIS2_PLACEMENT_3D ( 'NONE', #333, #75, #193 ) ;
#28 = DIRECTION ( 'NONE',  ( 1.000000000000000000, 0.000000000000000000, 0.000000000000000000 ) ) ;
#29 = CC_DESIGN_DATE_AND_TIME_ASSIGNMENT ( #91, #325, ( #211 ) ) ;
#30 =( NAMED_UNIT ( * ) SI_UNIT ( $, .STERADIAN. ) SOLID_ANGLE_UNIT ( ) );
#31 = DIRECTION ( 'NONE',  ( 0.000000000000000000, 0.000000000000000000, -1.000000000000000000 ) ) ;
#32 = PERSON_AND_ORGANIZATION ( #192, #291 ) ;
#33 = VERTEX_POINT ( 'NONE', #49 ) ;
#34 = ORIENTED_EDGE ( 'NONE', *, *, #164, .T. ) ;
#35 = EDGE_CURVE ( 'NONE', #142, #331, #73, .T. ) ;
#36 = ADVANCED_BREP_SHAPE_REPRESENTATION ( '99c2', ( #371, #80 ), #40 ) ;
#37 = EDGE_LOOP ( 'NONE', ( #242, #132 ) ) ;
#38 = DATE_AND_TIME ( #270, #236 ) ;
#39 = ORIENTED_EDGE ( 'NONE', *, *, #365, .T. ) ;
#40 =( GEOMETRIC_REPRESENTATION_CONTEXT ( 3 ) GLOBAL_UNCERTAINTY_ASSIGNED_CONTEXT ( ( #186 ) ) GLOBAL_UNIT_ASSIGNED_CONTEXT ( ( #238, #151, #30 ) ) REPRESENTATION_CONTEXT ( 'NONE', 'WORKASPACE' ) );
#41 = AXIS2_PLACEMENT_3D ( 'NONE', #347, #368, #307 ) ;
#42 = CARTESIAN_POINT ( 'NONE',  ( 0.000000000000000000, 0.000000000000000000, 403.0000000000000000 ) ) ;
#43 = CARTESIAN_POINT ( 'NONE',  ( 0.000000000000000000, 0.000000000000000000, 403.0000000000000000 ) ) ;
#44 = FACE_OUTER_BOUND ( 'NONE', #93, .T. ) ;
#45 = DIRECTION ( 'NONE',  ( 1.000000000000000000, 0.000000000000000000, 0.000000000000000000 ) ) ;
#46 = EDGE_CURVE ( 'NONE', #276, #212, #337, .T. ) ;
#47 = FACE_OUTER_BOUND ( 'NONE', #69, .T. ) ;
#48 = CIRCLE ( 'NONE', #122, 5.000000000000000000 ) ;
#49 = CARTESIAN_POINT ( 'NONE',  ( 5.000000000000000000, 6.123233995736766282E-16, 0.000000000000000000 ) ) ;
#50 = LINE ( 'NONE', #223, #241 ) ;
#51 = ORIENTED_EDGE ( 'NONE', *, *, #282, .F. ) ;
#52 = CARTESIAN_POINT ( 'NONE',  ( 1.500000000000000222, 1.836970198721030181E-16, 0.000000000000000000 ) ) ;
#53 = DIRECTION ( 'NONE',  ( 1.224646799147353207E-16, 1.000000000000000000, -0.000000000000000000 ) ) ;
#54 = CIRCLE ( 'NONE', #146, 2.799999999999999822 ) ;
#55 = CARTESIAN_POINT ( 'NONE',  ( -2.500000000000000000, 0.000000000000000000, 403.0000000000000000 ) ) ;
#56 = LOCAL_TIME ( 17, 44, 1.000000000000000000, #264 ) ;
#57 = CARTESIAN_POINT ( 'NONE',  ( -2.500000000000000000, 0.000000000000000000, 3.300000000000025135 ) ) ;
#58 = DIRECTION ( 'NONE',  ( 0.000000000000000000, 0.000000000000000000, 1.000000000000000000 ) ) ;
#59 = DIRECTION ( 'NONE',  ( 0.000000000000000000, -1.000000000000000000, 0.000000000000000000 ) ) ;
#60 = DIRECTION ( 'NONE',  ( 1.000000000000000000, 0.000000000000000000, 0.000000000000000000 ) ) ;
#61 = CARTESIAN_POINT ( 'NONE',  ( 0.000000000000000000, 0.000000000000000000, 403.0000000000000000 ) ) ;
#62 = VECTOR ( 'NONE', #261, 1000.000000000000000 ) ;
#63 = SHAPE_DEFINITION_REPRESENTATION ( #169, #36 ) ;
#64 = EDGE_CURVE ( 'NONE', #331, #98, #121, .T. ) ;
#65 = ORIENTED_EDGE ( 'NONE', *, *, #239, .F. ) ;
#66 = APPROVAL_PERSON_ORGANIZATION ( #203, #95, #25 ) ;
#67 = APPROVAL_DATE_TIME ( #185, #287 ) ;
#68 = ORIENTED_EDGE ( 'NONE', *, *, #116, .T. ) ;
#69 = EDGE_LOOP ( 'NONE', ( #65, #245, #341, #229 ) ) ;
#70 = EDGE_CURVE ( 'NONE', #202, #33, #168, .T. ) ;
#71 = CALENDAR_DATE ( 2022, 8, 7 ) ;
#72 = EDGE_LOOP ( 'NONE', ( #107, #356 ) ) ;
#73 = CIRCLE ( 'NONE', #280, 2.500000000000000000 ) ;
#74 = TOROIDAL_SURFACE ( 'NONE', #160, 2.799999999999999822, 0.2999999999999999889 ) ;
#75 = DIRECTION ( 'NONE',  ( -0.000000000000000000, -0.000000000000000000, -1.000000000000000000 ) ) ;
#76 = DIRECTION ( 'NONE',  ( -1.000000000000000000, 0.000000000000000000, 0.000000000000000000 ) ) ;
#77 = CARTESIAN_POINT ( 'NONE',  ( 2.500000000000000000, 3.061616997868383141E-16, 403.0000000000000000 ) ) ;
#78 = DIRECTION ( 'NONE',  ( 0.000000000000000000, 0.000000000000000000, 1.000000000000000000 ) ) ;
#79 = ORIENTED_EDGE ( 'NONE', *, *, #70, .F. ) ;
#80 = AXIS2_PLACEMENT_3D ( 'NONE', #321, #58, #60 ) ;
#81 = ORIENTED_EDGE ( 'NONE', *, *, #170, .T. ) ;
#82 = CYLINDRICAL_SURFACE ( 'NONE', #27, 5.000000000000000000 ) ;
#83 = ORIENTED_EDGE ( 'NONE', *, *, #178, .T. ) ;
#84 = CARTESIAN_POINT ( 'NONE',  ( -5.000000000000000000, 0.000000000000000000, 0.000000000000000000 ) ) ;
#85 = DIRECTION ( 'NONE',  ( 0.000000000000000000, 0.000000000000000000, 1.000000000000000000 ) ) ;
#86 = DIRECTION ( 'NONE',  ( 0.000000000000000000, 0.000000000000000000, -1.000000000000000000 ) ) ;
#87 = EDGE_CURVE ( 'NONE', #105, #271, #248, .T. ) ;
#88 = DIRECTION ( 'NONE',  ( 0.000000000000000000, 0.000000000000000000, 1.000000000000000000 ) ) ;
#89 = FACE_OUTER_BOUND ( 'NONE', #188, .T. ) ;
#90 = AXIS2_PLACEMENT_3D ( 'NONE', #61, #26, #149 ) ;
#91 = DATE_AND_TIME ( #155, #109 ) ;
#92 = CC_DESIGN_PERSON_AND_ORGANIZATION_ASSIGNMENT ( #176, #288, ( #350 ) ) ;
#93 = EDGE_LOOP ( 'NONE', ( #7, #219, #339, #334 ) ) ;
#94 = CIRCLE ( 'NONE', #150, 5.000000000000000000 ) ;
#95 = APPROVAL ( #240, 'NEURÈENÝ' ) ;
#96 = VERTEX_POINT ( 'NONE', #163 ) ;
#97 = DIRECTION ( 'NONE',  ( -0.000000000000000000, -0.000000000000000000, -1.000000000000000000 ) ) ;
#98 = VERTEX_POINT ( 'NONE', #343 ) ;
#99 = AXIS2_PLACEMENT_3D ( 'NONE', #210, #266, #320 ) ;
#100 = CC_DESIGN_APPROVAL ( #95, ( #350 ) ) ;
#101 = DIRECTION ( 'NONE',  ( 1.000000000000000000, 0.000000000000000000, 0.000000000000000000 ) ) ;
#102 = ORIENTED_EDGE ( 'NONE', *, *, #87, .T. ) ;
#103 = CARTESIAN_POINT ( 'NONE',  ( 0.000000000000000000, 0.000000000000000000, 3.000000000000000000 ) ) ;
#104 = EDGE_CURVE ( 'NONE', #98, #8, #54, .T. ) ;
#105 = VERTEX_POINT ( 'NONE', #77 ) ;
#106 = CYLINDRICAL_SURFACE ( 'NONE', #359, 5.000000000000000000 ) ;
#107 = ORIENTED_EDGE ( 'NONE', *, *, #178, .F. ) ;
#108 = DIRECTION ( 'NONE',  ( 1.000000000000000000, 0.000000000000000000, 0.000000000000000000 ) ) ;
#109 = LOCAL_TIME ( 17, 44, 1.000000000000000000, #124 ) ;
#110 = CC_DESIGN_PERSON_AND_ORGANIZATION_ASSIGNMENT ( #213, #128, ( #184 ) ) ;
#111 = APPLICATION_PROTOCOL_DEFINITION ( 'international standard', 'config_control_design', 1994, #267 ) ;
#112 = FACE_OUTER_BOUND ( 'NONE', #72, .T. ) ;
#113 = COORDINATED_UNIVERSAL_TIME_OFFSET ( 1, 0, .AHEAD. ) ;
#114 = FACE_OUTER_BOUND ( 'NONE', #328, .T. ) ;
#115 = AXIS2_PLACEMENT_3D ( 'NONE', #308, #253, #314 ) ;
#116 = EDGE_CURVE ( 'NONE', #156, #363, #306, .T. ) ;
#117 = CYLINDRICAL_SURFACE ( 'NONE', #90, 1.500000000000000222 ) ;
#118 = CIRCLE ( 'NONE', #263, 2.500000000000000000 ) ;
#119 = PLANE ( 'NONE',  #250 ) ;
#120 = APPLICATION_PROTOCOL_DEFINITION ( 'international standard', 'config_control_design', 1994, #226 ) ;
#121 = CIRCLE ( 'NONE', #332, 0.2999999999999999334 ) ;
#122 = AXIS2_PLACEMENT_3D ( 'NONE', #294, #206, #28 ) ;
#123 = EDGE_CURVE ( 'NONE', #271, #105, #358, .T. ) ;
#124 = COORDINATED_UNIVERSAL_TIME_OFFSET ( 1, 0, .AHEAD. ) ;
#125 = ORIENTED_EDGE ( 'NONE', *, *, #87, .F. ) ;
#126 = PERSON_AND_ORGANIZATION ( #192, #291 ) ;
#127 = ORIENTED_EDGE ( 'NONE', *, *, #123, .F. ) ;
#128 = PERSON_AND_ORGANIZATION_ROLE ( 'design_supplier' ) ;
#129 = EDGE_CURVE ( 'NONE', #142, #8, #316, .T. ) ;
#130 = DESIGN_CONTEXT ( 'detailed design', #226, 'design' ) ;
#131 = ORIENTED_EDGE ( 'NONE', *, *, #336, .T. ) ;
#132 = ORIENTED_EDGE ( 'NONE', *, *, #312, .F. ) ;
#133 = DIRECTION ( 'NONE',  ( -0.000000000000000000, -0.000000000000000000, -1.000000000000000000 ) ) ;
#134 = ORIENTED_EDGE ( 'NONE', *, *, #282, .T. ) ;
#135 = ADVANCED_FACE ( 'NONE', ( #22 ), #117, .F. ) ;
#136 = LOCAL_TIME ( 17, 44, 1.000000000000000000, #273 ) ;
#137 = CARTESIAN_POINT ( 'NONE',  ( 2.500000000000000000, 3.061616997868383141E-16, 403.0000000000000000 ) ) ;
#138 = CARTESIAN_POINT ( 'NONE',  ( -2.799999999999999822, 3.429011037612588783E-16, 3.300000000000025135 ) ) ;
#139 = PLANE ( 'NONE',  #115 ) ;
#140 = DIRECTION ( 'NONE',  ( -0.000000000000000000, -0.000000000000000000, -1.000000000000000000 ) ) ;
#141 = CIRCLE ( 'NONE', #323, 1.500000000000000222 ) ;
#142 = VERTEX_POINT ( 'NONE', #144 ) ;
#143 = CYLINDRICAL_SURFACE ( 'NONE', #191, 1.500000000000000222 ) ;
#144 = CARTESIAN_POINT ( 'NONE',  ( 2.500000000000000000, 3.061616997868383141E-16, 3.300000000000025135 ) ) ;
#145 = DIRECTION ( 'NONE',  ( 1.000000000000000000, 0.000000000000000000, 0.000000000000000000 ) ) ;
#146 = AXIS2_PLACEMENT_3D ( 'NONE', #174, #19, #45 ) ;
#147 = ADVANCED_FACE ( 'NONE', ( #260, #378 ), #119, .T. ) ;
#148 = AXIS2_PLACEMENT_3D ( 'NONE', #162, #11, #173 ) ;
#149 = DIRECTION ( 'NONE',  ( -1.000000000000000000, 0.000000000000000000, 0.000000000000000000 ) ) ;
#150 = AXIS2_PLACEMENT_3D ( 'NONE', #366, #369, #171 ) ;
#151 =( NAMED_UNIT ( * ) PLANE_ANGLE_UNIT ( ) SI_UNIT ( $, .RADIAN. ) );
#152 = ORIENTED_EDGE ( 'NONE', *, *, #164, .F. ) ;
#153 = AXIS2_PLACEMENT_3D ( 'NONE', #269, #59, #31 ) ;
#154 = ORIENTED_EDGE ( 'NONE', *, *, #64, .T. ) ;
#155 = CALENDAR_DATE ( 2022, 8, 7 ) ;
#156 = VERTEX_POINT ( 'NONE', #293 ) ;
#157 = ADVANCED_FACE ( 'NONE', ( #114 ), #235, .T. ) ;
#158 = ORIENTED_EDGE ( 'NONE', *, *, #46, .T. ) ;
#159 = ORIENTED_EDGE ( 'NONE', *, *, #239, .T. ) ;
#160 = AXIS2_PLACEMENT_3D ( 'NONE', #218, #196, #310 ) ;
#161 = CIRCLE ( 'NONE', #374, 1.500000000000000222 ) ;
#162 = CARTESIAN_POINT ( 'NONE',  ( 0.000000000000000000, 0.000000000000000000, 403.0000000000000000 ) ) ;
#163 = CARTESIAN_POINT ( 'NONE',  ( -1.500000000000000222, 0.000000000000000000, 403.0000000000000000 ) ) ;
#164 = EDGE_CURVE ( 'NONE', #96, #276, #161, .T. ) ;
#166 = FACE_BOUND ( 'NONE', #246, .T. ) ;
#165 = AXIS2_PLACEMENT_3D ( 'NONE', #43, #255, #231 ) ;
#167 = FACE_OUTER_BOUND ( 'NONE', #224, .T. ) ;
#168 = LINE ( 'NONE', #17, #296 ) ;
#169 = PRODUCT_DEFINITION_SHAPE ( 'NONE', 'NONE',  #350 ) ;
#170 = EDGE_CURVE ( 'NONE', #8, #98, #375, .T. ) ;
#171 = DIRECTION ( 'NONE',  ( 1.000000000000000000, 0.000000000000000000, 0.000000000000000000 ) ) ;
#172 = DIRECTION ( 'NONE',  ( 1.000000000000000000, 0.000000000000000000, 0.000000000000000000 ) ) ;
#173 = DIRECTION ( 'NONE',  ( -1.000000000000000000, 0.000000000000000000, 0.000000000000000000 ) ) ;
#174 = CARTESIAN_POINT ( 'NONE',  ( 0.000000000000000000, 0.000000000000000000, 3.000000000000000000 ) ) ;
#175 = VECTOR ( 'NONE', #317, 1000.000000000000000 ) ;
#176 = PERSON_AND_ORGANIZATION ( #192, #291 ) ;
#177 = EDGE_LOOP ( 'NONE', ( #152, #51 ) ) ;
#178 = EDGE_CURVE ( 'NONE', #363, #33, #301, .T. ) ;
#179 = CC_DESIGN_SECURITY_CLASSIFICATION ( #211, ( #184 ) ) ;
#180 = LINE ( 'NONE', #55, #62 ) ;
#181 = ADVANCED_FACE ( 'NONE', ( #338 ), #283, .T. ) ;
#182 = APPROVAL_STATUS ( 'not_yet_approved' ) ;
#183 = ORIENTED_EDGE ( 'NONE', *, *, #214, .F. ) ;
#184 = PRODUCT_DEFINITION_FORMATION_WITH_SPECIFIED_SOURCE ( 'LIBOVOLNÝ', '', #228, .NOT_KNOWN. ) ;
#185 = DATE_AND_TIME ( #71, #136 ) ;
#186 = UNCERTAINTY_MEASURE_WITH_UNIT (LENGTH_MEASURE( 1.000000000000000082E-05 ), #238, 'distance_accuracy_value', 'NONE');
#187 = SECURITY_CLASSIFICATION_LEVEL ( 'unclassified' ) ;
#188 = EDGE_LOOP ( 'NONE', ( #34, #158, #274, #183 ) ) ;
#189 = ORIENTED_EDGE ( 'NONE', *, *, #104, .T. ) ;
#190 = VECTOR ( 'NONE', #97, 1000.000000000000000 ) ;
#191 = AXIS2_PLACEMENT_3D ( 'NONE', #289, #86, #259 ) ;
#192 = PERSON ( 'NEURÈENÝ', 'NEURÈENÝ', 'NEURÈENÝ', ('NEURÈENÝ'), ('NEURÈENÝ'), ('NEURÈENÝ') ) ;
#193 = DIRECTION ( 'NONE',  ( -1.000000000000000000, 0.000000000000000000, 0.000000000000000000 ) ) ;
#194 = ORIENTED_EDGE ( 'NONE', *, *, #198, .F. ) ;
#195 = CARTESIAN_POINT ( 'NONE',  ( 1.500000000000000222, 1.836970198721030181E-16, 403.0000000000000000 ) ) ;
#196 = DIRECTION ( 'NONE',  ( 0.000000000000000000, 0.000000000000000000, 1.000000000000000000 ) ) ;
#197 = EDGE_LOOP ( 'NONE', ( #79, #302, #68, #83 ) ) ;
#198 = EDGE_CURVE ( 'NONE', #105, #142, #305, .T. ) ;
#199 = CARTESIAN_POINT ( 'NONE',  ( 0.000000000000000000, 0.000000000000000000, 3.000000000000000000 ) ) ;
#200 = CARTESIAN_POINT ( 'NONE',  ( 0.000000000000000000, 0.000000000000000000, 0.000000000000000000 ) ) ;
#201 = DIRECTION ( 'NONE',  ( 0.000000000000000000, 0.000000000000000000, 1.000000000000000000 ) ) ;
#202 = VERTEX_POINT ( 'NONE', #254 ) ;
#203 = PERSON_AND_ORGANIZATION ( #192, #291 ) ;
#204 = DATE_TIME_ROLE ( 'creation_date' ) ;
#205 = ADVANCED_FACE ( 'NONE', ( #47 ), #106, .T. ) ;
#206 = DIRECTION ( 'NONE',  ( 0.000000000000000000, 0.000000000000000000, 1.000000000000000000 ) ) ;
#207 = CARTESIAN_POINT ( 'NONE',  ( 0.000000000000000000, 0.000000000000000000, 403.0000000000000000 ) ) ;
#208 = CC_DESIGN_PERSON_AND_ORGANIZATION_ASSIGNMENT ( #290, #377, ( #228 ) ) ;
#209 = CARTESIAN_POINT ( 'NONE',  ( -1.500000000000000222, 0.000000000000000000, 0.000000000000000000 ) ) ;
#210 = CARTESIAN_POINT ( 'NONE',  ( 0.000000000000000000, 0.000000000000000000, 403.0000000000000000 ) ) ;
#211 = SECURITY_CLASSIFICATION ( '', '', #187 ) ;
#212 = VERTEX_POINT ( 'NONE', #52 ) ;
#213 = PERSON_AND_ORGANIZATION ( #192, #291 ) ;
#214 = EDGE_CURVE ( 'NONE', #96, #298, #50, .T. ) ;
#215 = ORIENTED_EDGE ( 'NONE', *, *, #336, .F. ) ;
#216 = ORIENTED_EDGE ( 'NONE', *, *, #123, .T. ) ;
#217 = ADVANCED_FACE ( 'NONE', ( #44 ), #74, .F. ) ;
#218 = CARTESIAN_POINT ( 'NONE',  ( 0.000000000000000000, 0.000000000000000000, 3.300000000000025135 ) ) ;
#219 = ORIENTED_EDGE ( 'NONE', *, *, #35, .F. ) ;
#220 = APPROVAL_PERSON_ORGANIZATION ( #32, #287, #357 ) ;
#221 = DIRECTION ( 'NONE',  ( 1.000000000000000000, 0.000000000000000000, 0.000000000000000000 ) ) ;
#222 = CARTESIAN_POINT ( 'NONE',  ( 0.000000000000000000, 0.000000000000000000, 3.300000000000025135 ) ) ;
#223 = CARTESIAN_POINT ( 'NONE',  ( -1.500000000000000222, 0.000000000000000000, 403.0000000000000000 ) ) ;
#224 = EDGE_LOOP ( 'NONE', ( #215, #154, #300, #364 ) ) ;
#225 = PRODUCT_RELATED_PRODUCT_CATEGORY ( 'detail', '', ( #228 ) ) ;
#226 = APPLICATION_CONTEXT ( 'configuration controlled 3d designs of mechanical parts and assemblies' ) ;
#227 = DIRECTION ( 'NONE',  ( 0.000000000000000000, 0.000000000000000000, 1.000000000000000000 ) ) ;
#228 = PRODUCT ( '99c2', '99c2', '', ( #268 ) ) ;
#229 = ORIENTED_EDGE ( 'NONE', *, *, #116, .F. ) ;
#230 = DIRECTION ( 'NONE',  ( 1.000000000000000000, 0.000000000000000000, 0.000000000000000000 ) ) ;
#231 = DIRECTION ( 'NONE',  ( 1.000000000000000000, 0.000000000000000000, 0.000000000000000000 ) ) ;
#232 = APPROVAL_DATE_TIME ( #319, #95 ) ;
#233 = DIRECTION ( 'NONE',  ( -1.000000000000000000, 1.224646799147353207E-16, 0.000000000000000000 ) ) ;
#234 = CALENDAR_DATE ( 2022, 8, 7 ) ;
#235 = CYLINDRICAL_SURFACE ( 'NONE', #41, 2.500000000000000000 ) ;
#236 = LOCAL_TIME ( 17, 44, 1.000000000000000000, #324 ) ;
#237 = DIRECTION ( 'NONE',  ( -0.000000000000000000, -0.000000000000000000, -1.000000000000000000 ) ) ;
#238 =( LENGTH_UNIT ( ) NAMED_UNIT ( * ) SI_UNIT ( .MILLI., .METRE. ) );
#239 = EDGE_CURVE ( 'NONE', #202, #156, #6, .T. ) ;
#240 = APPROVAL_STATUS ( 'not_yet_approved' ) ;
#241 = VECTOR ( 'NONE', #18, 1000.000000000000000 ) ;
#242 = ORIENTED_EDGE ( 'NONE', *, *, #299, .F. ) ;
#243 = ORIENTED_EDGE ( 'NONE', *, *, #35, .T. ) ;
#244 = PERSON_AND_ORGANIZATION_ROLE ( 'classification_officer' ) ;
#245 = ORIENTED_EDGE ( 'NONE', *, *, #70, .T. ) ;
#246 = EDGE_LOOP ( 'NONE', ( #81, #189 ) ) ;
#247 = EDGE_CURVE ( 'NONE', #156, #202, #94, .T. ) ;
#248 = CIRCLE ( 'NONE', #165, 2.500000000000000000 ) ;
#249 = DIRECTION ( 'NONE',  ( -0.000000000000000000, -0.000000000000000000, -1.000000000000000000 ) ) ;
#250 = AXIS2_PLACEMENT_3D ( 'NONE', #207, #88, #322 ) ;
#251 = CC_DESIGN_PERSON_AND_ORGANIZATION_ASSIGNMENT ( #126, #362, ( #184 ) ) ;
#252 = EDGE_LOOP ( 'NONE', ( #125, #258, #243, #345 ) ) ;
#253 = DIRECTION ( 'NONE',  ( 0.000000000000000000, 0.000000000000000000, 1.000000000000000000 ) ) ;
#254 = CARTESIAN_POINT ( 'NONE',  ( 5.000000000000000000, 6.123233995736766282E-16, 3.000000000000000000 ) ) ;
#256 = CLOSED_SHELL ( 'NONE', ( #295, #265, #181, #205, #275, #1, #14, #157, #147, #217, #135 ) ) ;
#255 = DIRECTION ( 'NONE',  ( 0.000000000000000000, 0.000000000000000000, 1.000000000000000000 ) ) ;
#257 = DIRECTION ( 'NONE',  ( 0.000000000000000000, 0.000000000000000000, 1.000000000000000000 ) ) ;
#258 = ORIENTED_EDGE ( 'NONE', *, *, #198, .T. ) ;
#259 = DIRECTION ( 'NONE',  ( -1.000000000000000000, 0.000000000000000000, 0.000000000000000000 ) ) ;
#260 = FACE_BOUND ( 'NONE', #177, .T. ) ;
#261 = DIRECTION ( 'NONE',  ( -0.000000000000000000, -0.000000000000000000, -1.000000000000000000 ) ) ;
#262 = CARTESIAN_POINT ( 'NONE',  ( -5.000000000000000000, 0.000000000000000000, 3.000000000000000000 ) ) ;
#263 = AXIS2_PLACEMENT_3D ( 'NONE', #344, #257, #381 ) ;
#264 = COORDINATED_UNIVERSAL_TIME_OFFSET ( 1, 0, .AHEAD. ) ;
#265 = ADVANCED_FACE ( 'NONE', ( #167 ), #12, .F. ) ;
#266 = DIRECTION ( 'NONE',  ( 0.000000000000000000, 0.000000000000000000, 1.000000000000000000 ) ) ;
#267 = APPLICATION_CONTEXT ( 'configuration controlled 3d designs of mechanical parts and assemblies' ) ;
#268 = MECHANICAL_CONTEXT ( 'NONE', #267, 'mechanical' ) ;
#269 = CARTESIAN_POINT ( 'NONE',  ( 2.799999999999999822, 0.000000000000000000, 3.300000000000025135 ) ) ;
#270 = CALENDAR_DATE ( 2022, 8, 7 ) ;
#271 = VERTEX_POINT ( 'NONE', #340 ) ;
#272 = ORIENTED_EDGE ( 'NONE', *, *, #46, .F. ) ;
#273 = COORDINATED_UNIVERSAL_TIME_OFFSET ( 1, 0, .AHEAD. ) ;
#274 = ORIENTED_EDGE ( 'NONE', *, *, #312, .T. ) ;
#275 = ADVANCED_FACE ( 'NONE', ( #342 ), #82, .T. ) ;
#276 = VERTEX_POINT ( 'NONE', #195 ) ;
#277 = CIRCLE ( 'NONE', #309, 1.500000000000000222 ) ;
#278 = DIRECTION ( 'NONE',  ( 1.000000000000000000, 0.000000000000000000, 0.000000000000000000 ) ) ;
#279 = CARTESIAN_POINT ( 'NONE',  ( 2.799999999999999822, 0.000000000000000000, 3.000000000000012434 ) ) ;
#280 = AXIS2_PLACEMENT_3D ( 'NONE', #222, #304, #172 ) ;
#281 = FACE_BOUND ( 'NONE', #37, .T. ) ;
#282 = EDGE_CURVE ( 'NONE', #276, #96, #277, .T. ) ;
#283 = CYLINDRICAL_SURFACE ( 'NONE', #148, 2.500000000000000000 ) ;
#284 = CARTESIAN_POINT ( 'NONE',  ( 0.000000000000000000, 0.000000000000000000, 3.300000000000025135 ) ) ;
#285 = CARTESIAN_POINT ( 'NONE',  ( 1.500000000000000222, 1.836970198721030181E-16, 403.0000000000000000 ) ) ;
#286 = VECTOR ( 'NONE', #373, 1000.000000000000000 ) ;
#287 = APPROVAL ( #355, 'NEURÈENÝ' ) ;
#288 = PERSON_AND_ORGANIZATION_ROLE ( 'creator' ) ;
#289 = CARTESIAN_POINT ( 'NONE',  ( 0.000000000000000000, 0.000000000000000000, 403.0000000000000000 ) ) ;
#290 = PERSON_AND_ORGANIZATION ( #192, #291 ) ;
#291 = ORGANIZATION ( 'NEURÈENÝ', 'NEURÈENÝ', '' ) ;
#292 = DIRECTION ( 'NONE',  ( 1.000000000000000000, 0.000000000000000000, 0.000000000000000000 ) ) ;
#293 = CARTESIAN_POINT ( 'NONE',  ( -5.000000000000000000, 0.000000000000000000, 3.000000000000000000 ) ) ;
#294 = CARTESIAN_POINT ( 'NONE',  ( 0.000000000000000000, 0.000000000000000000, 0.000000000000000000 ) ) ;
#295 = ADVANCED_FACE ( 'NONE', ( #89 ), #143, .F. ) ;
#296 = VECTOR ( 'NONE', #140, 1000.000000000000000 ) ;
#297 = PERSON_AND_ORGANIZATION ( #192, #291 ) ;
#298 = VERTEX_POINT ( 'NONE', #209 ) ;
#299 = EDGE_CURVE ( 'NONE', #298, #212, #360, .T. ) ;
#300 = ORIENTED_EDGE ( 'NONE', *, *, #170, .F. ) ;
#301 = CIRCLE ( 'NONE', #353, 5.000000000000000000 ) ;
#302 = ORIENTED_EDGE ( 'NONE', *, *, #247, .F. ) ;
#303 = CARTESIAN_POINT ( 'NONE',  ( 0.000000000000000000, 0.000000000000000000, 403.0000000000000000 ) ) ;
#304 = DIRECTION ( 'NONE',  ( 0.000000000000000000, 0.000000000000000000, 1.000000000000000000 ) ) ;
#305 = LINE ( 'NONE', #137, #190 ) ;
#306 = LINE ( 'NONE', #262, #175 ) ;
#307 = DIRECTION ( 'NONE',  ( -1.000000000000000000, 0.000000000000000000, 0.000000000000000000 ) ) ;
#308 = CARTESIAN_POINT ( 'NONE',  ( 0.000000000000000000, 0.000000000000000000, 3.000000000000000000 ) ) ;
#309 = AXIS2_PLACEMENT_3D ( 'NONE', #303, #10, #101 ) ;
#310 = DIRECTION ( 'NONE',  ( 1.000000000000000000, 0.000000000000000000, 0.000000000000000000 ) ) ;
#311 = DIRECTION ( 'NONE',  ( 1.000000000000000000, 0.000000000000000000, -0.000000000000000000 ) ) ;
#312 = EDGE_CURVE ( 'NONE', #212, #298, #141, .T. ) ;
#313 = DIRECTION ( 'NONE',  ( 1.000000000000000000, 0.000000000000000000, 0.000000000000000000 ) ) ;
#314 = DIRECTION ( 'NONE',  ( 1.000000000000000000, 0.000000000000000000, -0.000000000000000000 ) ) ;
#315 = CARTESIAN_POINT ( 'NONE',  ( 0.000000000000000000, 0.000000000000000000, 0.000000000000000000 ) ) ;
#317 = DIRECTION ( 'NONE',  ( -0.000000000000000000, -0.000000000000000000, -1.000000000000000000 ) ) ;
#316 = CIRCLE ( 'NONE', #153, 0.2999999999999999334 ) ;
#318 = AXIS2_PLACEMENT_3D ( 'NONE', #284, #227, #230 ) ;
#319 = DATE_AND_TIME ( #351, #56 ) ;
#320 = DIRECTION ( 'NONE',  ( 1.000000000000000000, 0.000000000000000000, 0.000000000000000000 ) ) ;
#321 = CARTESIAN_POINT ( 'NONE',  ( 0.000000000000000000, 0.000000000000000000, 0.000000000000000000 ) ) ;
#322 = DIRECTION ( 'NONE',  ( 1.000000000000000000, 0.000000000000000000, -0.000000000000000000 ) ) ;
#323 = AXIS2_PLACEMENT_3D ( 'NONE', #349, #24, #292 ) ;
#324 = COORDINATED_UNIVERSAL_TIME_OFFSET ( 1, 0, .AHEAD. ) ;
#325 = DATE_TIME_ROLE ( 'classification_date' ) ;
#326 = ORIENTED_EDGE ( 'NONE', *, *, #299, .T. ) ;
#327 = CC_DESIGN_APPROVAL ( #287, ( #211 ) ) ;
#328 = EDGE_LOOP ( 'NONE', ( #194, #127, #39, #131 ) ) ;
#329 = EDGE_LOOP ( 'NONE', ( #16, #159 ) ) ;
#330 = APPROVAL_ROLE ( '' ) ;
#331 = VERTEX_POINT ( 'NONE', #57 ) ;
#332 = AXIS2_PLACEMENT_3D ( 'NONE', #138, #53, #233 ) ;
#333 = CARTESIAN_POINT ( 'NONE',  ( 0.000000000000000000, 0.000000000000000000, 3.000000000000000000 ) ) ;
#334 = ORIENTED_EDGE ( 'NONE', *, *, #104, .F. ) ;
#335 = CARTESIAN_POINT ( 'NONE',  ( 0.000000000000000000, 0.000000000000000000, 0.000000000000000000 ) ) ;
#336 = EDGE_CURVE ( 'NONE', #331, #142, #118, .T. ) ;
#337 = LINE ( 'NONE', #285, #286 ) ;
#338 = FACE_OUTER_BOUND ( 'NONE', #252, .T. ) ;
#339 = ORIENTED_EDGE ( 'NONE', *, *, #129, .T. ) ;
#340 = CARTESIAN_POINT ( 'NONE',  ( -2.500000000000000000, 0.000000000000000000, 403.0000000000000000 ) ) ;
#341 = ORIENTED_EDGE ( 'NONE', *, *, #370, .T. ) ;
#342 = FACE_OUTER_BOUND ( 'NONE', #197, .T. ) ;
#343 = CARTESIAN_POINT ( 'NONE',  ( -2.799999999999999822, 3.429011037612589276E-16, 3.000000000000012434 ) ) ;
#344 = CARTESIAN_POINT ( 'NONE',  ( 0.000000000000000000, 0.000000000000000000, 3.300000000000025135 ) ) ;
#345 = ORIENTED_EDGE ( 'NONE', *, *, #365, .F. ) ;
#346 = DATE_AND_TIME ( #234, #2 ) ;
#347 = CARTESIAN_POINT ( 'NONE',  ( 0.000000000000000000, 0.000000000000000000, 403.0000000000000000 ) ) ;
#348 = CC_DESIGN_APPROVAL ( #23, ( #184 ) ) ;
#349 = CARTESIAN_POINT ( 'NONE',  ( 0.000000000000000000, 0.000000000000000000, 0.000000000000000000 ) ) ;
#350 = PRODUCT_DEFINITION ( 'NEZNÁMÝ', '', #184, #130 ) ;
#351 = CALENDAR_DATE ( 2022, 8, 7 ) ;
#352 = AXIS2_PLACEMENT_3D ( 'NONE', #200, #85, #311 ) ;
#353 = AXIS2_PLACEMENT_3D ( 'NONE', #335, #372, #313 ) ;
#354 = AXIS2_PLACEMENT_3D ( 'NONE', #315, #237, #145 ) ;
#355 = APPROVAL_STATUS ( 'not_yet_approved' ) ;
#356 = ORIENTED_EDGE ( 'NONE', *, *, #370, .F. ) ;
#357 = APPROVAL_ROLE ( '' ) ;
#358 = CIRCLE ( 'NONE', #99, 2.500000000000000000 ) ;
#359 = AXIS2_PLACEMENT_3D ( 'NONE', #103, #249, #76 ) ;
#360 = CIRCLE ( 'NONE', #354, 1.500000000000000222 ) ;
#361 = EDGE_LOOP ( 'NONE', ( #272, #134, #4, #326 ) ) ;
#362 = PERSON_AND_ORGANIZATION_ROLE ( 'creator' ) ;
#363 = VERTEX_POINT ( 'NONE', #84 ) ;
#364 = ORIENTED_EDGE ( 'NONE', *, *, #129, .F. ) ;
#365 = EDGE_CURVE ( 'NONE', #271, #331, #180, .T. ) ;
#366 = CARTESIAN_POINT ( 'NONE',  ( 0.000000000000000000, 0.000000000000000000, 3.000000000000000000 ) ) ;
#367 = PLANE ( 'NONE',  #352 ) ;
#368 = DIRECTION ( 'NONE',  ( -0.000000000000000000, -0.000000000000000000, -1.000000000000000000 ) ) ;
#369 = DIRECTION ( 'NONE',  ( 0.000000000000000000, 0.000000000000000000, 1.000000000000000000 ) ) ;
#370 = EDGE_CURVE ( 'NONE', #33, #363, #48, .T. ) ;
#371 = MANIFOLD_SOLID_BREP ( 'Odebrat vysunutím3', #256 ) ;
#372 = DIRECTION ( 'NONE',  ( 0.000000000000000000, 0.000000000000000000, 1.000000000000000000 ) ) ;
#373 = DIRECTION ( 'NONE',  ( 0.000000000000000000, 0.000000000000000000, -1.000000000000000000 ) ) ;
#374 = AXIS2_PLACEMENT_3D ( 'NONE', #42, #201, #108 ) ;
#375 = CIRCLE ( 'NONE', #20, 2.799999999999999822 ) ;
#376 = FACE_OUTER_BOUND ( 'NONE', #329, .T. ) ;
#377 = PERSON_AND_ORGANIZATION_ROLE ( 'design_owner' ) ;
#378 = FACE_OUTER_BOUND ( 'NONE', #13, .T. ) ;
#379 = CC_DESIGN_PERSON_AND_ORGANIZATION_ASSIGNMENT ( #297, #244, ( #211 ) ) ;
#380 = AXIS2_PLACEMENT_3D ( 'NONE', #15, #78, #278 ) ;
#381 = DIRECTION ( 'NONE',  ( 1.000000000000000000, 0.000000000000000000, 0.000000000000000000 ) ) ;
ENDSEC;
END-ISO-10303-21;
