ISO-10303-21;
HEADER;
FILE_DESCRIPTION (( 'STEP AP203' ),
    '1' );
FILE_NAME ('e342.STEP',
    '2022-07-08T15:11:36',
    ( '' ),
    ( '' ),
    'SwSTEP 2.0',
    'SolidWorks 2019',
    '' );
FILE_SCHEMA (( 'CONFIG_CONTROL_DESIGN' ));
ENDSEC;

DATA;
#1 = DIRECTION ( 'NONE',  ( 0.000000000000000000, 0.000000000000000000, 1.000000000000000000 ) ) ;
#2 = ORIENTED_EDGE ( 'NONE', *, *, #15, .F. ) ;
#3 = CC_DESIGN_PERSON_AND_ORGANIZATION_ASSIGNMENT ( #369, #20, ( #111 ) ) ;
#4 = ORIENTED_EDGE ( 'NONE', *, *, #243, .F. ) ;
#5 = AXIS2_PLACEMENT_3D ( 'NONE', #14, #109, #198 ) ;
#6 = AXIS2_PLACEMENT_3D ( 'NONE', #178, #1, #380 ) ;
#7 = ORIENTED_EDGE ( 'NONE', *, *, #215, .T. ) ;
#8 = EDGE_CURVE ( 'NONE', #245, #266, #261, .T. ) ;
#9 = CARTESIAN_POINT ( 'NONE',  ( -10.00000000000000000, 0.000000000000000000, 7.000000000000000000 ) ) ;
#10 = FACE_OUTER_BOUND ( 'NONE', #183, .T. ) ;
#11 = ORIENTED_EDGE ( 'NONE', *, *, #120, .F. ) ;
#12 = COORDINATED_UNIVERSAL_TIME_OFFSET ( 1, 0, .AHEAD. ) ;
#13 = DIRECTION ( 'NONE',  ( -1.000000000000000000, 0.000000000000000000, 0.000000000000000000 ) ) ;
#14 = CARTESIAN_POINT ( 'NONE',  ( 0.000000000000000000, 0.000000000000000000, 507.0000000000000000 ) ) ;
#15 = EDGE_CURVE ( 'NONE', #136, #216, #307, .T. ) ;
#16 = DATE_AND_TIME ( #253, #53 ) ;
#17 = AXIS2_PLACEMENT_3D ( 'NONE', #291, #27, #236 ) ;
#18 = VECTOR ( 'NONE', #73, 1000.000000000000000 ) ;
#19 = DIRECTION ( 'NONE',  ( -0.000000000000000000, -0.000000000000000000, -1.000000000000000000 ) ) ;
#20 = PERSON_AND_ORGANIZATION_ROLE ( 'creator' ) ;
#21 = LOCAL_TIME ( 17, 11, 36.00000000000000000, #40 ) ;
#22 = CARTESIAN_POINT ( 'NONE',  ( 0.000000000000000000, 0.000000000000000000, 7.000000000000000000 ) ) ;
#23 = APPROVAL_STATUS ( 'not_yet_approved' ) ;
#24 = ADVANCED_FACE ( 'NONE', ( #10 ), #41, .F. ) ;
#25 = CARTESIAN_POINT ( 'NONE',  ( 0.000000000000000000, 0.000000000000000000, 7.000000000000000000 ) ) ;
#26 = CARTESIAN_POINT ( 'NONE',  ( -6.000000000000000888, 0.000000000000000000, 507.0000000000000000 ) ) ;
#27 = DIRECTION ( 'NONE',  ( 0.000000000000000000, 0.000000000000000000, 1.000000000000000000 ) ) ;
#28 = EDGE_CURVE ( 'NONE', #245, #186, #196, .T. ) ;
#29 = DIRECTION ( 'NONE',  ( -0.000000000000000000, -0.000000000000000000, -1.000000000000000000 ) ) ;
#30 = DIRECTION ( 'NONE',  ( 1.000000000000000000, 0.000000000000000000, 0.000000000000000000 ) ) ;
#31 = CLOSED_SHELL ( 'NONE', ( #139, #346, #149, #205, #50, #80, #336, #364, #179, #298, #24 ) ) ;
#32 = CARTESIAN_POINT ( 'NONE',  ( -6.000000000000000888, 0.000000000000000000, 7.500000000000007105 ) ) ;
#33 = CIRCLE ( 'NONE', #85, 6.000000000000000888 ) ;
#34 = VERTEX_POINT ( 'NONE', #308 ) ;
#35 = EDGE_CURVE ( 'NONE', #266, #34, #355, .T. ) ;
#36 = CC_DESIGN_APPROVAL ( #158, ( #177 ) ) ;
#37 = ORIENTED_EDGE ( 'NONE', *, *, #189, .T. ) ;
#38 = FACE_OUTER_BOUND ( 'NONE', #98, .T. ) ;
#39 = DIRECTION ( 'NONE',  ( -0.000000000000000000, -0.000000000000000000, -1.000000000000000000 ) ) ;
#40 = COORDINATED_UNIVERSAL_TIME_OFFSET ( 1, 0, .AHEAD. ) ;
#41 = CYLINDRICAL_SURFACE ( 'NONE', #175, 2.500000000000000000 ) ;
#42 = VECTOR ( 'NONE', #377, 1000.000000000000000 ) ;
#43 = APPROVAL_PERSON_ORGANIZATION ( #171, #357, #199 ) ;
#44 = EDGE_CURVE ( 'NONE', #381, #136, #293, .T. ) ;
#45 = DIRECTION ( 'NONE',  ( 0.000000000000000000, 0.000000000000000000, 1.000000000000000000 ) ) ;
#46 = DESIGN_CONTEXT ( 'detailed design', #372, 'design' ) ;
#47 = APPROVAL_ROLE ( '' ) ;
#48 = ORIENTED_EDGE ( 'NONE', *, *, #271, .F. ) ;
#49 = DIRECTION ( 'NONE',  ( 0.000000000000000000, 0.000000000000000000, 1.000000000000000000 ) ) ;
#50 = ADVANCED_FACE ( 'NONE', ( #358 ), #166, .T. ) ;
#51 = DIRECTION ( 'NONE',  ( 1.000000000000000000, 0.000000000000000000, 0.000000000000000000 ) ) ;
#52 = AXIS2_PLACEMENT_3D ( 'NONE', #87, #148, #202 ) ;
#53 = LOCAL_TIME ( 17, 11, 36.00000000000000000, #224 ) ;
#54 = CARTESIAN_POINT ( 'NONE',  ( 10.00000000000000000, 1.224646799147353256E-15, 0.000000000000000000 ) ) ;
#55 = DIRECTION ( 'NONE',  ( 1.000000000000000000, 0.000000000000000000, -0.000000000000000000 ) ) ;
#56 = EDGE_CURVE ( 'NONE', #136, #381, #312, .T. ) ;
#57 = CIRCLE ( 'NONE', #210, 2.500000000000000000 ) ;
#58 = FACE_OUTER_BOUND ( 'NONE', #62, .T. ) ;
#59 = AXIS2_PLACEMENT_3D ( 'NONE', #112, #19, #81 ) ;
#60 = CYLINDRICAL_SURFACE ( 'NONE', #59, 10.00000000000000000 ) ;
#61 = LINE ( 'NONE', #187, #154 ) ;
#62 = EDGE_LOOP ( 'NONE', ( #237, #242, #7, #184 ) ) ;
#63 = ORIENTED_EDGE ( 'NONE', *, *, #267, .T. ) ;
#64 = PRODUCT_RELATED_PRODUCT_CATEGORY ( 'detail', '', ( #299 ) ) ;
#65 = VERTEX_POINT ( 'NONE', #117 ) ;
#66 = EDGE_LOOP ( 'NONE', ( #303, #275, #163, #254 ) ) ;
#67 = EDGE_CURVE ( 'NONE', #34, #186, #246, .T. ) ;
#68 = VERTEX_POINT ( 'NONE', #26 ) ;
#69 = CARTESIAN_POINT ( 'NONE',  ( 6.000000000000000888, 7.347880794884120722E-16, 7.500000000000007105 ) ) ;
#70 = PRODUCT_DEFINITION_SHAPE ( 'NONE', 'NONE',  #111 ) ;
#71 = AXIS2_PLACEMENT_3D ( 'NONE', #286, #371, #51 ) ;
#72 = CARTESIAN_POINT ( 'NONE',  ( -10.00000000000000000, 0.000000000000000000, 7.000000000000000000 ) ) ;
#73 = DIRECTION ( 'NONE',  ( -0.000000000000000000, -0.000000000000000000, -1.000000000000000000 ) ) ;
#74 = PERSON_AND_ORGANIZATION_ROLE ( 'classification_officer' ) ;
#75 = DIRECTION ( 'NONE',  ( 0.000000000000000000, 0.000000000000000000, 1.000000000000000000 ) ) ;
#76 = DIRECTION ( 'NONE',  ( 0.000000000000000000, 0.000000000000000000, -1.000000000000000000 ) ) ;
#77 = CIRCLE ( 'NONE', #342, 2.500000000000000000 ) ;
#78 = DATE_TIME_ROLE ( 'creation_date' ) ;
#79 = CARTESIAN_POINT ( 'NONE',  ( 0.000000000000000000, 0.000000000000000000, 507.0000000000000000 ) ) ;
#80 = ADVANCED_FACE ( 'NONE', ( #262, #116 ), #140, .T. ) ;
#81 = DIRECTION ( 'NONE',  ( -1.000000000000000000, 0.000000000000000000, 0.000000000000000000 ) ) ;
#82 = PERSON_AND_ORGANIZATION_ROLE ( 'creator' ) ;
#83 = AXIS2_PLACEMENT_3D ( 'NONE', #25, #339, #172 ) ;
#84 = CARTESIAN_POINT ( 'NONE',  ( 2.500000000000000000, 3.061616997868383141E-16, 0.000000000000000000 ) ) ;
#85 = AXIS2_PLACEMENT_3D ( 'NONE', #181, #121, #118 ) ;
#86 = LOCAL_TIME ( 17, 11, 36.00000000000000000, #12 ) ;
#87 = CARTESIAN_POINT ( 'NONE',  ( 0.000000000000000000, 0.000000000000000000, 507.0000000000000000 ) ) ;
#88 = CARTESIAN_POINT ( 'NONE',  ( 6.500000000000000888, 0.000000000000000000, 7.000000000000002665 ) ) ;
#89 = EDGE_CURVE ( 'NONE', #361, #123, #225, .T. ) ;
#90 = CYLINDRICAL_SURFACE ( 'NONE', #315, 2.500000000000000000 ) ;
#91 = CARTESIAN_POINT ( 'NONE',  ( 0.000000000000000000, 0.000000000000000000, 507.0000000000000000 ) ) ;
#92 = DIRECTION ( 'NONE',  ( 0.000000000000000000, 0.000000000000000000, 1.000000000000000000 ) ) ;
#93 = EDGE_LOOP ( 'NONE', ( #277, #122 ) ) ;
#94 = ORIENTED_EDGE ( 'NONE', *, *, #208, .T. ) ;
#95 = PERSON ( 'NEURÈENÝ', 'NEURÈENÝ', 'NEURÈENÝ', ('NEURÈENÝ'), ('NEURÈENÝ'), ('NEURÈENÝ') ) ;
#96 = LOCAL_TIME ( 17, 11, 36.00000000000000000, #362 ) ;
#97 = EDGE_CURVE ( 'NONE', #216, #65, #57, .T. ) ;
#98 = EDGE_LOOP ( 'NONE', ( #11, #269, #94, #324 ) ) ;
#99 = FACE_OUTER_BOUND ( 'NONE', #273, .T. ) ;
#100 = AXIS2_PLACEMENT_3D ( 'NONE', #305, #39, #13 ) ;
#101 = DIRECTION ( 'NONE',  ( 1.000000000000000000, 0.000000000000000000, 0.000000000000000000 ) ) ;
#102 = ORIENTED_EDGE ( 'NONE', *, *, #89, .T. ) ;
#103 = DIRECTION ( 'NONE',  ( 1.000000000000000000, 0.000000000000000000, 0.000000000000000000 ) ) ;
#104 = ORIENTED_EDGE ( 'NONE', *, *, #56, .F. ) ;
#105 = EDGE_CURVE ( 'NONE', #123, #250, #279, .T. ) ;
#106 = PERSON_AND_ORGANIZATION ( #95, #287 ) ;
#107 = ORIENTED_EDGE ( 'NONE', *, *, #44, .F. ) ;
#108 = PERSON_AND_ORGANIZATION ( #95, #287 ) ;
#109 = DIRECTION ( 'NONE',  ( 0.000000000000000000, 0.000000000000000000, 1.000000000000000000 ) ) ;
#110 = TOROIDAL_SURFACE ( 'NONE', #320, 6.500000000000000888, 0.5000000000000000000 ) ;
#111 = PRODUCT_DEFINITION ( 'NEZNÁMÝ', '', #133, #46 ) ;
#112 = CARTESIAN_POINT ( 'NONE',  ( 0.000000000000000000, 0.000000000000000000, 7.000000000000000000 ) ) ;
#113 = CARTESIAN_POINT ( 'NONE',  ( 0.000000000000000000, 0.000000000000000000, 0.000000000000000000 ) ) ;
#114 = PERSON_AND_ORGANIZATION ( #95, #287 ) ;
#115 = DIRECTION ( 'NONE',  ( 0.000000000000000000, 0.000000000000000000, -1.000000000000000000 ) ) ;
#116 = FACE_OUTER_BOUND ( 'NONE', #93, .T. ) ;
#117 = CARTESIAN_POINT ( 'NONE',  ( -2.500000000000000000, 0.000000000000000000, 0.000000000000000000 ) ) ;
#118 = DIRECTION ( 'NONE',  ( 1.000000000000000000, 0.000000000000000000, 0.000000000000000000 ) ) ;
#119 = EDGE_LOOP ( 'NONE', ( #311, #63 ) ) ;
#120 = EDGE_CURVE ( 'NONE', #337, #361, #345, .T. ) ;
#121 = DIRECTION ( 'NONE',  ( 0.000000000000000000, 0.000000000000000000, 1.000000000000000000 ) ) ;
#122 = ORIENTED_EDGE ( 'NONE', *, *, #8, .T. ) ;
#123 = VERTEX_POINT ( 'NONE', #88 ) ;
#124 = AXIS2_PLACEMENT_3D ( 'NONE', #91, #265, #331 ) ;
#125 = EDGE_LOOP ( 'NONE', ( #325, #214 ) ) ;
#126 = DIRECTION ( 'NONE',  ( -0.000000000000000000, -0.000000000000000000, -1.000000000000000000 ) ) ;
#127 = CARTESIAN_POINT ( 'NONE',  ( 2.500000000000000000, 3.061616997868383141E-16, 507.0000000000000000 ) ) ;
#128 = DIRECTION ( 'NONE',  ( 0.000000000000000000, 0.000000000000000000, 1.000000000000000000 ) ) ;
#129 = AXIS2_PLACEMENT_3D ( 'NONE', #79, #45, #101 ) ;
#130 = EDGE_LOOP ( 'NONE', ( #334, #191, #102, #48 ) ) ;
#131 = CC_DESIGN_PERSON_AND_ORGANIZATION_ASSIGNMENT ( #365, #233, ( #133 ) ) ;
#132 = CIRCLE ( 'NONE', #227, 6.000000000000000888 ) ;
#133 = PRODUCT_DEFINITION_FORMATION_WITH_SPECIFIED_SOURCE ( 'LIBOVOLNÝ', '', #299, .NOT_KNOWN. ) ;
#134 = EDGE_LOOP ( 'NONE', ( #252, #157 ) ) ;
#135 = MECHANICAL_CONTEXT ( 'NONE', #241, 'mechanical' ) ;
#136 = VERTEX_POINT ( 'NONE', #176 ) ;
#137 = CALENDAR_DATE ( 2022, 8, 7 ) ;
#138 = CARTESIAN_POINT ( 'NONE',  ( 0.000000000000000000, 0.000000000000000000, 7.000000000000000000 ) ) ;
#139 = ADVANCED_FACE ( 'NONE', ( #256 ), #90, .F. ) ;
#140 = PLANE ( 'NONE',  #83 ) ;
#141 =( GEOMETRIC_REPRESENTATION_CONTEXT ( 3 ) GLOBAL_UNCERTAINTY_ASSIGNED_CONTEXT ( ( #297 ) ) GLOBAL_UNIT_ASSIGNED_CONTEXT ( ( #150, #220, #276 ) ) REPRESENTATION_CONTEXT ( 'NONE', 'WORKASPACE' ) );
#142 = CALENDAR_DATE ( 2022, 8, 7 ) ;
#143 = CARTESIAN_POINT ( 'NONE',  ( 0.000000000000000000, 0.000000000000000000, 507.0000000000000000 ) ) ;
#144 = CARTESIAN_POINT ( 'NONE',  ( 6.000000000000000888, 7.347880794884120722E-16, 507.0000000000000000 ) ) ;
#145 = AXIS2_PLACEMENT_3D ( 'NONE', #138, #75, #330 ) ;
#146 = DIRECTION ( 'NONE',  ( -0.000000000000000000, -0.000000000000000000, -1.000000000000000000 ) ) ;
#147 = CIRCLE ( 'NONE', #151, 10.00000000000000000 ) ;
#148 = DIRECTION ( 'NONE',  ( -0.000000000000000000, -0.000000000000000000, -1.000000000000000000 ) ) ;
#149 = ADVANCED_FACE ( 'NONE', ( #343 ), #263, .T. ) ;
#150 =( LENGTH_UNIT ( ) NAMED_UNIT ( * ) SI_UNIT ( .MILLI., .METRE. ) );
#151 = AXIS2_PLACEMENT_3D ( 'NONE', #209, #284, #235 ) ;
#152 = ORIENTED_EDGE ( 'NONE', *, *, #105, .F. ) ;
#153 = ORIENTED_EDGE ( 'NONE', *, *, #310, .F. ) ;
#154 = VECTOR ( 'NONE', #213, 1000.000000000000000 ) ;
#155 = EDGE_LOOP ( 'NONE', ( #219, #270, #327, #349 ) ) ;
#156 = DIRECTION ( 'NONE',  ( 1.000000000000000000, 0.000000000000000000, -0.000000000000000000 ) ) ;
#157 = ORIENTED_EDGE ( 'NONE', *, *, #215, .F. ) ;
#158 = APPROVAL ( #164, 'NEURÈENÝ' ) ;
#159 = DIRECTION ( 'NONE',  ( -1.000000000000000000, 0.000000000000000000, 0.000000000000000000 ) ) ;
#160 = CARTESIAN_POINT ( 'NONE',  ( 0.000000000000000000, 0.000000000000000000, 507.0000000000000000 ) ) ;
#161 = DATE_AND_TIME ( #192, #96 ) ;
#162 = AXIS2_PLACEMENT_3D ( 'NONE', #313, #49, #289 ) ;
#163 = ORIENTED_EDGE ( 'NONE', *, *, #322, .T. ) ;
#164 = APPROVAL_STATUS ( 'not_yet_approved' ) ;
#165 = EDGE_CURVE ( 'NONE', #266, #245, #147, .T. ) ;
#166 = CYLINDRICAL_SURFACE ( 'NONE', #100, 10.00000000000000000 ) ;
#167 = APPROVAL_DATE_TIME ( #259, #285 ) ;
#168 = DIRECTION ( 'NONE',  ( -0.000000000000000000, -0.000000000000000000, -1.000000000000000000 ) ) ;
#169 = DIRECTION ( 'NONE',  ( -0.000000000000000000, -0.000000000000000000, -1.000000000000000000 ) ) ;
#170 = TOROIDAL_SURFACE ( 'NONE', #6, 6.500000000000000888, 0.5000000000000000000 ) ;
#171 = PERSON_AND_ORGANIZATION ( #95, #287 ) ;
#172 = DIRECTION ( 'NONE',  ( 1.000000000000000000, 0.000000000000000000, -0.000000000000000000 ) ) ;
#173 = CC_DESIGN_DATE_AND_TIME_ASSIGNMENT ( #16, #78, ( #111 ) ) ;
#174 = LINE ( 'NONE', #292, #195 ) ;
#175 = AXIS2_PLACEMENT_3D ( 'NONE', #160, #76, #280 ) ;
#176 = CARTESIAN_POINT ( 'NONE',  ( 2.500000000000000000, 3.061616997868383141E-16, 507.0000000000000000 ) ) ;
#177 = SECURITY_CLASSIFICATION ( '', '', #229 ) ;
#178 = CARTESIAN_POINT ( 'NONE',  ( 0.000000000000000000, 0.000000000000000000, 7.500000000000007105 ) ) ;
#179 = ADVANCED_FACE ( 'NONE', ( #317, #200 ), #316, .T. ) ;
#180 = AXIS2_PLACEMENT_3D ( 'NONE', #234, #374, #232 ) ;
#181 = CARTESIAN_POINT ( 'NONE',  ( 0.000000000000000000, 0.000000000000000000, 7.500000000000007105 ) ) ;
#182 = APPROVAL_PERSON_ORGANIZATION ( #278, #158, #47 ) ;
#183 = EDGE_LOOP ( 'NONE', ( #2, #353, #300, #302 ) ) ;
#184 = ORIENTED_EDGE ( 'NONE', *, *, #35, .F. ) ;
#185 = VECTOR ( 'NONE', #282, 1000.000000000000000 ) ;
#186 = VERTEX_POINT ( 'NONE', #54 ) ;
#187 = CARTESIAN_POINT ( 'NONE',  ( -2.500000000000000000, 0.000000000000000000, 507.0000000000000000 ) ) ;
#188 = EDGE_LOOP ( 'NONE', ( #4, #228 ) ) ;
#189 = EDGE_CURVE ( 'NONE', #363, #250, #328, .T. ) ;
#190 = FACE_OUTER_BOUND ( 'NONE', #130, .T. ) ;
#191 = ORIENTED_EDGE ( 'NONE', *, *, #322, .F. ) ;
#192 = CALENDAR_DATE ( 2022, 8, 7 ) ;
#193 = VECTOR ( 'NONE', #168, 1000.000000000000000 ) ;
#194 = ORIENTED_EDGE ( 'NONE', *, *, #35, .T. ) ;
#195 = VECTOR ( 'NONE', #368, 1000.000000000000000 ) ;
#196 = LINE ( 'NONE', #247, #193 ) ;
#197 = CALENDAR_DATE ( 2022, 8, 7 ) ;
#198 = DIRECTION ( 'NONE',  ( 1.000000000000000000, 0.000000000000000000, 0.000000000000000000 ) ) ;
#199 = APPROVAL_ROLE ( '' ) ;
#200 = FACE_OUTER_BOUND ( 'NONE', #119, .T. ) ;
#201 = APPROVAL_ROLE ( '' ) ;
#202 = DIRECTION ( 'NONE',  ( -1.000000000000000000, 0.000000000000000000, 0.000000000000000000 ) ) ;
#203 = AXIS2_PLACEMENT_3D ( 'NONE', #22, #169, #378 ) ;
#204 = CC_DESIGN_SECURITY_CLASSIFICATION ( #177, ( #133 ) ) ;
#205 = ADVANCED_FACE ( 'NONE', ( #58 ), #60, .T. ) ;
#206 = CARTESIAN_POINT ( 'NONE',  ( 0.000000000000000000, 0.000000000000000000, 0.000000000000000000 ) ) ;
#207 = DIRECTION ( 'NONE',  ( 0.000000000000000000, 0.000000000000000000, 1.000000000000000000 ) ) ;
#208 = EDGE_CURVE ( 'NONE', #68, #363, #174, .T. ) ;
#209 = CARTESIAN_POINT ( 'NONE',  ( 0.000000000000000000, 0.000000000000000000, 7.000000000000000000 ) ) ;
#210 = AXIS2_PLACEMENT_3D ( 'NONE', #206, #146, #341 ) ;
#211 = APPROVAL_PERSON_ORGANIZATION ( #106, #285, #201 ) ;
#212 = DIRECTION ( 'NONE',  ( 1.000000000000000000, 0.000000000000000000, 0.000000000000000000 ) ) ;
#213 = DIRECTION ( 'NONE',  ( 0.000000000000000000, 0.000000000000000000, -1.000000000000000000 ) ) ;
#214 = ORIENTED_EDGE ( 'NONE', *, *, #271, .T. ) ;
#215 = EDGE_CURVE ( 'NONE', #186, #34, #348, .T. ) ;
#216 = VERTEX_POINT ( 'NONE', #84 ) ;
#217 = CARTESIAN_POINT ( 'NONE',  ( 0.000000000000000000, 0.000000000000000000, 7.000000000000000000 ) ) ;
#218 = EDGE_CURVE ( 'NONE', #68, #337, #375, .T. ) ;
#219 = ORIENTED_EDGE ( 'NONE', *, *, #44, .T. ) ;
#220 =( NAMED_UNIT ( * ) PLANE_ANGLE_UNIT ( ) SI_UNIT ( $, .RADIAN. ) );
#221 = ORIENTED_EDGE ( 'NONE', *, *, #165, .F. ) ;
#222 = CARTESIAN_POINT ( 'NONE',  ( 10.00000000000000000, 1.224646799147353256E-15, 7.000000000000000000 ) ) ;
#223 = ORIENTED_EDGE ( 'NONE', *, *, #67, .T. ) ;
#224 = COORDINATED_UNIVERSAL_TIME_OFFSET ( 1, 0, .AHEAD. ) ;
#225 = CIRCLE ( 'NONE', #180, 0.5000000000000004441 ) ;
#226 = ORIENTED_EDGE ( 'NONE', *, *, #28, .F. ) ;
#227 = AXIS2_PLACEMENT_3D ( 'NONE', #244, #274, #103 ) ;
#228 = ORIENTED_EDGE ( 'NONE', *, *, #97, .F. ) ;
#229 = SECURITY_CLASSIFICATION_LEVEL ( 'unclassified' ) ;
#230 = DIRECTION ( 'NONE',  ( -1.000000000000000000, 1.224646799147351482E-16, 0.000000000000000000 ) ) ;
#231 = CC_DESIGN_PERSON_AND_ORGANIZATION_ASSIGNMENT ( #114, #82, ( #133 ) ) ;
#232 = DIRECTION ( 'NONE',  ( 0.000000000000000000, 0.000000000000000000, -1.000000000000000000 ) ) ;
#233 = PERSON_AND_ORGANIZATION_ROLE ( 'design_supplier' ) ;
#234 = CARTESIAN_POINT ( 'NONE',  ( 6.500000000000000888, 0.000000000000000000, 7.500000000000007105 ) ) ;
#235 = DIRECTION ( 'NONE',  ( 1.000000000000000000, 0.000000000000000000, 0.000000000000000000 ) ) ;
#236 = DIRECTION ( 'NONE',  ( 1.000000000000000000, 0.000000000000000000, 0.000000000000000000 ) ) ;
#237 = ORIENTED_EDGE ( 'NONE', *, *, #8, .F. ) ;
#238 = AXIS2_PLACEMENT_3D ( 'NONE', #217, #29, #212 ) ;
#239 = ADVANCED_BREP_SHAPE_REPRESENTATION ( 'e342', ( #264, #71 ), #141 ) ;
#240 = FACE_BOUND ( 'NONE', #188, .T. ) ;
#241 = APPLICATION_CONTEXT ( 'configuration controlled 3d designs of mechanical parts and assemblies' ) ;
#242 = ORIENTED_EDGE ( 'NONE', *, *, #28, .T. ) ;
#243 = EDGE_CURVE ( 'NONE', #65, #216, #77, .T. ) ;
#244 = CARTESIAN_POINT ( 'NONE',  ( 0.000000000000000000, 0.000000000000000000, 7.500000000000007105 ) ) ;
#245 = VERTEX_POINT ( 'NONE', #222 ) ;
#246 = CIRCLE ( 'NONE', #17, 10.00000000000000000 ) ;
#247 = CARTESIAN_POINT ( 'NONE',  ( 10.00000000000000000, 1.224646799147353256E-15, 7.000000000000000000 ) ) ;
#248 = APPLICATION_PROTOCOL_DEFINITION ( 'international standard', 'config_control_design', 1994, #241 ) ;
#249 = AXIS2_PLACEMENT_3D ( 'NONE', #143, #258, #370 ) ;
#250 = VERTEX_POINT ( 'NONE', #347 ) ;
#251 = DATE_TIME_ROLE ( 'classification_date' ) ;
#252 = ORIENTED_EDGE ( 'NONE', *, *, #67, .F. ) ;
#253 = CALENDAR_DATE ( 2022, 8, 7 ) ;
#254 = ORIENTED_EDGE ( 'NONE', *, *, #208, .F. ) ;
#255 = DATE_AND_TIME ( #197, #21 ) ;
#256 = FACE_OUTER_BOUND ( 'NONE', #155, .T. ) ;
#257 = CC_DESIGN_PERSON_AND_ORGANIZATION_ASSIGNMENT ( #338, #340, ( #299 ) ) ;
#258 = DIRECTION ( 'NONE',  ( 0.000000000000000000, 0.000000000000000000, 1.000000000000000000 ) ) ;
#259 = DATE_AND_TIME ( #137, #376 ) ;
#260 = CARTESIAN_POINT ( 'NONE',  ( 0.000000000000000000, 0.000000000000000000, 507.0000000000000000 ) ) ;
#261 = CIRCLE ( 'NONE', #145, 10.00000000000000000 ) ;
#262 = FACE_BOUND ( 'NONE', #125, .T. ) ;
#263 = CYLINDRICAL_SURFACE ( 'NONE', #52, 6.000000000000000888 ) ;
#264 = MANIFOLD_SOLID_BREP ( 'Odebrat vysunutím3', #31 ) ;
#265 = DIRECTION ( 'NONE',  ( 0.000000000000000000, 0.000000000000000000, 1.000000000000000000 ) ) ;
#266 = VERTEX_POINT ( 'NONE', #9 ) ;
#267 = EDGE_CURVE ( 'NONE', #337, #68, #295, .T. ) ;
#268 = DIRECTION ( 'NONE',  ( 1.000000000000000000, 0.000000000000000000, 0.000000000000000000 ) ) ;
#269 = ORIENTED_EDGE ( 'NONE', *, *, #218, .F. ) ;
#270 = ORIENTED_EDGE ( 'NONE', *, *, #15, .T. ) ;
#271 = EDGE_CURVE ( 'NONE', #250, #123, #335, .T. ) ;
#272 = AXIS2_PLACEMENT_3D ( 'NONE', #304, #128, #156 ) ;
#273 = EDGE_LOOP ( 'NONE', ( #153, #37, #152, #366 ) ) ;
#274 = DIRECTION ( 'NONE',  ( 0.000000000000000000, 0.000000000000000000, 1.000000000000000000 ) ) ;
#275 = ORIENTED_EDGE ( 'NONE', *, *, #120, .T. ) ;
#276 =( NAMED_UNIT ( * ) SI_UNIT ( $, .STERADIAN. ) SOLID_ANGLE_UNIT ( ) );
#277 = ORIENTED_EDGE ( 'NONE', *, *, #165, .T. ) ;
#278 = PERSON_AND_ORGANIZATION ( #95, #287 ) ;
#279 = CIRCLE ( 'NONE', #203, 6.500000000000000888 ) ;
#280 = DIRECTION ( 'NONE',  ( -1.000000000000000000, 0.000000000000000000, 0.000000000000000000 ) ) ;
#281 = APPROVAL_DATE_TIME ( #333, #158 ) ;
#282 = DIRECTION ( 'NONE',  ( 0.000000000000000000, 0.000000000000000000, -1.000000000000000000 ) ) ;
#283 = COORDINATED_UNIVERSAL_TIME_OFFSET ( 1, 0, .AHEAD. ) ;
#284 = DIRECTION ( 'NONE',  ( 0.000000000000000000, 0.000000000000000000, 1.000000000000000000 ) ) ;
#285 = APPROVAL ( #314, 'NEURÈENÝ' ) ;
#286 = CARTESIAN_POINT ( 'NONE',  ( 0.000000000000000000, 0.000000000000000000, 0.000000000000000000 ) ) ;
#287 = ORGANIZATION ( 'NEURÈENÝ', 'NEURÈENÝ', '' ) ;
#288 = CC_DESIGN_APPROVAL ( #285, ( #111 ) ) ;
#289 = DIRECTION ( 'NONE',  ( 1.000000000000000000, 0.000000000000000000, 0.000000000000000000 ) ) ;
#290 = APPROVAL_DATE_TIME ( #255, #357 ) ;
#291 = CARTESIAN_POINT ( 'NONE',  ( 0.000000000000000000, 0.000000000000000000, 0.000000000000000000 ) ) ;
#292 = CARTESIAN_POINT ( 'NONE',  ( -6.000000000000000888, 0.000000000000000000, 507.0000000000000000 ) ) ;
#293 = CIRCLE ( 'NONE', #129, 2.500000000000000000 ) ;
#294 = DIRECTION ( 'NONE',  ( -1.000000000000000000, 0.000000000000000000, 0.000000000000000000 ) ) ;
#295 = CIRCLE ( 'NONE', #124, 6.000000000000000888 ) ;
#296 = CARTESIAN_POINT ( 'NONE',  ( 0.000000000000000000, 0.000000000000000000, 7.500000000000007105 ) ) ;
#297 = UNCERTAINTY_MEASURE_WITH_UNIT (LENGTH_MEASURE( 1.000000000000000082E-05 ), #150, 'distance_accuracy_value', 'NONE');
#298 = ADVANCED_FACE ( 'NONE', ( #190 ), #170, .F. ) ;
#299 = PRODUCT ( 'e342', 'e342', '', ( #135 ) ) ;
#300 = ORIENTED_EDGE ( 'NONE', *, *, #379, .T. ) ;
#301 = CC_DESIGN_DATE_AND_TIME_ASSIGNMENT ( #161, #251, ( #177 ) ) ;
#302 = ORIENTED_EDGE ( 'NONE', *, *, #243, .T. ) ;
#303 = ORIENTED_EDGE ( 'NONE', *, *, #267, .F. ) ;
#304 = CARTESIAN_POINT ( 'NONE',  ( 0.000000000000000000, 0.000000000000000000, 0.000000000000000000 ) ) ;
#305 = CARTESIAN_POINT ( 'NONE',  ( 0.000000000000000000, 0.000000000000000000, 7.000000000000000000 ) ) ;
#306 = APPLICATION_PROTOCOL_DEFINITION ( 'international standard', 'config_control_design', 1994, #372 ) ;
#307 = LINE ( 'NONE', #127, #185 ) ;
#308 = CARTESIAN_POINT ( 'NONE',  ( -10.00000000000000000, 0.000000000000000000, 0.000000000000000000 ) ) ;
#309 = SHAPE_DEFINITION_REPRESENTATION ( #70, #239 ) ;
#310 = EDGE_CURVE ( 'NONE', #363, #361, #33, .T. ) ;
#311 = ORIENTED_EDGE ( 'NONE', *, *, #218, .T. ) ;
#312 = CIRCLE ( 'NONE', #5, 2.500000000000000000 ) ;
#313 = CARTESIAN_POINT ( 'NONE',  ( 0.000000000000000000, 0.000000000000000000, 0.000000000000000000 ) ) ;
#314 = APPROVAL_STATUS ( 'not_yet_approved' ) ;
#315 = AXIS2_PLACEMENT_3D ( 'NONE', #260, #115, #294 ) ;
#316 = PLANE ( 'NONE',  #323 ) ;
#317 = FACE_BOUND ( 'NONE', #351, .T. ) ;
#318 = DIRECTION ( 'NONE',  ( 1.224646799147353207E-16, 1.000000000000000000, -0.000000000000000000 ) ) ;
#319 = CARTESIAN_POINT ( 'NONE',  ( -6.500000000000000888, 7.960204194457796463E-16, 7.500000000000007105 ) ) ;
#320 = AXIS2_PLACEMENT_3D ( 'NONE', #296, #92, #30 ) ;
#321 = CARTESIAN_POINT ( 'NONE',  ( 0.000000000000000000, 0.000000000000000000, 507.0000000000000000 ) ) ;
#322 = EDGE_CURVE ( 'NONE', #361, #363, #132, .T. ) ;
#323 = AXIS2_PLACEMENT_3D ( 'NONE', #344, #207, #55 ) ;
#324 = ORIENTED_EDGE ( 'NONE', *, *, #310, .T. ) ;
#325 = ORIENTED_EDGE ( 'NONE', *, *, #105, .T. ) ;
#326 = FACE_OUTER_BOUND ( 'NONE', #134, .T. ) ;
#327 = ORIENTED_EDGE ( 'NONE', *, *, #97, .T. ) ;
#328 = CIRCLE ( 'NONE', #352, 0.5000000000000004441 ) ;
#329 = PLANE ( 'NONE',  #272 ) ;
#330 = DIRECTION ( 'NONE',  ( 1.000000000000000000, 0.000000000000000000, 0.000000000000000000 ) ) ;
#331 = DIRECTION ( 'NONE',  ( 1.000000000000000000, 0.000000000000000000, 0.000000000000000000 ) ) ;
#332 = EDGE_LOOP ( 'NONE', ( #226, #221, #194, #223 ) ) ;
#333 = DATE_AND_TIME ( #142, #86 ) ;
#334 = ORIENTED_EDGE ( 'NONE', *, *, #189, .F. ) ;
#335 = CIRCLE ( 'NONE', #238, 6.500000000000000888 ) ;
#336 = ADVANCED_FACE ( 'NONE', ( #240, #326 ), #329, .F. ) ;
#337 = VERTEX_POINT ( 'NONE', #354 ) ;
#338 = PERSON_AND_ORGANIZATION ( #95, #287 ) ;
#339 = DIRECTION ( 'NONE',  ( 0.000000000000000000, 0.000000000000000000, 1.000000000000000000 ) ) ;
#340 = PERSON_AND_ORGANIZATION_ROLE ( 'design_owner' ) ;
#341 = DIRECTION ( 'NONE',  ( 1.000000000000000000, 0.000000000000000000, 0.000000000000000000 ) ) ;
#342 = AXIS2_PLACEMENT_3D ( 'NONE', #113, #126, #268 ) ;
#343 = FACE_OUTER_BOUND ( 'NONE', #66, .T. ) ;
#344 = CARTESIAN_POINT ( 'NONE',  ( 0.000000000000000000, 0.000000000000000000, 507.0000000000000000 ) ) ;
#345 = LINE ( 'NONE', #144, #42 ) ;
#346 = ADVANCED_FACE ( 'NONE', ( #99 ), #110, .F. ) ;
#347 = CARTESIAN_POINT ( 'NONE',  ( -6.500000000000000888, 7.960204194457796463E-16, 7.000000000000002665 ) ) ;
#348 = CIRCLE ( 'NONE', #162, 10.00000000000000000 ) ;
#349 = ORIENTED_EDGE ( 'NONE', *, *, #379, .F. ) ;
#350 = CARTESIAN_POINT ( 'NONE',  ( -2.500000000000000000, 0.000000000000000000, 507.0000000000000000 ) ) ;
#351 = EDGE_LOOP ( 'NONE', ( #107, #104 ) ) ;
#352 = AXIS2_PLACEMENT_3D ( 'NONE', #319, #318, #230 ) ;
#353 = ORIENTED_EDGE ( 'NONE', *, *, #56, .T. ) ;
#354 = CARTESIAN_POINT ( 'NONE',  ( 6.000000000000000888, 7.347880794884120722E-16, 507.0000000000000000 ) ) ;
#355 = LINE ( 'NONE', #72, #18 ) ;
#356 = DIRECTION ( 'NONE',  ( -0.000000000000000000, -0.000000000000000000, -1.000000000000000000 ) ) ;
#357 = APPROVAL ( #23, 'NEURÈENÝ' ) ;
#358 = FACE_OUTER_BOUND ( 'NONE', #332, .T. ) ;
#359 = CC_DESIGN_APPROVAL ( #357, ( #133 ) ) ;
#360 = CYLINDRICAL_SURFACE ( 'NONE', #367, 6.000000000000000888 ) ;
#361 = VERTEX_POINT ( 'NONE', #69 ) ;
#362 = COORDINATED_UNIVERSAL_TIME_OFFSET ( 1, 0, .AHEAD. ) ;
#363 = VERTEX_POINT ( 'NONE', #32 ) ;
#364 = ADVANCED_FACE ( 'NONE', ( #38 ), #360, .T. ) ;
#365 = PERSON_AND_ORGANIZATION ( #95, #287 ) ;
#366 = ORIENTED_EDGE ( 'NONE', *, *, #89, .F. ) ;
#367 = AXIS2_PLACEMENT_3D ( 'NONE', #321, #356, #159 ) ;
#368 = DIRECTION ( 'NONE',  ( -0.000000000000000000, -0.000000000000000000, -1.000000000000000000 ) ) ;
#369 = PERSON_AND_ORGANIZATION ( #95, #287 ) ;
#370 = DIRECTION ( 'NONE',  ( 1.000000000000000000, 0.000000000000000000, 0.000000000000000000 ) ) ;
#371 = DIRECTION ( 'NONE',  ( 0.000000000000000000, 0.000000000000000000, 1.000000000000000000 ) ) ;
#372 = APPLICATION_CONTEXT ( 'configuration controlled 3d designs of mechanical parts and assemblies' ) ;
#373 = CC_DESIGN_PERSON_AND_ORGANIZATION_ASSIGNMENT ( #108, #74, ( #177 ) ) ;
#374 = DIRECTION ( 'NONE',  ( 0.000000000000000000, -1.000000000000000000, 0.000000000000000000 ) ) ;
#375 = CIRCLE ( 'NONE', #249, 6.000000000000000888 ) ;
#376 = LOCAL_TIME ( 17, 11, 36.00000000000000000, #283 ) ;
#377 = DIRECTION ( 'NONE',  ( -0.000000000000000000, -0.000000000000000000, -1.000000000000000000 ) ) ;
#378 = DIRECTION ( 'NONE',  ( 1.000000000000000000, 0.000000000000000000, 0.000000000000000000 ) ) ;
#379 = EDGE_CURVE ( 'NONE', #381, #65, #61, .T. ) ;
#380 = DIRECTION ( 'NONE',  ( 1.000000000000000000, 0.000000000000000000, 0.000000000000000000 ) ) ;
#381 = VERTEX_POINT ( 'NONE', #350 ) ;
ENDSEC;
END-ISO-10303-21;
