ISO-10303-21;
HEADER;
FILE_DESCRIPTION (( 'STEP AP203' ),
    '1' );
FILE_NAME ('79de.STEP',
    '2022-07-08T14:39:52',
    ( '' ),
    ( '' ),
    'SwSTEP 2.0',
    'SolidWorks 2019',
    '' );
FILE_SCHEMA (( 'CONFIG_CONTROL_DESIGN' ));
ENDSEC;

DATA;
#1 = DIRECTION ( 'NONE',  ( 0.000000000000000000, 0.000000000000000000, -1.000000000000000000 ) ) ;
#2 = DIRECTION ( 'NONE',  ( -1.000000000000000000, 0.000000000000000000, 0.000000000000000000 ) ) ;
#3 = CIRCLE ( 'NONE', #361, 6.000000000000000888 ) ;
#4 = DIRECTION ( 'NONE',  ( 1.000000000000000000, 0.000000000000000000, 0.000000000000000000 ) ) ;
#5 = AXIS2_PLACEMENT_3D ( 'NONE', #125, #302, #8 ) ;
#6 = PLANE ( 'NONE',  #91 ) ;
#7 = CC_DESIGN_PERSON_AND_ORGANIZATION_ASSIGNMENT ( #21, #112, ( #280 ) ) ;
#8 = DIRECTION ( 'NONE',  ( -1.000000000000000000, 1.224646799147353454E-16, 0.000000000000000000 ) ) ;
#9 = AXIS2_PLACEMENT_3D ( 'NONE', #36, #337, #99 ) ;
#10 =( LENGTH_UNIT ( ) NAMED_UNIT ( * ) SI_UNIT ( .MILLI., .METRE. ) );
#11 = CYLINDRICAL_SURFACE ( 'NONE', #35, 6.000000000000000888 ) ;
#12 = VERTEX_POINT ( 'NONE', #347 ) ;
#13 = VECTOR ( 'NONE', #180, 1000.000000000000000 ) ;
#14 = DIRECTION ( 'NONE',  ( 0.000000000000000000, 0.000000000000000000, -1.000000000000000000 ) ) ;
#15 = ORIENTED_EDGE ( 'NONE', *, *, #289, .T. ) ;
#16 = AXIS2_PLACEMENT_3D ( 'NONE', #248, #241, #39 ) ;
#17 = APPROVAL_STATUS ( 'not_yet_approved' ) ;
#18 = CARTESIAN_POINT ( 'NONE',  ( 0.000000000000000000, 0.000000000000000000, 82.00000000000000000 ) ) ;
#19 = DATE_AND_TIME ( #163, #170 ) ;
#20 = ORIENTED_EDGE ( 'NONE', *, *, #200, .F. ) ;
#21 = PERSON_AND_ORGANIZATION ( #69, #196 ) ;
#22 = LINE ( 'NONE', #51, #370 ) ;
#23 = APPROVAL_PERSON_ORGANIZATION ( #109, #173, #258 ) ;
#24 = COORDINATED_UNIVERSAL_TIME_OFFSET ( 1, 0, .AHEAD. ) ;
#25 = DIRECTION ( 'NONE',  ( 1.000000000000000000, 0.000000000000000000, 0.000000000000000000 ) ) ;
#26 = APPROVAL_ROLE ( '' ) ;
#27 = VERTEX_POINT ( 'NONE', #85 ) ;
#28 = AXIS2_PLACEMENT_3D ( 'NONE', #151, #95, #2 ) ;
#29 = DIRECTION ( 'NONE',  ( 1.000000000000000000, 0.000000000000000000, 0.000000000000000000 ) ) ;
#30 = AXIS2_PLACEMENT_3D ( 'NONE', #219, #359, #218 ) ;
#31 = CYLINDRICAL_SURFACE ( 'NONE', #348, 10.00000000000000000 ) ;
#32 = DIRECTION ( 'NONE',  ( 1.000000000000000000, 0.000000000000000000, 0.000000000000000000 ) ) ;
#33 = CYLINDRICAL_SURFACE ( 'NONE', #181, 4.000000000000000000 ) ;
#34 = FACE_OUTER_BOUND ( 'NONE', #279, .T. ) ;
#35 = AXIS2_PLACEMENT_3D ( 'NONE', #242, #275, #221 ) ;
#36 = CARTESIAN_POINT ( 'NONE',  ( 0.000000000000000000, 0.000000000000000000, 7.000000000000000000 ) ) ;
#37 = EDGE_CURVE ( 'NONE', #68, #243, #240, .T. ) ;
#38 = FACE_OUTER_BOUND ( 'NONE', #127, .T. ) ;
#39 = DIRECTION ( 'NONE',  ( 1.000000000000000000, 0.000000000000000000, 0.000000000000000000 ) ) ;
#40 = AXIS2_PLACEMENT_3D ( 'NONE', #346, #373, #161 ) ;
#41 = DIRECTION ( 'NONE',  ( -1.000000000000000000, 0.000000000000000000, 0.000000000000000000 ) ) ;
#42 = EDGE_LOOP ( 'NONE', ( #257, #158, #259, #104 ) ) ;
#43 = LINE ( 'NONE', #276, #132 ) ;
#44 = ORIENTED_EDGE ( 'NONE', *, *, #190, .F. ) ;
#45 = CIRCLE ( 'NONE', #150, 4.000000000000000000 ) ;
#46 = COORDINATED_UNIVERSAL_TIME_OFFSET ( 1, 0, .AHEAD. ) ;
#47 = ORIENTED_EDGE ( 'NONE', *, *, #253, .T. ) ;
#48 = APPROVAL ( #83, 'NEURÈENÝ' ) ;
#49 = LINE ( 'NONE', #54, #148 ) ;
#50 = PERSON_AND_ORGANIZATION_ROLE ( 'classification_officer' ) ;
#51 = CARTESIAN_POINT ( 'NONE',  ( 4.000000000000000000, 4.898587196589412829E-16, 82.00000000000000000 ) ) ;
#52 =( GEOMETRIC_REPRESENTATION_CONTEXT ( 3 ) GLOBAL_UNCERTAINTY_ASSIGNED_CONTEXT ( ( #239 ) ) GLOBAL_UNIT_ASSIGNED_CONTEXT ( ( #10, #168, #368 ) ) REPRESENTATION_CONTEXT ( 'NONE', 'WORKASPACE' ) );
#53 = CALENDAR_DATE ( 2022, 8, 7 ) ;
#54 = CARTESIAN_POINT ( 'NONE',  ( -6.000000000000000888, 0.000000000000000000, 82.00000000000000000 ) ) ;
#55 = APPLICATION_CONTEXT ( 'configuration controlled 3d designs of mechanical parts and assemblies' ) ;
#56 = DIRECTION ( 'NONE',  ( 0.000000000000000000, 0.000000000000000000, 1.000000000000000000 ) ) ;
#57 = CARTESIAN_POINT ( 'NONE',  ( 6.000000000000000888, 7.347880794884120722E-16, 7.699999999999998401 ) ) ;
#58 = CARTESIAN_POINT ( 'NONE',  ( 0.000000000000000000, 0.000000000000000000, 82.00000000000000000 ) ) ;
#59 = ADVANCED_FACE ( 'NONE', ( #204 ), #110, .T. ) ;
#60 = PRODUCT ( '79de', '79de', '', ( #224 ) ) ;
#61 = FACE_OUTER_BOUND ( 'NONE', #66, .T. ) ;
#62 = CARTESIAN_POINT ( 'NONE',  ( 10.00000000000000000, 1.224646799147353256E-15, 7.000000000000000000 ) ) ;
#63 = FACE_OUTER_BOUND ( 'NONE', #229, .T. ) ;
#64 = EDGE_CURVE ( 'NONE', #277, #12, #22, .T. ) ;
#65 = DIRECTION ( 'NONE',  ( 1.000000000000000000, 0.000000000000000000, 0.000000000000000000 ) ) ;
#66 = EDGE_LOOP ( 'NONE', ( #74, #44 ) ) ;
#67 = CARTESIAN_POINT ( 'NONE',  ( 0.000000000000000000, 0.000000000000000000, 7.000000000000000000 ) ) ;
#68 = VERTEX_POINT ( 'NONE', #169 ) ;
#69 = PERSON ( 'NEURÈENÝ', 'NEURÈENÝ', 'NEURÈENÝ', ('NEURÈENÝ'), ('NEURÈENÝ'), ('NEURÈENÝ') ) ;
#70 = CARTESIAN_POINT ( 'NONE',  ( 0.000000000000000000, 0.000000000000000000, 7.000000000000000000 ) ) ;
#71 = CIRCLE ( 'NONE', #247, 0.7000000000000000666 ) ;
#72 = VERTEX_POINT ( 'NONE', #141 ) ;
#73 = DIRECTION ( 'NONE',  ( 0.000000000000000000, 0.000000000000000000, 1.000000000000000000 ) ) ;
#74 = ORIENTED_EDGE ( 'NONE', *, *, #300, .F. ) ;
#75 = CALENDAR_DATE ( 2022, 8, 7 ) ;
#76 = EDGE_LOOP ( 'NONE', ( #251, #331 ) ) ;
#77 = LOCAL_TIME ( 16, 39, 52.00000000000000000, #46 ) ;
#78 = EDGE_CURVE ( 'NONE', #243, #245, #49, .T. ) ;
#79 = PERSON_AND_ORGANIZATION ( #69, #196 ) ;
#80 = VERTEX_POINT ( 'NONE', #261 ) ;
#81 = DATE_AND_TIME ( #53, #77 ) ;
#82 = VERTEX_POINT ( 'NONE', #232 ) ;
#83 = APPROVAL_STATUS ( 'not_yet_approved' ) ;
#84 = EDGE_CURVE ( 'NONE', #113, #87, #187, .T. ) ;
#85 = CARTESIAN_POINT ( 'NONE',  ( -10.00000000000000000, 0.000000000000000000, 0.000000000000000000 ) ) ;
#86 = AXIS2_PLACEMENT_3D ( 'NONE', #235, #89, #32 ) ;
#87 = VERTEX_POINT ( 'NONE', #322 ) ;
#88 = CARTESIAN_POINT ( 'NONE',  ( 0.000000000000000000, 0.000000000000000000, 7.000000000000000000 ) ) ;
#89 = DIRECTION ( 'NONE',  ( 0.000000000000000000, 0.000000000000000000, 1.000000000000000000 ) ) ;
#90 = CC_DESIGN_PERSON_AND_ORGANIZATION_ASSIGNMENT ( #171, #314, ( #340 ) ) ;
#91 = AXIS2_PLACEMENT_3D ( 'NONE', #324, #326, #123 ) ;
#92 = DIRECTION ( 'NONE',  ( 1.000000000000000000, 0.000000000000000000, 0.000000000000000000 ) ) ;
#93 = PLANE ( 'NONE',  #233 ) ;
#94 = EDGE_CURVE ( 'NONE', #68, #115, #355, .T. ) ;
#95 = DIRECTION ( 'NONE',  ( 0.000000000000000000, 0.000000000000000000, -1.000000000000000000 ) ) ;
#96 = CIRCLE ( 'NONE', #167, 4.000000000000000000 ) ;
#97 = CIRCLE ( 'NONE', #209, 10.00000000000000000 ) ;
#98 = CARTESIAN_POINT ( 'NONE',  ( 0.000000000000000000, 0.000000000000000000, 82.00000000000000000 ) ) ;
#99 = DIRECTION ( 'NONE',  ( 1.000000000000000000, 0.000000000000000000, 0.000000000000000000 ) ) ;
#100 = ORIENTED_EDGE ( 'NONE', *, *, #84, .T. ) ;
#101 = CYLINDRICAL_SURFACE ( 'NONE', #220, 10.00000000000000000 ) ;
#102 = CC_DESIGN_APPROVAL ( #48, ( #340 ) ) ;
#103 = CC_DESIGN_PERSON_AND_ORGANIZATION_ASSIGNMENT ( #344, #106, ( #60 ) ) ;
#104 = ORIENTED_EDGE ( 'NONE', *, *, #270, .F. ) ;
#105 = APPLICATION_CONTEXT ( 'configuration controlled 3d designs of mechanical parts and assemblies' ) ;
#106 = PERSON_AND_ORGANIZATION_ROLE ( 'design_owner' ) ;
#107 = ORIENTED_EDGE ( 'NONE', *, *, #381, .T. ) ;
#108 = CIRCLE ( 'NONE', #5, 0.7000000000000000666 ) ;
#109 = PERSON_AND_ORGANIZATION ( #69, #196 ) ;
#110 = CYLINDRICAL_SURFACE ( 'NONE', #202, 6.000000000000000888 ) ;
#111 = EDGE_CURVE ( 'NONE', #80, #82, #284, .T. ) ;
#112 = PERSON_AND_ORGANIZATION_ROLE ( 'creator' ) ;
#113 = VERTEX_POINT ( 'NONE', #62 ) ;
#114 = APPLICATION_PROTOCOL_DEFINITION ( 'international standard', 'config_control_design', 1994, #105 ) ;
#115 = VERTEX_POINT ( 'NONE', #57 ) ;
#116 = AXIS2_PLACEMENT_3D ( 'NONE', #237, #179, #293 ) ;
#117 = DIRECTION ( 'NONE',  ( 1.000000000000000000, 0.000000000000000000, -0.000000000000000000 ) ) ;
#118 = DIRECTION ( 'NONE',  ( 1.000000000000000000, 0.000000000000000000, 0.000000000000000000 ) ) ;
#119 = FACE_OUTER_BOUND ( 'NONE', #291, .T. ) ;
#120 = CC_DESIGN_APPROVAL ( #334, ( #280 ) ) ;
#121 = PLANE ( 'NONE',  #116 ) ;
#122 = EDGE_CURVE ( 'NONE', #72, #12, #96, .T. ) ;
#123 = DIRECTION ( 'NONE',  ( 1.000000000000000000, 0.000000000000000000, -0.000000000000000000 ) ) ;
#124 = CARTESIAN_POINT ( 'NONE',  ( 6.700000000000001066, 0.000000000000000000, 7.699999999999998401 ) ) ;
#125 = CARTESIAN_POINT ( 'NONE',  ( -6.700000000000001066, 8.205133554287267548E-16, 7.699999999999998401 ) ) ;
#126 = ORIENTED_EDGE ( 'NONE', *, *, #266, .T. ) ;
#127 = EDGE_LOOP ( 'NONE', ( #343, #321, #153, #288 ) ) ;
#128 = EDGE_CURVE ( 'NONE', #113, #313, #174, .T. ) ;
#129 = DIRECTION ( 'NONE',  ( 1.000000000000000000, 0.000000000000000000, 0.000000000000000000 ) ) ;
#130 = ORIENTED_EDGE ( 'NONE', *, *, #358, .T. ) ;
#131 = FACE_OUTER_BOUND ( 'NONE', #201, .T. ) ;
#132 = VECTOR ( 'NONE', #155, 1000.000000000000000 ) ;
#133 = EDGE_CURVE ( 'NONE', #115, #245, #3, .T. ) ;
#134 = APPROVAL_DATE_TIME ( #192, #334 ) ;
#135 = CARTESIAN_POINT ( 'NONE',  ( 0.000000000000000000, 0.000000000000000000, 7.000000000000000000 ) ) ;
#136 = APPROVAL_DATE_TIME ( #19, #48 ) ;
#137 = ORIENTED_EDGE ( 'NONE', *, *, #270, .T. ) ;
#138 = PERSON_AND_ORGANIZATION ( #69, #196 ) ;
#139 = EDGE_LOOP ( 'NONE', ( #308, #338, #166, #379 ) ) ;
#140 = APPROVAL_STATUS ( 'not_yet_approved' ) ;
#141 = CARTESIAN_POINT ( 'NONE',  ( -4.000000000000000000, 0.000000000000000000, 0.000000000000000000 ) ) ;
#142 = ADVANCED_FACE ( 'NONE', ( #34 ), #292, .F. ) ;
#143 = ORIENTED_EDGE ( 'NONE', *, *, #231, .T. ) ;
#144 = LINE ( 'NONE', #262, #304 ) ;
#145 = EDGE_CURVE ( 'NONE', #12, #72, #193, .T. ) ;
#146 = DIRECTION ( 'NONE',  ( -0.000000000000000000, -0.000000000000000000, -1.000000000000000000 ) ) ;
#147 = FACE_OUTER_BOUND ( 'NONE', #306, .T. ) ;
#148 = VECTOR ( 'NONE', #172, 1000.000000000000000 ) ;
#149 = ADVANCED_FACE ( 'NONE', ( #210, #119 ), #6, .T. ) ;
#150 = AXIS2_PLACEMENT_3D ( 'NONE', #157, #159, #65 ) ;
#151 = CARTESIAN_POINT ( 'NONE',  ( 0.000000000000000000, 0.000000000000000000, 82.00000000000000000 ) ) ;
#152 = CARTESIAN_POINT ( 'NONE',  ( -4.000000000000000000, 0.000000000000000000, 82.00000000000000000 ) ) ;
#153 = ORIENTED_EDGE ( 'NONE', *, *, #78, .T. ) ;
#154 = CIRCLE ( 'NONE', #372, 4.000000000000000000 ) ;
#155 = DIRECTION ( 'NONE',  ( -0.000000000000000000, -0.000000000000000000, -1.000000000000000000 ) ) ;
#156 = ORIENTED_EDGE ( 'NONE', *, *, #358, .F. ) ;
#157 = CARTESIAN_POINT ( 'NONE',  ( 0.000000000000000000, 0.000000000000000000, 82.00000000000000000 ) ) ;
#158 = ORIENTED_EDGE ( 'NONE', *, *, #128, .T. ) ;
#159 = DIRECTION ( 'NONE',  ( 0.000000000000000000, 0.000000000000000000, 1.000000000000000000 ) ) ;
#160 = ADVANCED_FACE ( 'NONE', ( #213, #61 ), #121, .F. ) ;
#161 = DIRECTION ( 'NONE',  ( 1.000000000000000000, 0.000000000000000000, 0.000000000000000000 ) ) ;
#162 = AXIS2_PLACEMENT_3D ( 'NONE', #207, #264, #118 ) ;
#163 = CALENDAR_DATE ( 2022, 8, 7 ) ;
#164 = ORIENTED_EDGE ( 'NONE', *, *, #300, .T. ) ;
#165 = SECURITY_CLASSIFICATION_LEVEL ( 'unclassified' ) ;
#166 = ORIENTED_EDGE ( 'NONE', *, *, #133, .T. ) ;
#167 = AXIS2_PLACEMENT_3D ( 'NONE', #208, #328, #4 ) ;
#168 =( NAMED_UNIT ( * ) PLANE_ANGLE_UNIT ( ) SI_UNIT ( $, .RADIAN. ) );
#169 = CARTESIAN_POINT ( 'NONE',  ( 6.000000000000000888, 7.347880794884120722E-16, 82.00000000000000000 ) ) ;
#170 = LOCAL_TIME ( 16, 39, 52.00000000000000000, #24 ) ;
#171 = PERSON_AND_ORGANIZATION ( #69, #196 ) ;
#172 = DIRECTION ( 'NONE',  ( -0.000000000000000000, -0.000000000000000000, -1.000000000000000000 ) ) ;
#173 = APPROVAL ( #140, 'NEURÈENÝ' ) ;
#174 = LINE ( 'NONE', #236, #333 ) ;
#175 = EDGE_CURVE ( 'NONE', #282, #72, #144, .T. ) ;
#176 = DIRECTION ( 'NONE',  ( -0.000000000000000000, -0.000000000000000000, -1.000000000000000000 ) ) ;
#177 = DIRECTION ( 'NONE',  ( -1.000000000000000000, 0.000000000000000000, 0.000000000000000000 ) ) ;
#178 = ADVANCED_FACE ( 'NONE', ( #353, #297 ), #93, .T. ) ;
#179 = DIRECTION ( 'NONE',  ( 0.000000000000000000, 0.000000000000000000, 1.000000000000000000 ) ) ;
#180 = DIRECTION ( 'NONE',  ( -0.000000000000000000, -0.000000000000000000, -1.000000000000000000 ) ) ;
#181 = AXIS2_PLACEMENT_3D ( 'NONE', #98, #216, #41 ) ;
#182 = CARTESIAN_POINT ( 'NONE',  ( 4.000000000000000000, 4.898587196589412829E-16, 82.00000000000000000 ) ) ;
#183 = DIRECTION ( 'NONE',  ( 0.000000000000000000, 0.000000000000000000, 1.000000000000000000 ) ) ;
#184 = ORIENTED_EDGE ( 'NONE', *, *, #128, .F. ) ;
#185 = ADVANCED_FACE ( 'NONE', ( #234 ), #31, .T. ) ;
#186 = DIRECTION ( 'NONE',  ( -0.000000000000000000, -0.000000000000000000, -1.000000000000000000 ) ) ;
#187 = CIRCLE ( 'NONE', #356, 10.00000000000000000 ) ;
#188 = DIRECTION ( 'NONE',  ( 1.000000000000000000, 0.000000000000000000, 0.000000000000000000 ) ) ;
#189 = MANIFOLD_SOLID_BREP ( 'Odebrat vysunutím3', #254 ) ;
#190 = EDGE_CURVE ( 'NONE', #313, #27, #329, .T. ) ;
#191 = EDGE_LOOP ( 'NONE', ( #107, #339 ) ) ;
#192 = DATE_AND_TIME ( #283, #287 ) ;
#193 = CIRCLE ( 'NONE', #278, 4.000000000000000000 ) ;
#194 = ORIENTED_EDGE ( 'NONE', *, *, #145, .T. ) ;
#195 = APPROVAL_ROLE ( '' ) ;
#196 = ORGANIZATION ( 'NEURÈENÝ', 'NEURÈENÝ', '' ) ;
#197 = ORIENTED_EDGE ( 'NONE', *, *, #289, .F. ) ;
#198 = PERSON_AND_ORGANIZATION ( #69, #196 ) ;
#199 = CARTESIAN_POINT ( 'NONE',  ( 0.000000000000000000, 0.000000000000000000, 82.00000000000000000 ) ) ;
#200 = EDGE_CURVE ( 'NONE', #245, #115, #325, .T. ) ;
#201 = EDGE_LOOP ( 'NONE', ( #197, #225, #130, #255 ) ) ;
#202 = AXIS2_PLACEMENT_3D ( 'NONE', #18, #345, #315 ) ;
#203 = DATE_AND_TIME ( #310, #341 ) ;
#204 = FACE_OUTER_BOUND ( 'NONE', #139, .T. ) ;
#205 = ORIENTED_EDGE ( 'NONE', *, *, #122, .T. ) ;
#206 = ADVANCED_FACE ( 'NONE', ( #147 ), #33, .F. ) ;
#207 = CARTESIAN_POINT ( 'NONE',  ( 0.000000000000000000, 0.000000000000000000, 0.000000000000000000 ) ) ;
#208 = CARTESIAN_POINT ( 'NONE',  ( 0.000000000000000000, 0.000000000000000000, 0.000000000000000000 ) ) ;
#209 = AXIS2_PLACEMENT_3D ( 'NONE', #271, #357, #188 ) ;
#210 = FACE_BOUND ( 'NONE', #363, .T. ) ;
#211 = ADVANCED_FACE ( 'NONE', ( #63 ), #214, .F. ) ;
#212 = DIRECTION ( 'NONE',  ( 0.000000000000000000, 0.000000000000000000, 1.000000000000000000 ) ) ;
#213 = FACE_BOUND ( 'NONE', #377, .T. ) ;
#214 = TOROIDAL_SURFACE ( 'NONE', #274, 6.700000000000001066, 0.6999999999999999556 ) ;
#215 = CC_DESIGN_SECURITY_CLASSIFICATION ( #319, ( #340 ) ) ;
#216 = DIRECTION ( 'NONE',  ( 0.000000000000000000, 0.000000000000000000, -1.000000000000000000 ) ) ;
#217 = ADVANCED_FACE ( 'NONE', ( #38 ), #11, .T. ) ;
#218 = DIRECTION ( 'NONE',  ( 1.000000000000000000, 0.000000000000000000, 0.000000000000000000 ) ) ;
#219 = CARTESIAN_POINT ( 'NONE',  ( 0.000000000000000000, 0.000000000000000000, 7.699999999999998401 ) ) ;
#220 = AXIS2_PLACEMENT_3D ( 'NONE', #67, #186, #244 ) ;
#221 = DIRECTION ( 'NONE',  ( -1.000000000000000000, 0.000000000000000000, 0.000000000000000000 ) ) ;
#222 = ORIENTED_EDGE ( 'NONE', *, *, #253, .F. ) ;
#223 = CARTESIAN_POINT ( 'NONE',  ( -6.000000000000000888, 0.000000000000000000, 7.699999999999998401 ) ) ;
#224 = MECHANICAL_CONTEXT ( 'NONE', #105, 'mechanical' ) ;
#225 = ORIENTED_EDGE ( 'NONE', *, *, #133, .F. ) ;
#226 = ORIENTED_EDGE ( 'NONE', *, *, #175, .T. ) ;
#227 = ORIENTED_EDGE ( 'NONE', *, *, #122, .F. ) ;
#228 = COORDINATED_UNIVERSAL_TIME_OFFSET ( 1, 0, .AHEAD. ) ;
#229 = EDGE_LOOP ( 'NONE', ( #20, #15, #222, #156 ) ) ;
#230 = AXIS2_PLACEMENT_3D ( 'NONE', #269, #267, #327 ) ;
#231 = EDGE_CURVE ( 'NONE', #277, #282, #45, .T. ) ;
#232 = CARTESIAN_POINT ( 'NONE',  ( 6.700000000000001066, 0.000000000000000000, 6.999999999999999112 ) ) ;
#233 = AXIS2_PLACEMENT_3D ( 'NONE', #58, #212, #117 ) ;
#234 = FACE_OUTER_BOUND ( 'NONE', #42, .T. ) ;
#235 = CARTESIAN_POINT ( 'NONE',  ( 0.000000000000000000, 0.000000000000000000, 7.699999999999998401 ) ) ;
#236 = CARTESIAN_POINT ( 'NONE',  ( 10.00000000000000000, 1.224646799147353256E-15, 7.000000000000000000 ) ) ;
#237 = CARTESIAN_POINT ( 'NONE',  ( 0.000000000000000000, 0.000000000000000000, 0.000000000000000000 ) ) ;
#238 = DIRECTION ( 'NONE',  ( 0.000000000000000000, 0.000000000000000000, 1.000000000000000000 ) ) ;
#239 = UNCERTAINTY_MEASURE_WITH_UNIT (LENGTH_MEASURE( 1.000000000000000082E-05 ), #10, 'distance_accuracy_value', 'NONE');
#240 = CIRCLE ( 'NONE', #378, 6.000000000000000888 ) ;
#241 = DIRECTION ( 'NONE',  ( 0.000000000000000000, 0.000000000000000000, 1.000000000000000000 ) ) ;
#242 = CARTESIAN_POINT ( 'NONE',  ( 0.000000000000000000, 0.000000000000000000, 82.00000000000000000 ) ) ;
#243 = VERTEX_POINT ( 'NONE', #307 ) ;
#244 = DIRECTION ( 'NONE',  ( -1.000000000000000000, 0.000000000000000000, 0.000000000000000000 ) ) ;
#245 = VERTEX_POINT ( 'NONE', #223 ) ;
#246 = DIRECTION ( 'NONE',  ( 0.000000000000000000, -1.000000000000000000, 0.000000000000000000 ) ) ;
#247 = AXIS2_PLACEMENT_3D ( 'NONE', #124, #246, #14 ) ;
#248 = CARTESIAN_POINT ( 'NONE',  ( 0.000000000000000000, 0.000000000000000000, 82.00000000000000000 ) ) ;
#249 = CC_DESIGN_APPROVAL ( #173, ( #319 ) ) ;
#250 = DATE_TIME_ROLE ( 'creation_date' ) ;
#251 = ORIENTED_EDGE ( 'NONE', *, *, #260, .F. ) ;
#252 = PERSON_AND_ORGANIZATION ( #69, #196 ) ;
#253 = EDGE_CURVE ( 'NONE', #82, #80, #263, .T. ) ;
#254 = CLOSED_SHELL ( 'NONE', ( #142, #211, #59, #185, #365, #149, #160, #217, #178, #323, #206 ) ) ;
#255 = ORIENTED_EDGE ( 'NONE', *, *, #111, .F. ) ;
#256 = DATE_AND_TIME ( #75, #364 ) ;
#257 = ORIENTED_EDGE ( 'NONE', *, *, #84, .F. ) ;
#258 = APPROVAL_ROLE ( '' ) ;
#259 = ORIENTED_EDGE ( 'NONE', *, *, #190, .T. ) ;
#260 = EDGE_CURVE ( 'NONE', #282, #277, #154, .T. ) ;
#261 = CARTESIAN_POINT ( 'NONE',  ( -6.700000000000001066, 8.205133554287267548E-16, 6.999999999999999112 ) ) ;
#262 = CARTESIAN_POINT ( 'NONE',  ( -4.000000000000000000, 0.000000000000000000, 82.00000000000000000 ) ) ;
#263 = CIRCLE ( 'NONE', #9, 6.700000000000001066 ) ;
#264 = DIRECTION ( 'NONE',  ( 0.000000000000000000, 0.000000000000000000, 1.000000000000000000 ) ) ;
#265 = DIRECTION ( 'NONE',  ( 1.000000000000000000, 0.000000000000000000, 0.000000000000000000 ) ) ;
#266 = EDGE_CURVE ( 'NONE', #87, #113, #299, .T. ) ;
#267 = DIRECTION ( 'NONE',  ( -0.000000000000000000, -0.000000000000000000, -1.000000000000000000 ) ) ;
#268 = APPROVAL_PERSON_ORGANIZATION ( #79, #334, #26 ) ;
#269 = CARTESIAN_POINT ( 'NONE',  ( 0.000000000000000000, 0.000000000000000000, 7.000000000000000000 ) ) ;
#270 = EDGE_CURVE ( 'NONE', #87, #27, #43, .T. ) ;
#271 = CARTESIAN_POINT ( 'NONE',  ( 0.000000000000000000, 0.000000000000000000, 0.000000000000000000 ) ) ;
#272 = CARTESIAN_POINT ( 'NONE',  ( 0.000000000000000000, 0.000000000000000000, 82.00000000000000000 ) ) ;
#273 = ORIENTED_EDGE ( 'NONE', *, *, #64, .F. ) ;
#274 = AXIS2_PLACEMENT_3D ( 'NONE', #301, #183, #335 ) ;
#275 = DIRECTION ( 'NONE',  ( -0.000000000000000000, -0.000000000000000000, -1.000000000000000000 ) ) ;
#276 = CARTESIAN_POINT ( 'NONE',  ( -10.00000000000000000, 0.000000000000000000, 7.000000000000000000 ) ) ;
#277 = VERTEX_POINT ( 'NONE', #182 ) ;
#278 = AXIS2_PLACEMENT_3D ( 'NONE', #351, #176, #92 ) ;
#279 = EDGE_LOOP ( 'NONE', ( #317, #349, #194, #366 ) ) ;
#280 = PRODUCT_DEFINITION ( 'NEZNÁMÝ', '', #340, #311 ) ;
#281 = COORDINATED_UNIVERSAL_TIME_OFFSET ( 1, 0, .AHEAD. ) ;
#282 = VERTEX_POINT ( 'NONE', #152 ) ;
#283 = CALENDAR_DATE ( 2022, 8, 7 ) ;
#284 = CIRCLE ( 'NONE', #230, 6.700000000000001066 ) ;
#285 = ORIENTED_EDGE ( 'NONE', *, *, #266, .F. ) ;
#286 = COORDINATED_UNIVERSAL_TIME_OFFSET ( 1, 0, .AHEAD. ) ;
#287 = LOCAL_TIME ( 16, 39, 52.00000000000000000, #281 ) ;
#288 = ORIENTED_EDGE ( 'NONE', *, *, #200, .T. ) ;
#289 = EDGE_CURVE ( 'NONE', #245, #80, #108, .T. ) ;
#290 = SHAPE_DEFINITION_REPRESENTATION ( #380, #309 ) ;
#291 = EDGE_LOOP ( 'NONE', ( #126, #100 ) ) ;
#292 = CYLINDRICAL_SURFACE ( 'NONE', #28, 4.000000000000000000 ) ;
#293 = DIRECTION ( 'NONE',  ( 1.000000000000000000, 0.000000000000000000, -0.000000000000000000 ) ) ;
#294 = AXIS2_PLACEMENT_3D ( 'NONE', #70, #73, #330 ) ;
#295 = CC_DESIGN_DATE_AND_TIME_ASSIGNMENT ( #81, #250, ( #280 ) ) ;
#296 = DIRECTION ( 'NONE',  ( -0.000000000000000000, -0.000000000000000000, -1.000000000000000000 ) ) ;
#297 = FACE_OUTER_BOUND ( 'NONE', #191, .T. ) ;
#298 = CARTESIAN_POINT ( 'NONE',  ( 0.000000000000000000, 0.000000000000000000, 7.699999999999998401 ) ) ;
#299 = CIRCLE ( 'NONE', #294, 10.00000000000000000 ) ;
#300 = EDGE_CURVE ( 'NONE', #27, #313, #97, .T. ) ;
#301 = CARTESIAN_POINT ( 'NONE',  ( 0.000000000000000000, 0.000000000000000000, 7.699999999999998401 ) ) ;
#302 = DIRECTION ( 'NONE',  ( 1.224646799147353207E-16, 1.000000000000000000, -0.000000000000000000 ) ) ;
#303 = DIRECTION ( 'NONE',  ( 0.000000000000000000, 0.000000000000000000, 1.000000000000000000 ) ) ;
#304 = VECTOR ( 'NONE', #1, 1000.000000000000000 ) ;
#305 = CC_DESIGN_PERSON_AND_ORGANIZATION_ASSIGNMENT ( #138, #50, ( #319 ) ) ;
#306 = EDGE_LOOP ( 'NONE', ( #273, #143, #226, #205 ) ) ;
#307 = CARTESIAN_POINT ( 'NONE',  ( -6.000000000000000888, 0.000000000000000000, 82.00000000000000000 ) ) ;
#308 = ORIENTED_EDGE ( 'NONE', *, *, #37, .F. ) ;
#309 = ADVANCED_BREP_SHAPE_REPRESENTATION ( '79de', ( #189, #40 ), #52 ) ;
#310 = CALENDAR_DATE ( 2022, 8, 7 ) ;
#311 = DESIGN_CONTEXT ( 'detailed design', #55, 'design' ) ;
#312 = CIRCLE ( 'NONE', #16, 6.000000000000000888 ) ;
#313 = VERTEX_POINT ( 'NONE', #332 ) ;
#314 = PERSON_AND_ORGANIZATION_ROLE ( 'creator' ) ;
#315 = DIRECTION ( 'NONE',  ( -1.000000000000000000, 0.000000000000000000, 0.000000000000000000 ) ) ;
#316 = DATE_TIME_ROLE ( 'classification_date' ) ;
#317 = ORIENTED_EDGE ( 'NONE', *, *, #260, .T. ) ;
#318 = APPROVAL_DATE_TIME ( #203, #173 ) ;
#319 = SECURITY_CLASSIFICATION ( '', '', #165 ) ;
#320 = DIRECTION ( 'NONE',  ( 0.000000000000000000, 0.000000000000000000, -1.000000000000000000 ) ) ;
#321 = ORIENTED_EDGE ( 'NONE', *, *, #381, .F. ) ;
#322 = CARTESIAN_POINT ( 'NONE',  ( -10.00000000000000000, 0.000000000000000000, 7.000000000000000000 ) ) ;
#323 = ADVANCED_FACE ( 'NONE', ( #131 ), #352, .F. ) ;
#324 = CARTESIAN_POINT ( 'NONE',  ( 0.000000000000000000, 0.000000000000000000, 7.000000000000000000 ) ) ;
#325 = CIRCLE ( 'NONE', #86, 6.000000000000000888 ) ;
#326 = DIRECTION ( 'NONE',  ( 0.000000000000000000, 0.000000000000000000, 1.000000000000000000 ) ) ;
#327 = DIRECTION ( 'NONE',  ( 1.000000000000000000, 0.000000000000000000, 0.000000000000000000 ) ) ;
#328 = DIRECTION ( 'NONE',  ( -0.000000000000000000, -0.000000000000000000, -1.000000000000000000 ) ) ;
#329 = CIRCLE ( 'NONE', #162, 10.00000000000000000 ) ;
#330 = DIRECTION ( 'NONE',  ( 1.000000000000000000, 0.000000000000000000, 0.000000000000000000 ) ) ;
#331 = ORIENTED_EDGE ( 'NONE', *, *, #231, .F. ) ;
#332 = CARTESIAN_POINT ( 'NONE',  ( 10.00000000000000000, 1.224646799147353256E-15, 0.000000000000000000 ) ) ;
#333 = VECTOR ( 'NONE', #296, 1000.000000000000000 ) ;
#334 = APPROVAL ( #17, 'NEURÈENÝ' ) ;
#335 = DIRECTION ( 'NONE',  ( 1.000000000000000000, 0.000000000000000000, 0.000000000000000000 ) ) ;
#336 = APPROVAL_PERSON_ORGANIZATION ( #198, #48, #195 ) ;
#337 = DIRECTION ( 'NONE',  ( -0.000000000000000000, -0.000000000000000000, -1.000000000000000000 ) ) ;
#338 = ORIENTED_EDGE ( 'NONE', *, *, #94, .T. ) ;
#339 = ORIENTED_EDGE ( 'NONE', *, *, #37, .T. ) ;
#340 = PRODUCT_DEFINITION_FORMATION_WITH_SPECIFIED_SOURCE ( 'LIBOVOLNÝ', '', #60, .NOT_KNOWN. ) ;
#341 = LOCAL_TIME ( 16, 39, 52.00000000000000000, #228 ) ;
#342 = APPLICATION_PROTOCOL_DEFINITION ( 'international standard', 'config_control_design', 1994, #55 ) ;
#343 = ORIENTED_EDGE ( 'NONE', *, *, #94, .F. ) ;
#344 = PERSON_AND_ORGANIZATION ( #69, #196 ) ;
#345 = DIRECTION ( 'NONE',  ( -0.000000000000000000, -0.000000000000000000, -1.000000000000000000 ) ) ;
#346 = CARTESIAN_POINT ( 'NONE',  ( 0.000000000000000000, 0.000000000000000000, 0.000000000000000000 ) ) ;
#347 = CARTESIAN_POINT ( 'NONE',  ( 4.000000000000000000, 4.898587196589412829E-16, 0.000000000000000000 ) ) ;
#348 = AXIS2_PLACEMENT_3D ( 'NONE', #88, #146, #177 ) ;
#349 = ORIENTED_EDGE ( 'NONE', *, *, #64, .T. ) ;
#350 = CARTESIAN_POINT ( 'NONE',  ( 6.000000000000000888, 7.347880794884120722E-16, 82.00000000000000000 ) ) ;
#351 = CARTESIAN_POINT ( 'NONE',  ( 0.000000000000000000, 0.000000000000000000, 0.000000000000000000 ) ) ;
#352 = TOROIDAL_SURFACE ( 'NONE', #30, 6.700000000000001066, 0.6999999999999999556 ) ;
#353 = FACE_BOUND ( 'NONE', #76, .T. ) ;
#354 = CC_DESIGN_DATE_AND_TIME_ASSIGNMENT ( #256, #316, ( #319 ) ) ;
#355 = LINE ( 'NONE', #350, #13 ) ;
#356 = AXIS2_PLACEMENT_3D ( 'NONE', #135, #369, #29 ) ;
#357 = DIRECTION ( 'NONE',  ( 0.000000000000000000, 0.000000000000000000, 1.000000000000000000 ) ) ;
#358 = EDGE_CURVE ( 'NONE', #115, #82, #71, .T. ) ;
#359 = DIRECTION ( 'NONE',  ( 0.000000000000000000, 0.000000000000000000, 1.000000000000000000 ) ) ;
#360 = ORIENTED_EDGE ( 'NONE', *, *, #111, .T. ) ;
#361 = AXIS2_PLACEMENT_3D ( 'NONE', #298, #238, #265 ) ;
#362 = FACE_OUTER_BOUND ( 'NONE', #371, .T. ) ;
#363 = EDGE_LOOP ( 'NONE', ( #47, #360 ) ) ;
#364 = LOCAL_TIME ( 16, 39, 52.00000000000000000, #286 ) ;
#365 = ADVANCED_FACE ( 'NONE', ( #362 ), #101, .T. ) ;
#366 = ORIENTED_EDGE ( 'NONE', *, *, #175, .F. ) ;
#367 = PRODUCT_RELATED_PRODUCT_CATEGORY ( 'detail', '', ( #60 ) ) ;
#368 =( NAMED_UNIT ( * ) SI_UNIT ( $, .STERADIAN. ) SOLID_ANGLE_UNIT ( ) );
#369 = DIRECTION ( 'NONE',  ( 0.000000000000000000, 0.000000000000000000, 1.000000000000000000 ) ) ;
#370 = VECTOR ( 'NONE', #320, 1000.000000000000000 ) ;
#371 = EDGE_LOOP ( 'NONE', ( #184, #285, #137, #164 ) ) ;
#372 = AXIS2_PLACEMENT_3D ( 'NONE', #272, #303, #129 ) ;
#373 = DIRECTION ( 'NONE',  ( 0.000000000000000000, 0.000000000000000000, 1.000000000000000000 ) ) ;
#374 = ORIENTED_EDGE ( 'NONE', *, *, #145, .F. ) ;
#375 = CC_DESIGN_PERSON_AND_ORGANIZATION_ASSIGNMENT ( #252, #376, ( #340 ) ) ;
#376 = PERSON_AND_ORGANIZATION_ROLE ( 'design_supplier' ) ;
#377 = EDGE_LOOP ( 'NONE', ( #227, #374 ) ) ;
#378 = AXIS2_PLACEMENT_3D ( 'NONE', #199, #56, #25 ) ;
#379 = ORIENTED_EDGE ( 'NONE', *, *, #78, .F. ) ;
#380 = PRODUCT_DEFINITION_SHAPE ( 'NONE', 'NONE',  #280 ) ;
#381 = EDGE_CURVE ( 'NONE', #243, #68, #312, .T. ) ;
ENDSEC;
END-ISO-10303-21;
