ISO-10303-21;
HEADER;
FILE_DESCRIPTION (( 'STEP AP203' ),
    '1' );
FILE_NAME ('d7ad.STEP',
    '2022-07-08T15:15:27',
    ( '' ),
    ( '' ),
    'SwSTEP 2.0',
    'SolidWorks 2019',
    '' );
FILE_SCHEMA (( 'CONFIG_CONTROL_DESIGN' ));
ENDSEC;

DATA;
#1 = ORIENTED_EDGE ( 'NONE', *, *, #200, .T. ) ;
#2 = AXIS2_PLACEMENT_3D ( 'NONE', #269, #301, #42 ) ;
#3 = CARTESIAN_POINT ( 'NONE',  ( 5.500000000000000000, 0.000000000000000000, 5.500000000000005329 ) ) ;
#4 = ORIENTED_EDGE ( 'NONE', *, *, #335, .F. ) ;
#5 = DIRECTION ( 'NONE',  ( 0.000000000000000000, -1.000000000000000000, 0.000000000000000000 ) ) ;
#6 = VERTEX_POINT ( 'NONE', #249 ) ;
#7 = ADVANCED_FACE ( 'NONE', ( #304, #280 ), #247, .T. ) ;
#8 = FACE_BOUND ( 'NONE', #123, .T. ) ;
#9 = DIRECTION ( 'NONE',  ( 1.000000000000000000, 0.000000000000000000, 0.000000000000000000 ) ) ;
#10 = AXIS2_PLACEMENT_3D ( 'NONE', #32, #56, #294 ) ;
#11 = DIRECTION ( 'NONE',  ( 0.000000000000000000, 0.000000000000000000, 1.000000000000000000 ) ) ;
#12 = ORIENTED_EDGE ( 'NONE', *, *, #351, .T. ) ;
#13 = APPROVAL_ROLE ( '' ) ;
#14 = DIRECTION ( 'NONE',  ( 1.000000000000000000, 0.000000000000000000, -0.000000000000000000 ) ) ;
#15 = CALENDAR_DATE ( 2022, 8, 7 ) ;
#16 = LOCAL_TIME ( 17, 15, 27.00000000000000000, #19 ) ;
#17 = CALENDAR_DATE ( 2022, 8, 7 ) ;
#18 = DIRECTION ( 'NONE',  ( 0.000000000000000000, 0.000000000000000000, 1.000000000000000000 ) ) ;
#19 = COORDINATED_UNIVERSAL_TIME_OFFSET ( 1, 0, .AHEAD. ) ;
#20 = DIRECTION ( 'NONE',  ( 1.000000000000000000, 0.000000000000000000, 0.000000000000000000 ) ) ;
#21 = DIRECTION ( 'NONE',  ( 0.000000000000000000, 0.000000000000000000, 1.000000000000000000 ) ) ;
#22 = VECTOR ( 'NONE', #338, 1000.000000000000000 ) ;
#23 = LOCAL_TIME ( 17, 15, 27.00000000000000000, #43 ) ;
#24 = FACE_OUTER_BOUND ( 'NONE', #215, .T. ) ;
#25 = ORIENTED_EDGE ( 'NONE', *, *, #75, .T. ) ;
#26 = ADVANCED_FACE ( 'NONE', ( #369 ), #360, .F. ) ;
#27 = DIRECTION ( 'NONE',  ( 1.000000000000000000, 0.000000000000000000, 0.000000000000000000 ) ) ;
#28 = DIRECTION ( 'NONE',  ( 0.000000000000000000, 0.000000000000000000, -1.000000000000000000 ) ) ;
#29 = CIRCLE ( 'NONE', #49, 0.5000000000000004441 ) ;
#30 = VERTEX_POINT ( 'NONE', #129 ) ;
#31 = CARTESIAN_POINT ( 'NONE',  ( -5.500000000000000000, 6.735557395310442023E-16, 5.000000000000002665 ) ) ;
#32 = CARTESIAN_POINT ( 'NONE',  ( 0.000000000000000000, 0.000000000000000000, 5.000000000000000000 ) ) ;
#33 = ORIENTED_EDGE ( 'NONE', *, *, #306, .F. ) ;
#34 = AXIS2_PLACEMENT_3D ( 'NONE', #208, #152, #146 ) ;
#35 = CARTESIAN_POINT ( 'NONE',  ( 0.000000000000000000, 0.000000000000000000, 455.0000000000000000 ) ) ;
#36 = EDGE_LOOP ( 'NONE', ( #142, #139 ) ) ;
#37 = PRODUCT_DEFINITION ( 'NEZNÁMÝ', '', #255, #323 ) ;
#38 = LINE ( 'NONE', #95, #121 ) ;
#39 = ORIENTED_EDGE ( 'NONE', *, *, #231, .F. ) ;
#40 = DIRECTION ( 'NONE',  ( 1.000000000000000000, 0.000000000000000000, 0.000000000000000000 ) ) ;
#41 = AXIS2_PLACEMENT_3D ( 'NONE', #164, #225, #70 ) ;
#42 = DIRECTION ( 'NONE',  ( -1.000000000000000000, 0.000000000000000000, 0.000000000000000000 ) ) ;
#43 = COORDINATED_UNIVERSAL_TIME_OFFSET ( 1, 0, .AHEAD. ) ;
#44 = CARTESIAN_POINT ( 'NONE',  ( -5.000000000000000000, 0.000000000000000000, 455.0000000000000000 ) ) ;
#45 = PRODUCT_RELATED_PRODUCT_CATEGORY ( 'detail', '', ( #305 ) ) ;
#46 = PERSON_AND_ORGANIZATION_ROLE ( 'creator' ) ;
#47 = COORDINATED_UNIVERSAL_TIME_OFFSET ( 1, 0, .AHEAD. ) ;
#48 = DIRECTION ( 'NONE',  ( 1.000000000000000000, 0.000000000000000000, -0.000000000000000000 ) ) ;
#49 = AXIS2_PLACEMENT_3D ( 'NONE', #3, #5, #119 ) ;
#50 = LINE ( 'NONE', #167, #340 ) ;
#51 = VERTEX_POINT ( 'NONE', #372 ) ;
#52 = EDGE_CURVE ( 'NONE', #300, #30, #156, .T. ) ;
#53 = DIRECTION ( 'NONE',  ( 1.000000000000000000, 0.000000000000000000, 0.000000000000000000 ) ) ;
#54 = ORIENTED_EDGE ( 'NONE', *, *, #335, .T. ) ;
#55 = DIRECTION ( 'NONE',  ( 1.000000000000000000, 0.000000000000000000, 0.000000000000000000 ) ) ;
#56 = DIRECTION ( 'NONE',  ( -0.000000000000000000, -0.000000000000000000, -1.000000000000000000 ) ) ;
#57 = ADVANCED_FACE ( 'NONE', ( #251, #342 ), #272, .F. ) ;
#58 = ORIENTED_EDGE ( 'NONE', *, *, #368, .T. ) ;
#59 = CC_DESIGN_APPROVAL ( #162, ( #230 ) ) ;
#60 = LOCAL_TIME ( 17, 15, 27.00000000000000000, #279 ) ;
#61 = VERTEX_POINT ( 'NONE', #311 ) ;
#62 = DIRECTION ( 'NONE',  ( -1.000000000000000000, 0.000000000000000000, 0.000000000000000000 ) ) ;
#63 = EDGE_LOOP ( 'NONE', ( #349, #12 ) ) ;
#64 = EDGE_CURVE ( 'NONE', #86, #61, #89, .T. ) ;
#65 = DIRECTION ( 'NONE',  ( -0.000000000000000000, -0.000000000000000000, -1.000000000000000000 ) ) ;
#66 = EDGE_LOOP ( 'NONE', ( #183, #39, #88, #329 ) ) ;
#67 = AXIS2_PLACEMENT_3D ( 'NONE', #284, #285, #138 ) ;
#68 = PERSON_AND_ORGANIZATION ( #224, #274 ) ;
#69 = AXIS2_PLACEMENT_3D ( 'NONE', #289, #259, #27 ) ;
#70 = DIRECTION ( 'NONE',  ( -1.000000000000000000, 1.224646799147351482E-16, 0.000000000000000000 ) ) ;
#71 = APPROVAL_ROLE ( '' ) ;
#72 = CARTESIAN_POINT ( 'NONE',  ( 0.000000000000000000, 0.000000000000000000, 455.0000000000000000 ) ) ;
#73 =( NAMED_UNIT ( * ) PLANE_ANGLE_UNIT ( ) SI_UNIT ( $, .RADIAN. ) );
#74 = DIRECTION ( 'NONE',  ( 0.000000000000000000, 0.000000000000000000, 1.000000000000000000 ) ) ;
#75 = EDGE_CURVE ( 'NONE', #61, #359, #253, .T. ) ;
#76 = CARTESIAN_POINT ( 'NONE',  ( 0.000000000000000000, 0.000000000000000000, 0.000000000000000000 ) ) ;
#77 = DIRECTION ( 'NONE',  ( 0.000000000000000000, 0.000000000000000000, 1.000000000000000000 ) ) ;
#78 = AXIS2_PLACEMENT_3D ( 'NONE', #319, #228, #202 ) ;
#79 = CARTESIAN_POINT ( 'NONE',  ( 5.500000000000000000, 0.000000000000000000, 5.000000000000002665 ) ) ;
#80 = DIRECTION ( 'NONE',  ( -0.000000000000000000, -0.000000000000000000, -1.000000000000000000 ) ) ;
#81 = FACE_OUTER_BOUND ( 'NONE', #66, .T. ) ;
#82 = APPROVAL_PERSON_ORGANIZATION ( #105, #347, #128 ) ;
#83 = PRODUCT_DEFINITION_SHAPE ( 'NONE', 'NONE',  #37 ) ;
#84 = DIRECTION ( 'NONE',  ( 0.000000000000000000, 0.000000000000000000, 1.000000000000000000 ) ) ;
#85 = CARTESIAN_POINT ( 'NONE',  ( -8.000000000000000000, 0.000000000000000000, 0.000000000000000000 ) ) ;
#86 = VERTEX_POINT ( 'NONE', #374 ) ;
#87 = FACE_OUTER_BOUND ( 'NONE', #286, .T. ) ;
#88 = ORIENTED_EDGE ( 'NONE', *, *, #236, .T. ) ;
#89 = CIRCLE ( 'NONE', #196, 2.500000000000000000 ) ;
#90 = AXIS2_PLACEMENT_3D ( 'NONE', #184, #150, #40 ) ;
#91 = CYLINDRICAL_SURFACE ( 'NONE', #2, 5.000000000000000000 ) ;
#92 = EDGE_LOOP ( 'NONE', ( #101, #367, #1, #185 ) ) ;
#93 = DIRECTION ( 'NONE',  ( 0.000000000000000000, 0.000000000000000000, 1.000000000000000000 ) ) ;
#94 = ORIENTED_EDGE ( 'NONE', *, *, #213, .F. ) ;
#95 = CARTESIAN_POINT ( 'NONE',  ( -8.000000000000000000, 0.000000000000000000, 5.000000000000000000 ) ) ;
#96 = AXIS2_PLACEMENT_3D ( 'NONE', #210, #212, #62 ) ;
#97 = FACE_OUTER_BOUND ( 'NONE', #63, .T. ) ;
#98 = VERTEX_POINT ( 'NONE', #79 ) ;
#99 = EDGE_LOOP ( 'NONE', ( #357, #238, #265, #375 ) ) ;
#100 = APPROVAL_DATE_TIME ( #130, #209 ) ;
#101 = ORIENTED_EDGE ( 'NONE', *, *, #381, .F. ) ;
#102 = PERSON_AND_ORGANIZATION ( #224, #274 ) ;
#103 = EDGE_CURVE ( 'NONE', #30, #203, #221, .T. ) ;
#104 = ORIENTED_EDGE ( 'NONE', *, *, #213, .T. ) ;
#105 = PERSON_AND_ORGANIZATION ( #224, #274 ) ;
#106 = PERSON_AND_ORGANIZATION_ROLE ( 'creator' ) ;
#107 = AXIS2_PLACEMENT_3D ( 'NONE', #169, #136, #380 ) ;
#108 = EDGE_CURVE ( 'NONE', #300, #174, #352, .T. ) ;
#109 = DIRECTION ( 'NONE',  ( 0.000000000000000000, 0.000000000000000000, -1.000000000000000000 ) ) ;
#110 = EDGE_LOOP ( 'NONE', ( #322, #176 ) ) ;
#111 = DIRECTION ( 'NONE',  ( -1.000000000000000000, 0.000000000000000000, 0.000000000000000000 ) ) ;
#112 = AXIS2_PLACEMENT_3D ( 'NONE', #344, #28, #111 ) ;
#113 = DIRECTION ( 'NONE',  ( 0.000000000000000000, 0.000000000000000000, 1.000000000000000000 ) ) ;
#114 = CC_DESIGN_PERSON_AND_ORGANIZATION_ASSIGNMENT ( #163, #341, ( #230 ) ) ;
#115 = ORIENTED_EDGE ( 'NONE', *, *, #64, .T. ) ;
#116 = ORIENTED_EDGE ( 'NONE', *, *, #263, .T. ) ;
#117 = CIRCLE ( 'NONE', #10, 5.500000000000000000 ) ;
#118 = DIRECTION ( 'NONE',  ( 1.000000000000000000, 0.000000000000000000, 0.000000000000000000 ) ) ;
#119 = DIRECTION ( 'NONE',  ( 0.000000000000000000, 0.000000000000000000, -1.000000000000000000 ) ) ;
#120 = VERTEX_POINT ( 'NONE', #308 ) ;
#121 = VECTOR ( 'NONE', #122, 1000.000000000000000 ) ;
#122 = DIRECTION ( 'NONE',  ( -0.000000000000000000, -0.000000000000000000, -1.000000000000000000 ) ) ;
#123 = EDGE_LOOP ( 'NONE', ( #116, #363 ) ) ;
#124 = CALENDAR_DATE ( 2022, 8, 7 ) ;
#125 = ADVANCED_FACE ( 'NONE', ( #343 ), #165, .T. ) ;
#126 = AXIS2_PLACEMENT_3D ( 'NONE', #273, #74, #191 ) ;
#127 = VECTOR ( 'NONE', #109, 1000.000000000000000 ) ;
#128 = APPROVAL_ROLE ( '' ) ;
#129 = CARTESIAN_POINT ( 'NONE',  ( -5.000000000000000000, 0.000000000000000000, 5.500000000000005329 ) ) ;
#130 = DATE_AND_TIME ( #313, #287 ) ;
#131 = DIRECTION ( 'NONE',  ( 1.000000000000000000, 0.000000000000000000, 0.000000000000000000 ) ) ;
#132 = AXIS2_PLACEMENT_3D ( 'NONE', #361, #239, #9 ) ;
#133 = MANIFOLD_SOLID_BREP ( 'Odebrat vysunutím3', #295 ) ;
#134 = CARTESIAN_POINT ( 'NONE',  ( 0.000000000000000000, 0.000000000000000000, 0.000000000000000000 ) ) ;
#135 = EDGE_CURVE ( 'NONE', #270, #180, #177, .T. ) ;
#136 = DIRECTION ( 'NONE',  ( -0.000000000000000000, -0.000000000000000000, -1.000000000000000000 ) ) ;
#137 = VECTOR ( 'NONE', #65, 1000.000000000000000 ) ;
#138 = DIRECTION ( 'NONE',  ( 1.000000000000000000, 0.000000000000000000, 0.000000000000000000 ) ) ;
#139 = ORIENTED_EDGE ( 'NONE', *, *, #312, .F. ) ;
#140 = LINE ( 'NONE', #316, #127 ) ;
#141 = CC_DESIGN_PERSON_AND_ORGANIZATION_ASSIGNMENT ( #193, #46, ( #37 ) ) ;
#142 = ORIENTED_EDGE ( 'NONE', *, *, #64, .F. ) ;
#143 = CARTESIAN_POINT ( 'NONE',  ( 2.500000000000000000, 3.061616997868382648E-16, 0.000000000000000000 ) ) ;
#144 = ORIENTED_EDGE ( 'NONE', *, *, #263, .F. ) ;
#145 = CIRCLE ( 'NONE', #69, 5.000000000000000000 ) ;
#146 = DIRECTION ( 'NONE',  ( 1.000000000000000000, 0.000000000000000000, 0.000000000000000000 ) ) ;
#147 = ORIENTED_EDGE ( 'NONE', *, *, #75, .F. ) ;
#148 = ORIENTED_EDGE ( 'NONE', *, *, #312, .T. ) ;
#149 = ADVANCED_FACE ( 'NONE', ( #24 ), #256, .F. ) ;
#150 = DIRECTION ( 'NONE',  ( -0.000000000000000000, -0.000000000000000000, -1.000000000000000000 ) ) ;
#151 = TOROIDAL_SURFACE ( 'NONE', #370, 5.500000000000000000, 0.5000000000000000000 ) ;
#152 = DIRECTION ( 'NONE',  ( -0.000000000000000000, -0.000000000000000000, -1.000000000000000000 ) ) ;
#153 = AXIS2_PLACEMENT_3D ( 'NONE', #278, #195, #131 ) ;
#154 = EDGE_LOOP ( 'NONE', ( #147, #148, #104, #291 ) ) ;
#155 = CALENDAR_DATE ( 2022, 8, 7 ) ;
#156 = LINE ( 'NONE', #44, #22 ) ;
#157 = EDGE_CURVE ( 'NONE', #180, #270, #268, .T. ) ;
#158 = APPLICATION_CONTEXT ( 'configuration controlled 3d designs of mechanical parts and assemblies' ) ;
#159 = COORDINATED_UNIVERSAL_TIME_OFFSET ( 1, 0, .AHEAD. ) ;
#160 = APPROVAL_PERSON_ORGANIZATION ( #102, #209, #13 ) ;
#161 = DIRECTION ( 'NONE',  ( 1.000000000000000000, 0.000000000000000000, 0.000000000000000000 ) ) ;
#162 = APPROVAL ( #187, 'NEURÈENÝ' ) ;
#163 = PERSON_AND_ORGANIZATION ( #224, #274 ) ;
#164 = CARTESIAN_POINT ( 'NONE',  ( -5.500000000000000000, 6.735557395310442023E-16, 5.500000000000005329 ) ) ;
#165 = CYLINDRICAL_SURFACE ( 'NONE', #235, 8.000000000000000000 ) ;
#166 = AXIS2_PLACEMENT_3D ( 'NONE', #264, #354, #118 ) ;
#167 = CARTESIAN_POINT ( 'NONE',  ( 5.000000000000000000, 6.123233995736766282E-16, 455.0000000000000000 ) ) ;
#168 = ADVANCED_FACE ( 'NONE', ( #232 ), #197, .F. ) ;
#169 = CARTESIAN_POINT ( 'NONE',  ( 0.000000000000000000, 0.000000000000000000, 5.000000000000000000 ) ) ;
#170 = EDGE_LOOP ( 'NONE', ( #293, #33 ) ) ;
#171 = VECTOR ( 'NONE', #218, 1000.000000000000000 ) ;
#172 = CIRCLE ( 'NONE', #186, 2.500000000000000000 ) ;
#173 = ADVANCED_FACE ( 'NONE', ( #81 ), #260, .T. ) ;
#174 = VERTEX_POINT ( 'NONE', #350 ) ;
#175 = LINE ( 'NONE', #330, #137 ) ;
#176 = ORIENTED_EDGE ( 'NONE', *, *, #135, .F. ) ;
#177 = CIRCLE ( 'NONE', #67, 8.000000000000000000 ) ;
#178 = AXIS2_PLACEMENT_3D ( 'NONE', #134, #113, #53 ) ;
#179 = CARTESIAN_POINT ( 'NONE',  ( -5.000000000000000000, 0.000000000000000000, 455.0000000000000000 ) ) ;
#180 = VERTEX_POINT ( 'NONE', #85 ) ;
#181 = EDGE_CURVE ( 'NONE', #203, #98, #320, .T. ) ;
#182 = CARTESIAN_POINT ( 'NONE',  ( 0.000000000000000000, 0.000000000000000000, 5.000000000000000000 ) ) ;
#183 = ORIENTED_EDGE ( 'NONE', *, *, #257, .F. ) ;
#184 = CARTESIAN_POINT ( 'NONE',  ( 0.000000000000000000, 0.000000000000000000, 0.000000000000000000 ) ) ;
#185 = ORIENTED_EDGE ( 'NONE', *, *, #52, .F. ) ;
#186 = AXIS2_PLACEMENT_3D ( 'NONE', #35, #11, #234 ) ;
#187 = APPROVAL_STATUS ( 'not_yet_approved' ) ;
#188 = CARTESIAN_POINT ( 'NONE',  ( 0.000000000000000000, 0.000000000000000000, 0.000000000000000000 ) ) ;
#189 = DATE_AND_TIME ( #155, #23 ) ;
#190 = APPLICATION_PROTOCOL_DEFINITION ( 'international standard', 'config_control_design', 1994, #226 ) ;
#191 = DIRECTION ( 'NONE',  ( 1.000000000000000000, 0.000000000000000000, 0.000000000000000000 ) ) ;
#192 = AXIS2_PLACEMENT_3D ( 'NONE', #237, #358, #327 ) ;
#193 = PERSON_AND_ORGANIZATION ( #224, #274 ) ;
#194 = APPLICATION_PROTOCOL_DEFINITION ( 'international standard', 'config_control_design', 1994, #158 ) ;
#195 = DIRECTION ( 'NONE',  ( 0.000000000000000000, 0.000000000000000000, 1.000000000000000000 ) ) ;
#196 = AXIS2_PLACEMENT_3D ( 'NONE', #72, #21, #20 ) ;
#197 = CYLINDRICAL_SURFACE ( 'NONE', #78, 2.500000000000000000 ) ;
#198 = ADVANCED_FACE ( 'NONE', ( #87 ), #151, .F. ) ;
#199 = CIRCLE ( 'NONE', #34, 2.500000000000000000 ) ;
#200 = EDGE_CURVE ( 'NONE', #120, #30, #145, .T. ) ;
#201 = UNCERTAINTY_MEASURE_WITH_UNIT (LENGTH_MEASURE( 1.000000000000000082E-05 ), #336, 'distance_accuracy_value', 'NONE');
#202 = DIRECTION ( 'NONE',  ( -1.000000000000000000, 0.000000000000000000, 0.000000000000000000 ) ) ;
#203 = VERTEX_POINT ( 'NONE', #31 ) ;
#204 = CC_DESIGN_APPROVAL ( #347, ( #37 ) ) ;
#205 = CARTESIAN_POINT ( 'NONE',  ( 0.000000000000000000, 0.000000000000000000, 5.000000000000000000 ) ) ;
#206 = FACE_OUTER_BOUND ( 'NONE', #92, .T. ) ;
#207 = ORIENTED_EDGE ( 'NONE', *, *, #52, .T. ) ;
#208 = CARTESIAN_POINT ( 'NONE',  ( 0.000000000000000000, 0.000000000000000000, 0.000000000000000000 ) ) ;
#209 = APPROVAL ( #219, 'NEURÈENÝ' ) ;
#210 = CARTESIAN_POINT ( 'NONE',  ( 0.000000000000000000, 0.000000000000000000, 455.0000000000000000 ) ) ;
#211 = EDGE_LOOP ( 'NONE', ( #4, #298, #144, #365 ) ) ;
#212 = DIRECTION ( 'NONE',  ( -0.000000000000000000, -0.000000000000000000, -1.000000000000000000 ) ) ;
#213 = EDGE_CURVE ( 'NONE', #86, #6, #140, .T. ) ;
#214 = DATE_AND_TIME ( #124, #60 ) ;
#215 = EDGE_LOOP ( 'NONE', ( #115, #25, #317, #94 ) ) ;
#216 = AXIS2_PLACEMENT_3D ( 'NONE', #205, #324, #55 ) ;
#217 = DATE_AND_TIME ( #15, #241 ) ;
#218 = DIRECTION ( 'NONE',  ( 0.000000000000000000, 0.000000000000000000, -1.000000000000000000 ) ) ;
#219 = APPROVAL_STATUS ( 'not_yet_approved' ) ;
#220 = DATE_AND_TIME ( #17, #16 ) ;
#221 = CIRCLE ( 'NONE', #41, 0.5000000000000004441 ) ;
#222 = PERSON_AND_ORGANIZATION_ROLE ( 'design_supplier' ) ;
#223 = CARTESIAN_POINT ( 'NONE',  ( 0.000000000000000000, 0.000000000000000000, 455.0000000000000000 ) ) ;
#224 = PERSON ( 'NEURÈENÝ', 'NEURÈENÝ', 'NEURÈENÝ', ('NEURÈENÝ'), ('NEURÈENÝ'), ('NEURÈENÝ') ) ;
#225 = DIRECTION ( 'NONE',  ( 1.224646799147353207E-16, 1.000000000000000000, -0.000000000000000000 ) ) ;
#226 = APPLICATION_CONTEXT ( 'configuration controlled 3d designs of mechanical parts and assemblies' ) ;
#227 = EDGE_CURVE ( 'NONE', #174, #120, #50, .T. ) ;
#228 = DIRECTION ( 'NONE',  ( 0.000000000000000000, 0.000000000000000000, -1.000000000000000000 ) ) ;
#229 = APPROVAL_PERSON_ORGANIZATION ( #68, #162, #71 ) ;
#230 = SECURITY_CLASSIFICATION ( '', '', #366 ) ;
#231 = EDGE_CURVE ( 'NONE', #51, #240, #258, .T. ) ;
#232 = FACE_OUTER_BOUND ( 'NONE', #154, .T. ) ;
#233 = ORIENTED_EDGE ( 'NONE', *, *, #227, .F. ) ;
#234 = DIRECTION ( 'NONE',  ( 1.000000000000000000, 0.000000000000000000, 0.000000000000000000 ) ) ;
#235 = AXIS2_PLACEMENT_3D ( 'NONE', #288, #377, #314 ) ;
#236 = EDGE_CURVE ( 'NONE', #51, #180, #38, .T. ) ;
#237 = CARTESIAN_POINT ( 'NONE',  ( 0.000000000000000000, 0.000000000000000000, 455.0000000000000000 ) ) ;
#238 = ORIENTED_EDGE ( 'NONE', *, *, #257, .T. ) ;
#239 = DIRECTION ( 'NONE',  ( 0.000000000000000000, 0.000000000000000000, 1.000000000000000000 ) ) ;
#240 = VERTEX_POINT ( 'NONE', #356 ) ;
#241 = LOCAL_TIME ( 17, 15, 27.00000000000000000, #159 ) ;
#242 = FACE_OUTER_BOUND ( 'NONE', #328, .T. ) ;
#243 = ORIENTED_EDGE ( 'NONE', *, *, #103, .F. ) ;
#244 = ADVANCED_FACE ( 'NONE', ( #8, #97 ), #364, .T. ) ;
#245 = PERSON_AND_ORGANIZATION ( #224, #274 ) ;
#246 = ORIENTED_EDGE ( 'NONE', *, *, #108, .T. ) ;
#247 = PLANE ( 'NONE',  #339 ) ;
#248 = PERSON_AND_ORGANIZATION_ROLE ( 'design_owner' ) ;
#249 = CARTESIAN_POINT ( 'NONE',  ( -2.500000000000000000, 0.000000000000000000, 0.000000000000000000 ) ) ;
#250 = ADVANCED_FACE ( 'NONE', ( #206 ), #325, .T. ) ;
#251 = FACE_BOUND ( 'NONE', #170, .T. ) ;
#252 =( NAMED_UNIT ( * ) SI_UNIT ( $, .STERADIAN. ) SOLID_ANGLE_UNIT ( ) );
#253 = LINE ( 'NONE', #337, #171 ) ;
#254 = AXIS2_PLACEMENT_3D ( 'NONE', #188, #77, #14 ) ;
#255 = PRODUCT_DEFINITION_FORMATION_WITH_SPECIFIED_SOURCE ( 'LIBOVOLNÝ', '', #305, .NOT_KNOWN. ) ;
#256 = CYLINDRICAL_SURFACE ( 'NONE', #112, 2.500000000000000000 ) ;
#257 = EDGE_CURVE ( 'NONE', #240, #270, #175, .T. ) ;
#258 = CIRCLE ( 'NONE', #132, 8.000000000000000000 ) ;
#259 = DIRECTION ( 'NONE',  ( 0.000000000000000000, 0.000000000000000000, 1.000000000000000000 ) ) ;
#260 = CYLINDRICAL_SURFACE ( 'NONE', #282, 8.000000000000000000 ) ;
#261 = CARTESIAN_POINT ( 'NONE',  ( 0.000000000000000000, 0.000000000000000000, 5.500000000000005329 ) ) ;
#262 =( GEOMETRIC_REPRESENTATION_CONTEXT ( 3 ) GLOBAL_UNCERTAINTY_ASSIGNED_CONTEXT ( ( #201 ) ) GLOBAL_UNIT_ASSIGNED_CONTEXT ( ( #336, #73, #252 ) ) REPRESENTATION_CONTEXT ( 'NONE', 'WORKASPACE' ) );
#263 = EDGE_CURVE ( 'NONE', #98, #203, #117, .T. ) ;
#264 = CARTESIAN_POINT ( 'NONE',  ( 0.000000000000000000, 0.000000000000000000, 5.500000000000005329 ) ) ;
#265 = ORIENTED_EDGE ( 'NONE', *, *, #135, .T. ) ;
#266 = CARTESIAN_POINT ( 'NONE',  ( 8.000000000000000000, 9.797174393178825657E-16, 0.000000000000000000 ) ) ;
#267 = EDGE_CURVE ( 'NONE', #6, #359, #315, .T. ) ;
#268 = CIRCLE ( 'NONE', #178, 8.000000000000000000 ) ;
#269 = CARTESIAN_POINT ( 'NONE',  ( 0.000000000000000000, 0.000000000000000000, 455.0000000000000000 ) ) ;
#270 = VERTEX_POINT ( 'NONE', #266 ) ;
#271 = APPROVAL_DATE_TIME ( #217, #347 ) ;
#272 = PLANE ( 'NONE',  #254 ) ;
#273 = CARTESIAN_POINT ( 'NONE',  ( 0.000000000000000000, 0.000000000000000000, 455.0000000000000000 ) ) ;
#274 = ORGANIZATION ( 'NEURÈENÝ', 'NEURÈENÝ', '' ) ;
#275 = CC_DESIGN_PERSON_AND_ORGANIZATION_ASSIGNMENT ( #334, #222, ( #255 ) ) ;
#276 = APPROVAL_STATUS ( 'not_yet_approved' ) ;
#277 = MECHANICAL_CONTEXT ( 'NONE', #226, 'mechanical' ) ;
#278 = CARTESIAN_POINT ( 'NONE',  ( 0.000000000000000000, 0.000000000000000000, 5.500000000000005329 ) ) ;
#279 = COORDINATED_UNIVERSAL_TIME_OFFSET ( 1, 0, .AHEAD. ) ;
#280 = FACE_OUTER_BOUND ( 'NONE', #331, .T. ) ;
#281 = CC_DESIGN_PERSON_AND_ORGANIZATION_ASSIGNMENT ( #307, #106, ( #255 ) ) ;
#282 = AXIS2_PLACEMENT_3D ( 'NONE', #379, #348, #346 ) ;
#283 = SHAPE_DEFINITION_REPRESENTATION ( #83, #290 ) ;
#284 = CARTESIAN_POINT ( 'NONE',  ( 0.000000000000000000, 0.000000000000000000, 0.000000000000000000 ) ) ;
#285 = DIRECTION ( 'NONE',  ( 0.000000000000000000, 0.000000000000000000, 1.000000000000000000 ) ) ;
#286 = EDGE_LOOP ( 'NONE', ( #243, #355, #58, #326 ) ) ;
#287 = LOCAL_TIME ( 17, 15, 27.00000000000000000, #47 ) ;
#288 = CARTESIAN_POINT ( 'NONE',  ( 0.000000000000000000, 0.000000000000000000, 5.000000000000000000 ) ) ;
#289 = CARTESIAN_POINT ( 'NONE',  ( 0.000000000000000000, 0.000000000000000000, 5.500000000000005329 ) ) ;
#290 = ADVANCED_BREP_SHAPE_REPRESENTATION ( 'd7ad', ( #133, #353 ), #262 ) ;
#291 = ORIENTED_EDGE ( 'NONE', *, *, #267, .T. ) ;
#292 = DIRECTION ( 'NONE',  ( 1.000000000000000000, 0.000000000000000000, -0.000000000000000000 ) ) ;
#293 = ORIENTED_EDGE ( 'NONE', *, *, #267, .F. ) ;
#294 = DIRECTION ( 'NONE',  ( 1.000000000000000000, 0.000000000000000000, 0.000000000000000000 ) ) ;
#295 = CLOSED_SHELL ( 'NONE', ( #149, #26, #250, #125, #173, #244, #57, #299, #7, #198, #168 ) ) ;
#296 = ORIENTED_EDGE ( 'NONE', *, *, #108, .F. ) ;
#297 = CIRCLE ( 'NONE', #192, 5.000000000000000000 ) ;
#298 = ORIENTED_EDGE ( 'NONE', *, *, #103, .T. ) ;
#299 = ADVANCED_FACE ( 'NONE', ( #242 ), #91, .T. ) ;
#300 = VERTEX_POINT ( 'NONE', #179 ) ;
#301 = DIRECTION ( 'NONE',  ( -0.000000000000000000, -0.000000000000000000, -1.000000000000000000 ) ) ;
#302 = CC_DESIGN_APPROVAL ( #209, ( #255 ) ) ;
#303 = APPROVAL_DATE_TIME ( #189, #162 ) ;
#304 = FACE_BOUND ( 'NONE', #36, .T. ) ;
#305 = PRODUCT ( 'd7ad', 'd7ad', '', ( #277 ) ) ;
#306 = EDGE_CURVE ( 'NONE', #359, #6, #199, .T. ) ;
#307 = PERSON_AND_ORGANIZATION ( #224, #274 ) ;
#308 = CARTESIAN_POINT ( 'NONE',  ( 5.000000000000000000, 6.123233995736766282E-16, 5.500000000000005329 ) ) ;
#309 = AXIS2_PLACEMENT_3D ( 'NONE', #182, #93, #292 ) ;
#310 = DIRECTION ( 'NONE',  ( 0.000000000000000000, 0.000000000000000000, 1.000000000000000000 ) ) ;
#311 = CARTESIAN_POINT ( 'NONE',  ( 2.500000000000000000, 3.061616997868382648E-16, 455.0000000000000000 ) ) ;
#312 = EDGE_CURVE ( 'NONE', #61, #86, #172, .T. ) ;
#313 = CALENDAR_DATE ( 2022, 8, 7 ) ;
#314 = DIRECTION ( 'NONE',  ( -1.000000000000000000, 0.000000000000000000, 0.000000000000000000 ) ) ;
#315 = CIRCLE ( 'NONE', #90, 2.500000000000000000 ) ;
#316 = CARTESIAN_POINT ( 'NONE',  ( -2.500000000000000000, 0.000000000000000000, 455.0000000000000000 ) ) ;
#317 = ORIENTED_EDGE ( 'NONE', *, *, #306, .T. ) ;
#318 = CC_DESIGN_PERSON_AND_ORGANIZATION_ASSIGNMENT ( #245, #248, ( #305 ) ) ;
#319 = CARTESIAN_POINT ( 'NONE',  ( 0.000000000000000000, 0.000000000000000000, 455.0000000000000000 ) ) ;
#320 = CIRCLE ( 'NONE', #107, 5.500000000000000000 ) ;
#321 = DIRECTION ( 'NONE',  ( 1.000000000000000000, 0.000000000000000000, 0.000000000000000000 ) ) ;
#322 = ORIENTED_EDGE ( 'NONE', *, *, #157, .F. ) ;
#323 = DESIGN_CONTEXT ( 'detailed design', #158, 'design' ) ;
#324 = DIRECTION ( 'NONE',  ( 0.000000000000000000, 0.000000000000000000, 1.000000000000000000 ) ) ;
#325 = CYLINDRICAL_SURFACE ( 'NONE', #96, 5.000000000000000000 ) ;
#326 = ORIENTED_EDGE ( 'NONE', *, *, #181, .F. ) ;
#327 = DIRECTION ( 'NONE',  ( 1.000000000000000000, 0.000000000000000000, 0.000000000000000000 ) ) ;
#328 = EDGE_LOOP ( 'NONE', ( #233, #296, #207, #54 ) ) ;
#329 = ORIENTED_EDGE ( 'NONE', *, *, #157, .T. ) ;
#330 = CARTESIAN_POINT ( 'NONE',  ( 8.000000000000000000, 9.797174393178825657E-16, 5.000000000000000000 ) ) ;
#331 = EDGE_LOOP ( 'NONE', ( #246, #333 ) ) ;
#332 = DATE_TIME_ROLE ( 'classification_date' ) ;
#333 = ORIENTED_EDGE ( 'NONE', *, *, #381, .T. ) ;
#334 = PERSON_AND_ORGANIZATION ( #224, #274 ) ;
#335 = EDGE_CURVE ( 'NONE', #30, #120, #362, .T. ) ;
#336 =( LENGTH_UNIT ( ) NAMED_UNIT ( * ) SI_UNIT ( .MILLI., .METRE. ) );
#337 = CARTESIAN_POINT ( 'NONE',  ( 2.500000000000000000, 3.061616997868382648E-16, 455.0000000000000000 ) ) ;
#338 = DIRECTION ( 'NONE',  ( -0.000000000000000000, -0.000000000000000000, -1.000000000000000000 ) ) ;
#339 = AXIS2_PLACEMENT_3D ( 'NONE', #223, #18, #48 ) ;
#340 = VECTOR ( 'NONE', #80, 1000.000000000000000 ) ;
#341 = PERSON_AND_ORGANIZATION_ROLE ( 'classification_officer' ) ;
#342 = FACE_OUTER_BOUND ( 'NONE', #110, .T. ) ;
#343 = FACE_OUTER_BOUND ( 'NONE', #99, .T. ) ;
#344 = CARTESIAN_POINT ( 'NONE',  ( 0.000000000000000000, 0.000000000000000000, 455.0000000000000000 ) ) ;
#345 = CIRCLE ( 'NONE', #216, 8.000000000000000000 ) ;
#346 = DIRECTION ( 'NONE',  ( -1.000000000000000000, 0.000000000000000000, 0.000000000000000000 ) ) ;
#347 = APPROVAL ( #276, 'NEURÈENÝ' ) ;
#348 = DIRECTION ( 'NONE',  ( -0.000000000000000000, -0.000000000000000000, -1.000000000000000000 ) ) ;
#349 = ORIENTED_EDGE ( 'NONE', *, *, #231, .T. ) ;
#350 = CARTESIAN_POINT ( 'NONE',  ( 5.000000000000000000, 6.123233995736766282E-16, 455.0000000000000000 ) ) ;
#351 = EDGE_CURVE ( 'NONE', #240, #51, #345, .T. ) ;
#352 = CIRCLE ( 'NONE', #126, 5.000000000000000000 ) ;
#353 = AXIS2_PLACEMENT_3D ( 'NONE', #76, #310, #161 ) ;
#354 = DIRECTION ( 'NONE',  ( 0.000000000000000000, 0.000000000000000000, 1.000000000000000000 ) ) ;
#355 = ORIENTED_EDGE ( 'NONE', *, *, #200, .F. ) ;
#356 = CARTESIAN_POINT ( 'NONE',  ( 8.000000000000000000, 9.797174393178825657E-16, 5.000000000000000000 ) ) ;
#357 = ORIENTED_EDGE ( 'NONE', *, *, #351, .F. ) ;
#358 = DIRECTION ( 'NONE',  ( 0.000000000000000000, 0.000000000000000000, 1.000000000000000000 ) ) ;
#359 = VERTEX_POINT ( 'NONE', #143 ) ;
#360 = TOROIDAL_SURFACE ( 'NONE', #153, 5.500000000000000000, 0.5000000000000000000 ) ;
#361 = CARTESIAN_POINT ( 'NONE',  ( 0.000000000000000000, 0.000000000000000000, 5.000000000000000000 ) ) ;
#362 = CIRCLE ( 'NONE', #166, 5.000000000000000000 ) ;
#363 = ORIENTED_EDGE ( 'NONE', *, *, #181, .T. ) ;
#364 = PLANE ( 'NONE',  #309 ) ;
#365 = ORIENTED_EDGE ( 'NONE', *, *, #368, .F. ) ;
#366 = SECURITY_CLASSIFICATION_LEVEL ( 'unclassified' ) ;
#367 = ORIENTED_EDGE ( 'NONE', *, *, #227, .T. ) ;
#368 = EDGE_CURVE ( 'NONE', #120, #98, #29, .T. ) ;
#369 = FACE_OUTER_BOUND ( 'NONE', #211, .T. ) ;
#370 = AXIS2_PLACEMENT_3D ( 'NONE', #261, #84, #321 ) ;
#371 = DATE_TIME_ROLE ( 'creation_date' ) ;
#372 = CARTESIAN_POINT ( 'NONE',  ( -8.000000000000000000, 0.000000000000000000, 5.000000000000000000 ) ) ;
#373 = CC_DESIGN_DATE_AND_TIME_ASSIGNMENT ( #214, #332, ( #230 ) ) ;
#374 = CARTESIAN_POINT ( 'NONE',  ( -2.500000000000000000, 0.000000000000000000, 455.0000000000000000 ) ) ;
#375 = ORIENTED_EDGE ( 'NONE', *, *, #236, .F. ) ;
#376 = CC_DESIGN_DATE_AND_TIME_ASSIGNMENT ( #220, #371, ( #37 ) ) ;
#377 = DIRECTION ( 'NONE',  ( -0.000000000000000000, -0.000000000000000000, -1.000000000000000000 ) ) ;
#378 = CC_DESIGN_SECURITY_CLASSIFICATION ( #230, ( #255 ) ) ;
#379 = CARTESIAN_POINT ( 'NONE',  ( 0.000000000000000000, 0.000000000000000000, 5.000000000000000000 ) ) ;
#380 = DIRECTION ( 'NONE',  ( 1.000000000000000000, 0.000000000000000000, 0.000000000000000000 ) ) ;
#381 = EDGE_CURVE ( 'NONE', #174, #300, #297, .T. ) ;
ENDSEC;
END-ISO-10303-21;
