ISO-10303-21;
HEADER;
FILE_DESCRIPTION (( 'STEP AP203' ),
    '1' );
FILE_NAME ('be96.STEP',
    '2022-07-08T14:57:53',
    ( '' ),
    ( '' ),
    'SwSTEP 2.0',
    'SolidWorks 2019',
    '' );
FILE_SCHEMA (( 'CONFIG_CONTROL_DESIGN' ));
ENDSEC;

DATA;
#1 = DIRECTION ( 'NONE',  ( 1.000000000000000000, 0.000000000000000000, 0.000000000000000000 ) ) ;
#2 = AXIS2_PLACEMENT_3D ( 'NONE', #63, #127, #334 ) ;
#3 = ADVANCED_FACE ( 'NONE', ( #100, #138 ), #22, .T. ) ;
#4 = ORIENTED_EDGE ( 'NONE', *, *, #246, .F. ) ;
#5 = EDGE_CURVE ( 'NONE', #41, #154, #186, .T. ) ;
#6 = EDGE_LOOP ( 'NONE', ( #315, #148, #217, #269 ) ) ;
#7 = VERTEX_POINT ( 'NONE', #75 ) ;
#8 = FACE_OUTER_BOUND ( 'NONE', #353, .T. ) ;
#9 = EDGE_CURVE ( 'NONE', #67, #126, #35, .T. ) ;
#10 = EDGE_LOOP ( 'NONE', ( #124, #287, #151, #64 ) ) ;
#11 = CARTESIAN_POINT ( 'NONE',  ( 0.000000000000000000, 0.000000000000000000, 5.000000000000000000 ) ) ;
#12 = EDGE_CURVE ( 'NONE', #271, #330, #294, .T. ) ;
#13 = APPROVAL ( #84, 'NEURÈENÝ' ) ;
#14 = ORIENTED_EDGE ( 'NONE', *, *, #332, .F. ) ;
#15 = CARTESIAN_POINT ( 'NONE',  ( 0.000000000000000000, 0.000000000000000000, 5.500000000000005329 ) ) ;
#16 = APPROVAL_PERSON_ORGANIZATION ( #281, #42, #235 ) ;
#17 = CARTESIAN_POINT ( 'NONE',  ( 5.000000000000000000, 6.123233995736766282E-16, 5.500000000000005329 ) ) ;
#18 = DIRECTION ( 'NONE',  ( 1.000000000000000000, 0.000000000000000000, 0.000000000000000000 ) ) ;
#19 = TOROIDAL_SURFACE ( 'NONE', #324, 5.500000000000000000, 0.5000000000000000000 ) ;
#20 = MECHANICAL_CONTEXT ( 'NONE', #313, 'mechanical' ) ;
#21 = CIRCLE ( 'NONE', #97, 5.500000000000000000 ) ;
#22 = PLANE ( 'NONE',  #314 ) ;
#23 = APPROVAL_DATE_TIME ( #338, #194 ) ;
#24 = CARTESIAN_POINT ( 'NONE',  ( 0.000000000000000000, 0.000000000000000000, 230.0000000000000000 ) ) ;
#25 = APPLICATION_PROTOCOL_DEFINITION ( 'international standard', 'config_control_design', 1994, #133 ) ;
#26 = AXIS2_PLACEMENT_3D ( 'NONE', #98, #128, #18 ) ;
#27 = EDGE_CURVE ( 'NONE', #272, #60, #342, .T. ) ;
#28 = CC_DESIGN_APPROVAL ( #42, ( #183 ) ) ;
#29 = DATE_AND_TIME ( #354, #263 ) ;
#30 = CARTESIAN_POINT ( 'NONE',  ( 0.000000000000000000, 0.000000000000000000, 0.000000000000000000 ) ) ;
#31 = FACE_BOUND ( 'NONE', #219, .T. ) ;
#32 = ORIENTED_EDGE ( 'NONE', *, *, #137, .F. ) ;
#33 = ORIENTED_EDGE ( 'NONE', *, *, #87, .T. ) ;
#34 = ORIENTED_EDGE ( 'NONE', *, *, #188, .F. ) ;
#35 = CIRCLE ( 'NONE', #285, 3.000000000000000444 ) ;
#36 = ORIENTED_EDGE ( 'NONE', *, *, #328, .F. ) ;
#37 = DIRECTION ( 'NONE',  ( 0.000000000000000000, 0.000000000000000000, 1.000000000000000000 ) ) ;
#38 = EDGE_LOOP ( 'NONE', ( #178, #158, #121, #296 ) ) ;
#39 = AXIS2_PLACEMENT_3D ( 'NONE', #145, #89, #284 ) ;
#40 = FACE_OUTER_BOUND ( 'NONE', #156, .T. ) ;
#41 = VERTEX_POINT ( 'NONE', #203 ) ;
#42 = APPROVAL ( #144, 'NEURÈENÝ' ) ;
#43 = ORIENTED_EDGE ( 'NONE', *, *, #9, .F. ) ;
#44 = VECTOR ( 'NONE', #288, 1000.000000000000000 ) ;
#45 = FACE_OUTER_BOUND ( 'NONE', #55, .T. ) ;
#46 = VECTOR ( 'NONE', #366, 1000.000000000000000 ) ;
#47 = PERSON_AND_ORGANIZATION_ROLE ( 'design_owner' ) ;
#48 = LINE ( 'NONE', #293, #44 ) ;
#49 = VECTOR ( 'NONE', #255, 1000.000000000000000 ) ;
#50 = CYLINDRICAL_SURFACE ( 'NONE', #62, 3.000000000000000444 ) ;
#51 = CALENDAR_DATE ( 2022, 8, 7 ) ;
#52 = CARTESIAN_POINT ( 'NONE',  ( 5.500000000000000000, 0.000000000000000000, 5.500000000000005329 ) ) ;
#53 = PERSON_AND_ORGANIZATION ( #61, #56 ) ;
#54 = DIRECTION ( 'NONE',  ( -1.000000000000000000, 0.000000000000000000, 0.000000000000000000 ) ) ;
#55 = EDGE_LOOP ( 'NONE', ( #248, #322, #66, #4 ) ) ;
#56 = ORGANIZATION ( 'NEURÈENÝ', 'NEURÈENÝ', '' ) ;
#57 = LINE ( 'NONE', #230, #49 ) ;
#58 = CARTESIAN_POINT ( 'NONE',  ( 0.000000000000000000, 0.000000000000000000, 5.000000000000000000 ) ) ;
#59 = EDGE_CURVE ( 'NONE', #7, #325, #101, .T. ) ;
#60 = VERTEX_POINT ( 'NONE', #231 ) ;
#61 = PERSON ( 'NEURÈENÝ', 'NEURÈENÝ', 'NEURÈENÝ', ('NEURÈENÝ'), ('NEURÈENÝ'), ('NEURÈENÝ') ) ;
#62 = AXIS2_PLACEMENT_3D ( 'NONE', #164, #253, #278 ) ;
#63 = CARTESIAN_POINT ( 'NONE',  ( 0.000000000000000000, 0.000000000000000000, 5.000000000000000000 ) ) ;
#64 = ORIENTED_EDGE ( 'NONE', *, *, #59, .T. ) ;
#65 = AXIS2_PLACEMENT_3D ( 'NONE', #266, #321, #379 ) ;
#66 = ORIENTED_EDGE ( 'NONE', *, *, #310, .T. ) ;
#67 = VERTEX_POINT ( 'NONE', #309 ) ;
#68 = DIRECTION ( 'NONE',  ( 1.000000000000000000, 0.000000000000000000, 0.000000000000000000 ) ) ;
#69 = CC_DESIGN_DATE_AND_TIME_ASSIGNMENT ( #199, #173, ( #316 ) ) ;
#70 = VERTEX_POINT ( 'NONE', #234 ) ;
#71 = AXIS2_PLACEMENT_3D ( 'NONE', #134, #274, #189 ) ;
#72 = CARTESIAN_POINT ( 'NONE',  ( -5.500000000000000000, 6.735557395310442023E-16, 5.000000000000002665 ) ) ;
#73 = ORIENTED_EDGE ( 'NONE', *, *, #259, .F. ) ;
#74 = CARTESIAN_POINT ( 'NONE',  ( 0.000000000000000000, 0.000000000000000000, 230.0000000000000000 ) ) ;
#75 = CARTESIAN_POINT ( 'NONE',  ( -3.000000000000000444, 0.000000000000000000, 0.000000000000000000 ) ) ;
#76 = AXIS2_PLACEMENT_3D ( 'NONE', #140, #115, #110 ) ;
#77 = PERSON_AND_ORGANIZATION ( #61, #56 ) ;
#78 = ADVANCED_FACE ( 'NONE', ( #45 ), #50, .F. ) ;
#79 = DIRECTION ( 'NONE',  ( 0.000000000000000000, 0.000000000000000000, 1.000000000000000000 ) ) ;
#80 = PERSON_AND_ORGANIZATION_ROLE ( 'design_supplier' ) ;
#81 = DIRECTION ( 'NONE',  ( 1.000000000000000000, 0.000000000000000000, -0.000000000000000000 ) ) ;
#82 = AXIS2_PLACEMENT_3D ( 'NONE', #262, #177, #174 ) ;
#83 = CARTESIAN_POINT ( 'NONE',  ( 0.000000000000000000, 0.000000000000000000, 5.500000000000005329 ) ) ;
#84 = APPROVAL_STATUS ( 'not_yet_approved' ) ;
#85 = SHAPE_DEFINITION_REPRESENTATION ( #130, #224 ) ;
#86 = DIRECTION ( 'NONE',  ( 1.000000000000000000, 0.000000000000000000, 0.000000000000000000 ) ) ;
#87 = EDGE_CURVE ( 'NONE', #292, #333, #339, .T. ) ;
#88 = CIRCLE ( 'NONE', #218, 5.000000000000000000 ) ;
#89 = DIRECTION ( 'NONE',  ( -0.000000000000000000, -0.000000000000000000, -1.000000000000000000 ) ) ;
#90 = ORIENTED_EDGE ( 'NONE', *, *, #114, .F. ) ;
#91 = ADVANCED_FACE ( 'NONE', ( #135 ), #349, .F. ) ;
#92 = APPROVAL_DATE_TIME ( #29, #13 ) ;
#93 = CC_DESIGN_APPROVAL ( #13, ( #113 ) ) ;
#94 = ORIENTED_EDGE ( 'NONE', *, *, #239, .F. ) ;
#95 = DIRECTION ( 'NONE',  ( -1.000000000000000000, 0.000000000000000000, 0.000000000000000000 ) ) ;
#96 = FACE_OUTER_BOUND ( 'NONE', #10, .T. ) ;
#97 = AXIS2_PLACEMENT_3D ( 'NONE', #58, #149, #352 ) ;
#98 = CARTESIAN_POINT ( 'NONE',  ( 0.000000000000000000, 0.000000000000000000, 0.000000000000000000 ) ) ;
#99 = CARTESIAN_POINT ( 'NONE',  ( 0.000000000000000000, 0.000000000000000000, 0.000000000000000000 ) ) ;
#100 = FACE_BOUND ( 'NONE', #378, .T. ) ;
#101 = CIRCLE ( 'NONE', #211, 3.000000000000000444 ) ;
#102 = FACE_OUTER_BOUND ( 'NONE', #38, .T. ) ;
#103 = ADVANCED_FACE ( 'NONE', ( #168 ), #19, .F. ) ;
#104 = DIRECTION ( 'NONE',  ( -0.000000000000000000, -0.000000000000000000, -1.000000000000000000 ) ) ;
#105 = CIRCLE ( 'NONE', #82, 8.000000000000000000 ) ;
#106 = PERSON_AND_ORGANIZATION ( #61, #56 ) ;
#107 = DIRECTION ( 'NONE',  ( 1.000000000000000000, 0.000000000000000000, 0.000000000000000000 ) ) ;
#108 = COORDINATED_UNIVERSAL_TIME_OFFSET ( 1, 0, .AHEAD. ) ;
#109 = DIRECTION ( 'NONE',  ( 1.000000000000000000, 0.000000000000000000, 0.000000000000000000 ) ) ;
#110 = DIRECTION ( 'NONE',  ( 1.000000000000000000, 0.000000000000000000, 0.000000000000000000 ) ) ;
#111 = EDGE_CURVE ( 'NONE', #60, #41, #48, .T. ) ;
#112 = ORIENTED_EDGE ( 'NONE', *, *, #137, .T. ) ;
#113 = SECURITY_CLASSIFICATION ( '', '', #344 ) ;
#114 = EDGE_CURVE ( 'NONE', #333, #220, #308, .T. ) ;
#115 = DIRECTION ( 'NONE',  ( 0.000000000000000000, 0.000000000000000000, 1.000000000000000000 ) ) ;
#116 = DIRECTION ( 'NONE',  ( 1.000000000000000000, 0.000000000000000000, -0.000000000000000000 ) ) ;
#117 = DIRECTION ( 'NONE',  ( 0.000000000000000000, -1.000000000000000000, 0.000000000000000000 ) ) ;
#118 = EDGE_CURVE ( 'NONE', #154, #41, #270, .T. ) ;
#119 = CIRCLE ( 'NONE', #327, 3.000000000000000444 ) ;
#120 = ORIENTED_EDGE ( 'NONE', *, *, #27, .T. ) ;
#121 = ORIENTED_EDGE ( 'NONE', *, *, #111, .T. ) ;
#122 = AXIS2_PLACEMENT_3D ( 'NONE', #260, #197, #254 ) ;
#123 = AXIS2_PLACEMENT_3D ( 'NONE', #15, #37, #163 ) ;
#124 = ORIENTED_EDGE ( 'NONE', *, *, #380, .F. ) ;
#125 = CARTESIAN_POINT ( 'NONE',  ( 0.000000000000000000, 0.000000000000000000, 230.0000000000000000 ) ) ;
#126 = VERTEX_POINT ( 'NONE', #244 ) ;
#127 = DIRECTION ( 'NONE',  ( -0.000000000000000000, -0.000000000000000000, -1.000000000000000000 ) ) ;
#128 = DIRECTION ( 'NONE',  ( 0.000000000000000000, 0.000000000000000000, 1.000000000000000000 ) ) ;
#129 = AXIS2_PLACEMENT_3D ( 'NONE', #24, #312, #116 ) ;
#130 = PRODUCT_DEFINITION_SHAPE ( 'NONE', 'NONE',  #316 ) ;
#131 =( NAMED_UNIT ( * ) SI_UNIT ( $, .STERADIAN. ) SOLID_ANGLE_UNIT ( ) );
#132 = CC_DESIGN_PERSON_AND_ORGANIZATION_ASSIGNMENT ( #305, #47, ( #232 ) ) ;
#133 = APPLICATION_CONTEXT ( 'configuration controlled 3d designs of mechanical parts and assemblies' ) ;
#134 = CARTESIAN_POINT ( 'NONE',  ( 0.000000000000000000, 0.000000000000000000, 0.000000000000000000 ) ) ;
#135 = FACE_OUTER_BOUND ( 'NONE', #207, .T. ) ;
#136 = COORDINATED_UNIVERSAL_TIME_OFFSET ( 1, 0, .AHEAD. ) ;
#137 = EDGE_CURVE ( 'NONE', #220, #330, #21, .T. ) ;
#138 = FACE_OUTER_BOUND ( 'NONE', #187, .T. ) ;
#139 = AXIS2_PLACEMENT_3D ( 'NONE', #125, #182, #95 ) ;
#140 = CARTESIAN_POINT ( 'NONE',  ( 0.000000000000000000, 0.000000000000000000, 0.000000000000000000 ) ) ;
#141 = PERSON_AND_ORGANIZATION ( #61, #56 ) ;
#142 = ADVANCED_FACE ( 'NONE', ( #323 ), #265, .T. ) ;
#143 = DIRECTION ( 'NONE',  ( 0.000000000000000000, 0.000000000000000000, 1.000000000000000000 ) ) ;
#144 = APPROVAL_STATUS ( 'not_yet_approved' ) ;
#145 = CARTESIAN_POINT ( 'NONE',  ( 0.000000000000000000, 0.000000000000000000, 5.000000000000000000 ) ) ;
#146 = APPLICATION_PROTOCOL_DEFINITION ( 'international standard', 'config_control_design', 1994, #313 ) ;
#147 = DIRECTION ( 'NONE',  ( 0.000000000000000000, 0.000000000000000000, -1.000000000000000000 ) ) ;
#148 = ORIENTED_EDGE ( 'NONE', *, *, #374, .T. ) ;
#149 = DIRECTION ( 'NONE',  ( -0.000000000000000000, -0.000000000000000000, -1.000000000000000000 ) ) ;
#150 = FACE_OUTER_BOUND ( 'NONE', #290, .T. ) ;
#151 = ORIENTED_EDGE ( 'NONE', *, *, #246, .T. ) ;
#152 = ADVANCED_FACE ( 'NONE', ( #261 ), #373, .T. ) ;
#153 = EDGE_LOOP ( 'NONE', ( #250, #356 ) ) ;
#154 = VERTEX_POINT ( 'NONE', #355 ) ;
#155 = AXIS2_PLACEMENT_3D ( 'NONE', #99, #360, #331 ) ;
#156 = EDGE_LOOP ( 'NONE', ( #245, #33, #212, #73 ) ) ;
#157 = LINE ( 'NONE', #336, #298 ) ;
#158 = ORIENTED_EDGE ( 'NONE', *, *, #209, .F. ) ;
#159 = CARTESIAN_POINT ( 'NONE',  ( 3.000000000000000444, 3.673940397442060361E-16, 0.000000000000000000 ) ) ;
#160 = CARTESIAN_POINT ( 'NONE',  ( 0.000000000000000000, 0.000000000000000000, 0.000000000000000000 ) ) ;
#161 = LOCAL_TIME ( 16, 57, 53.00000000000000000, #340 ) ;
#162 = CC_DESIGN_PERSON_AND_ORGANIZATION_ASSIGNMENT ( #141, #371, ( #316 ) ) ;
#163 = DIRECTION ( 'NONE',  ( 1.000000000000000000, 0.000000000000000000, 0.000000000000000000 ) ) ;
#164 = CARTESIAN_POINT ( 'NONE',  ( 0.000000000000000000, 0.000000000000000000, 230.0000000000000000 ) ) ;
#165 = UNCERTAINTY_MEASURE_WITH_UNIT (LENGTH_MEASURE( 1.000000000000000082E-05 ), #279, 'distance_accuracy_value', 'NONE');
#166 = APPROVAL_ROLE ( '' ) ;
#167 = AXIS2_PLACEMENT_3D ( 'NONE', #196, #370, #304 ) ;
#168 = FACE_OUTER_BOUND ( 'NONE', #251, .T. ) ;
#169 = PERSON_AND_ORGANIZATION ( #61, #56 ) ;
#170 = CARTESIAN_POINT ( 'NONE',  ( 0.000000000000000000, 0.000000000000000000, 5.500000000000005329 ) ) ;
#171 = CIRCLE ( 'NONE', #71, 3.000000000000000444 ) ;
#172 = DESIGN_CONTEXT ( 'detailed design', #133, 'design' ) ;
#173 = DATE_TIME_ROLE ( 'creation_date' ) ;
#174 = DIRECTION ( 'NONE',  ( 1.000000000000000000, 0.000000000000000000, 0.000000000000000000 ) ) ;
#175 = ORIENTED_EDGE ( 'NONE', *, *, #87, .F. ) ;
#176 = COORDINATED_UNIVERSAL_TIME_OFFSET ( 1, 0, .AHEAD. ) ;
#177 = DIRECTION ( 'NONE',  ( 0.000000000000000000, 0.000000000000000000, 1.000000000000000000 ) ) ;
#178 = ORIENTED_EDGE ( 'NONE', *, *, #374, .F. ) ;
#179 = VECTOR ( 'NONE', #277, 1000.000000000000000 ) ;
#180 = CARTESIAN_POINT ( 'NONE',  ( 0.000000000000000000, 0.000000000000000000, 230.0000000000000000 ) ) ;
#181 = ORIENTED_EDGE ( 'NONE', *, *, #209, .T. ) ;
#182 = DIRECTION ( 'NONE',  ( 0.000000000000000000, 0.000000000000000000, -1.000000000000000000 ) ) ;
#183 = PRODUCT_DEFINITION_FORMATION_WITH_SPECIFIED_SOURCE ( 'LIBOVOLNÝ', '', #232, .NOT_KNOWN. ) ;
#184 = ORIENTED_EDGE ( 'NONE', *, *, #328, .T. ) ;
#185 = ORIENTED_EDGE ( 'NONE', *, *, #118, .F. ) ;
#186 = CIRCLE ( 'NONE', #26, 8.000000000000000000 ) ;
#187 = EDGE_LOOP ( 'NONE', ( #181, #120 ) ) ;
#188 = EDGE_CURVE ( 'NONE', #271, #333, #88, .T. ) ;
#189 = DIRECTION ( 'NONE',  ( 1.000000000000000000, 0.000000000000000000, 0.000000000000000000 ) ) ;
#190 = AXIS2_PLACEMENT_3D ( 'NONE', #52, #117, #147 ) ;
#191 = ORIENTED_EDGE ( 'NONE', *, *, #193, .F. ) ;
#192 = CYLINDRICAL_SURFACE ( 'NONE', #139, 3.000000000000000444 ) ;
#193 = EDGE_CURVE ( 'NONE', #70, #292, #252, .T. ) ;
#194 = APPROVAL ( #375, 'NEURÈENÝ' ) ;
#195 = CARTESIAN_POINT ( 'NONE',  ( -5.000000000000000000, 0.000000000000000000, 5.500000000000005329 ) ) ;
#196 = CARTESIAN_POINT ( 'NONE',  ( -5.500000000000000000, 6.735557395310442023E-16, 5.500000000000005329 ) ) ;
#197 = DIRECTION ( 'NONE',  ( 0.000000000000000000, 0.000000000000000000, 1.000000000000000000 ) ) ;
#198 = LOCAL_TIME ( 16, 57, 53.00000000000000000, #136 ) ;
#199 = DATE_AND_TIME ( #51, #345 ) ;
#200 = CARTESIAN_POINT ( 'NONE',  ( 0.000000000000000000, 0.000000000000000000, 230.0000000000000000 ) ) ;
#201 = DATE_AND_TIME ( #346, #161 ) ;
#202 = PERSON_AND_ORGANIZATION ( #61, #56 ) ;
#203 = CARTESIAN_POINT ( 'NONE',  ( -8.000000000000000000, 0.000000000000000000, 0.000000000000000000 ) ) ;
#204 = CC_DESIGN_APPROVAL ( #194, ( #316 ) ) ;
#205 = ADVANCED_FACE ( 'NONE', ( #31, #150 ), #206, .T. ) ;
#206 = PLANE ( 'NONE',  #129 ) ;
#207 = EDGE_LOOP ( 'NONE', ( #34, #357, #32, #90 ) ) ;
#208 = APPROVAL_ROLE ( '' ) ;
#209 = EDGE_CURVE ( 'NONE', #60, #272, #105, .T. ) ;
#210 = LINE ( 'NONE', #216, #303 ) ;
#211 = AXIS2_PLACEMENT_3D ( 'NONE', #160, #104, #109 ) ;
#212 = ORIENTED_EDGE ( 'NONE', *, *, #332, .T. ) ;
#213 = CARTESIAN_POINT ( 'NONE',  ( 0.000000000000000000, 0.000000000000000000, 230.0000000000000000 ) ) ;
#214 = PRODUCT_RELATED_PRODUCT_CATEGORY ( 'detail', '', ( #232 ) ) ;
#215 = AXIS2_PLACEMENT_3D ( 'NONE', #240, #242, #86 ) ;
#216 = CARTESIAN_POINT ( 'NONE',  ( -3.000000000000000444, 0.000000000000000000, 230.0000000000000000 ) ) ;
#217 = ORIENTED_EDGE ( 'NONE', *, *, #118, .T. ) ;
#218 = AXIS2_PLACEMENT_3D ( 'NONE', #83, #143, #350 ) ;
#219 = EDGE_LOOP ( 'NONE', ( #43, #94 ) ) ;
#220 = VERTEX_POINT ( 'NONE', #291 ) ;
#221 = FACE_BOUND ( 'NONE', #153, .T. ) ;
#222 = ORIENTED_EDGE ( 'NONE', *, *, #188, .T. ) ;
#223 = DIRECTION ( 'NONE',  ( -1.000000000000000000, 0.000000000000000000, 0.000000000000000000 ) ) ;
#224 = ADVANCED_BREP_SHAPE_REPRESENTATION ( 'be96', ( #372, #76 ), #295 ) ;
#225 = AXIS2_PLACEMENT_3D ( 'NONE', #74, #365, #223 ) ;
#226 = LINE ( 'NONE', #299, #179 ) ;
#227 = DIRECTION ( 'NONE',  ( 0.000000000000000000, 0.000000000000000000, 1.000000000000000000 ) ) ;
#228 = EDGE_CURVE ( 'NONE', #292, #70, #258, .T. ) ;
#229 = DIRECTION ( 'NONE',  ( -0.000000000000000000, -0.000000000000000000, -1.000000000000000000 ) ) ;
#230 = CARTESIAN_POINT ( 'NONE',  ( -5.000000000000000000, 0.000000000000000000, 230.0000000000000000 ) ) ;
#231 = CARTESIAN_POINT ( 'NONE',  ( -8.000000000000000000, 0.000000000000000000, 5.000000000000000000 ) ) ;
#232 = PRODUCT ( 'be96', 'be96', '', ( #20 ) ) ;
#233 = PERSON_AND_ORGANIZATION_ROLE ( 'classification_officer' ) ;
#234 = CARTESIAN_POINT ( 'NONE',  ( -5.000000000000000000, 0.000000000000000000, 230.0000000000000000 ) ) ;
#235 = APPROVAL_ROLE ( '' ) ;
#236 = DIRECTION ( 'NONE',  ( 1.000000000000000000, 0.000000000000000000, 0.000000000000000000 ) ) ;
#237 = LOCAL_TIME ( 16, 57, 53.00000000000000000, #341 ) ;
#238 = CALENDAR_DATE ( 2022, 8, 7 ) ;
#239 = EDGE_CURVE ( 'NONE', #126, #67, #119, .T. ) ;
#240 = CARTESIAN_POINT ( 'NONE',  ( 0.000000000000000000, 0.000000000000000000, 230.0000000000000000 ) ) ;
#241 = DIRECTION ( 'NONE',  ( -0.000000000000000000, -0.000000000000000000, -1.000000000000000000 ) ) ;
#242 = DIRECTION ( 'NONE',  ( 0.000000000000000000, 0.000000000000000000, 1.000000000000000000 ) ) ;
#243 = CIRCLE ( 'NONE', #123, 5.000000000000000000 ) ;
#244 = CARTESIAN_POINT ( 'NONE',  ( 3.000000000000000444, 3.673940397442060361E-16, 230.0000000000000000 ) ) ;
#245 = ORIENTED_EDGE ( 'NONE', *, *, #228, .F. ) ;
#246 = EDGE_CURVE ( 'NONE', #67, #7, #210, .T. ) ;
#247 = ORIENTED_EDGE ( 'NONE', *, *, #259, .T. ) ;
#248 = ORIENTED_EDGE ( 'NONE', *, *, #9, .T. ) ;
#249 = CARTESIAN_POINT ( 'NONE',  ( 8.000000000000000000, 9.797174393178825657E-16, 5.000000000000000000 ) ) ;
#250 = ORIENTED_EDGE ( 'NONE', *, *, #59, .F. ) ;
#251 = EDGE_LOOP ( 'NONE', ( #359, #14, #300, #36 ) ) ;
#252 = CIRCLE ( 'NONE', #65, 5.000000000000000000 ) ;
#253 = DIRECTION ( 'NONE',  ( 0.000000000000000000, 0.000000000000000000, -1.000000000000000000 ) ) ;
#254 = DIRECTION ( 'NONE',  ( 1.000000000000000000, 0.000000000000000000, 0.000000000000000000 ) ) ;
#255 = DIRECTION ( 'NONE',  ( -0.000000000000000000, -0.000000000000000000, -1.000000000000000000 ) ) ;
#256 = CC_DESIGN_DATE_AND_TIME_ASSIGNMENT ( #201, #306, ( #113 ) ) ;
#257 = APPROVAL_DATE_TIME ( #369, #42 ) ;
#258 = CIRCLE ( 'NONE', #215, 5.000000000000000000 ) ;
#259 = EDGE_CURVE ( 'NONE', #70, #271, #57, .T. ) ;
#260 = CARTESIAN_POINT ( 'NONE',  ( 0.000000000000000000, 0.000000000000000000, 5.000000000000000000 ) ) ;
#261 = FACE_OUTER_BOUND ( 'NONE', #6, .T. ) ;
#262 = CARTESIAN_POINT ( 'NONE',  ( 0.000000000000000000, 0.000000000000000000, 5.000000000000000000 ) ) ;
#263 = LOCAL_TIME ( 16, 57, 53.00000000000000000, #176 ) ;
#264 = ADVANCED_FACE ( 'NONE', ( #96 ), #192, .F. ) ;
#265 = CYLINDRICAL_SURFACE ( 'NONE', #282, 5.000000000000000000 ) ;
#266 = CARTESIAN_POINT ( 'NONE',  ( 0.000000000000000000, 0.000000000000000000, 230.0000000000000000 ) ) ;
#267 = ORIENTED_EDGE ( 'NONE', *, *, #228, .T. ) ;
#268 = DIRECTION ( 'NONE',  ( 1.000000000000000000, 0.000000000000000000, 0.000000000000000000 ) ) ;
#269 = ORIENTED_EDGE ( 'NONE', *, *, #111, .F. ) ;
#270 = CIRCLE ( 'NONE', #289, 8.000000000000000000 ) ;
#271 = VERTEX_POINT ( 'NONE', #195 ) ;
#272 = VERTEX_POINT ( 'NONE', #249 ) ;
#273 = CC_DESIGN_SECURITY_CLASSIFICATION ( #113, ( #183 ) ) ;
#274 = DIRECTION ( 'NONE',  ( -0.000000000000000000, -0.000000000000000000, -1.000000000000000000 ) ) ;
#275 = DIRECTION ( 'NONE',  ( 0.000000000000000000, 0.000000000000000000, -1.000000000000000000 ) ) ;
#276 = AXIS2_PLACEMENT_3D ( 'NONE', #368, #79, #107 ) ;
#277 = DIRECTION ( 'NONE',  ( -0.000000000000000000, -0.000000000000000000, -1.000000000000000000 ) ) ;
#278 = DIRECTION ( 'NONE',  ( -1.000000000000000000, 0.000000000000000000, 0.000000000000000000 ) ) ;
#279 =( LENGTH_UNIT ( ) NAMED_UNIT ( * ) SI_UNIT ( .MILLI., .METRE. ) );
#280 = CARTESIAN_POINT ( 'NONE',  ( 5.000000000000000000, 6.123233995736766282E-16, 230.0000000000000000 ) ) ;
#281 = PERSON_AND_ORGANIZATION ( #61, #56 ) ;
#282 = AXIS2_PLACEMENT_3D ( 'NONE', #180, #241, #54 ) ;
#283 = DIRECTION ( 'NONE',  ( 0.000000000000000000, 0.000000000000000000, 1.000000000000000000 ) ) ;
#284 = DIRECTION ( 'NONE',  ( -1.000000000000000000, 0.000000000000000000, 0.000000000000000000 ) ) ;
#285 = AXIS2_PLACEMENT_3D ( 'NONE', #200, #227, #302 ) ;
#286 = DIRECTION ( 'NONE',  ( 0.000000000000000000, 0.000000000000000000, 1.000000000000000000 ) ) ;
#287 = ORIENTED_EDGE ( 'NONE', *, *, #239, .T. ) ;
#288 = DIRECTION ( 'NONE',  ( -0.000000000000000000, -0.000000000000000000, -1.000000000000000000 ) ) ;
#289 = AXIS2_PLACEMENT_3D ( 'NONE', #30, #286, #1 ) ;
#290 = EDGE_LOOP ( 'NONE', ( #381, #267 ) ) ;
#291 = CARTESIAN_POINT ( 'NONE',  ( 5.500000000000000000, 0.000000000000000000, 5.000000000000002665 ) ) ;
#292 = VERTEX_POINT ( 'NONE', #301 ) ;
#293 = CARTESIAN_POINT ( 'NONE',  ( -8.000000000000000000, 0.000000000000000000, 5.000000000000000000 ) ) ;
#294 = CIRCLE ( 'NONE', #167, 0.5000000000000004441 ) ;
#295 =( GEOMETRIC_REPRESENTATION_CONTEXT ( 3 ) GLOBAL_UNCERTAINTY_ASSIGNED_CONTEXT ( ( #165 ) ) GLOBAL_UNIT_ASSIGNED_CONTEXT ( ( #279, #335, #131 ) ) REPRESENTATION_CONTEXT ( 'NONE', 'WORKASPACE' ) );
#296 = ORIENTED_EDGE ( 'NONE', *, *, #5, .T. ) ;
#297 = ADVANCED_FACE ( 'NONE', ( #40 ), #361, .T. ) ;
#298 = VECTOR ( 'NONE', #275, 1000.000000000000000 ) ;
#299 = CARTESIAN_POINT ( 'NONE',  ( 8.000000000000000000, 9.797174393178825657E-16, 5.000000000000000000 ) ) ;
#300 = ORIENTED_EDGE ( 'NONE', *, *, #114, .T. ) ;
#301 = CARTESIAN_POINT ( 'NONE',  ( 5.000000000000000000, 6.123233995736766282E-16, 230.0000000000000000 ) ) ;
#302 = DIRECTION ( 'NONE',  ( 1.000000000000000000, 0.000000000000000000, 0.000000000000000000 ) ) ;
#303 = VECTOR ( 'NONE', #318, 1000.000000000000000 ) ;
#304 = DIRECTION ( 'NONE',  ( -1.000000000000000000, 1.224646799147351482E-16, 0.000000000000000000 ) ) ;
#305 = PERSON_AND_ORGANIZATION ( #61, #56 ) ;
#306 = DATE_TIME_ROLE ( 'classification_date' ) ;
#307 = CLOSED_SHELL ( 'NONE', ( #78, #91, #297, #152, #348, #3, #320, #142, #205, #103, #264 ) ) ;
#308 = CIRCLE ( 'NONE', #190, 0.5000000000000004441 ) ;
#309 = CARTESIAN_POINT ( 'NONE',  ( -3.000000000000000444, 0.000000000000000000, 230.0000000000000000 ) ) ;
#310 = EDGE_CURVE ( 'NONE', #325, #7, #171, .T. ) ;
#311 = CALENDAR_DATE ( 2022, 8, 7 ) ;
#312 = DIRECTION ( 'NONE',  ( 0.000000000000000000, 0.000000000000000000, 1.000000000000000000 ) ) ;
#313 = APPLICATION_CONTEXT ( 'configuration controlled 3d designs of mechanical parts and assemblies' ) ;
#314 = AXIS2_PLACEMENT_3D ( 'NONE', #343, #337, #81 ) ;
#315 = ORIENTED_EDGE ( 'NONE', *, *, #27, .F. ) ;
#316 = PRODUCT_DEFINITION ( 'NEZNÁMÝ', '', #183, #172 ) ;
#317 = CC_DESIGN_PERSON_AND_ORGANIZATION_ASSIGNMENT ( #202, #233, ( #113 ) ) ;
#318 = DIRECTION ( 'NONE',  ( 0.000000000000000000, 0.000000000000000000, -1.000000000000000000 ) ) ;
#319 = CIRCLE ( 'NONE', #358, 5.500000000000000000 ) ;
#320 = ADVANCED_FACE ( 'NONE', ( #221, #8 ), #364, .F. ) ;
#321 = DIRECTION ( 'NONE',  ( 0.000000000000000000, 0.000000000000000000, 1.000000000000000000 ) ) ;
#322 = ORIENTED_EDGE ( 'NONE', *, *, #380, .T. ) ;
#323 = FACE_OUTER_BOUND ( 'NONE', #326, .T. ) ;
#324 = AXIS2_PLACEMENT_3D ( 'NONE', #170, #283, #236 ) ;
#325 = VERTEX_POINT ( 'NONE', #159 ) ;
#326 = EDGE_LOOP ( 'NONE', ( #175, #191, #247, #222 ) ) ;
#327 = AXIS2_PLACEMENT_3D ( 'NONE', #213, #347, #268 ) ;
#328 = EDGE_CURVE ( 'NONE', #330, #220, #319, .T. ) ;
#329 = CC_DESIGN_PERSON_AND_ORGANIZATION_ASSIGNMENT ( #106, #80, ( #183 ) ) ;
#330 = VERTEX_POINT ( 'NONE', #72 ) ;
#331 = DIRECTION ( 'NONE',  ( 1.000000000000000000, 0.000000000000000000, -0.000000000000000000 ) ) ;
#332 = EDGE_CURVE ( 'NONE', #333, #271, #243, .T. ) ;
#333 = VERTEX_POINT ( 'NONE', #17 ) ;
#334 = DIRECTION ( 'NONE',  ( -1.000000000000000000, 0.000000000000000000, 0.000000000000000000 ) ) ;
#335 =( NAMED_UNIT ( * ) PLANE_ANGLE_UNIT ( ) SI_UNIT ( $, .RADIAN. ) );
#336 = CARTESIAN_POINT ( 'NONE',  ( 3.000000000000000444, 3.673940397442060361E-16, 230.0000000000000000 ) ) ;
#337 = DIRECTION ( 'NONE',  ( 0.000000000000000000, 0.000000000000000000, 1.000000000000000000 ) ) ;
#338 = DATE_AND_TIME ( #311, #198 ) ;
#339 = LINE ( 'NONE', #280, #46 ) ;
#340 = COORDINATED_UNIVERSAL_TIME_OFFSET ( 1, 0, .AHEAD. ) ;
#341 = COORDINATED_UNIVERSAL_TIME_OFFSET ( 1, 0, .AHEAD. ) ;
#342 = CIRCLE ( 'NONE', #122, 8.000000000000000000 ) ;
#343 = CARTESIAN_POINT ( 'NONE',  ( 0.000000000000000000, 0.000000000000000000, 5.000000000000000000 ) ) ;
#344 = SECURITY_CLASSIFICATION_LEVEL ( 'unclassified' ) ;
#345 = LOCAL_TIME ( 16, 57, 53.00000000000000000, #108 ) ;
#346 = CALENDAR_DATE ( 2022, 8, 7 ) ;
#347 = DIRECTION ( 'NONE',  ( 0.000000000000000000, 0.000000000000000000, 1.000000000000000000 ) ) ;
#348 = ADVANCED_FACE ( 'NONE', ( #102 ), #363, .T. ) ;
#349 = TOROIDAL_SURFACE ( 'NONE', #276, 5.500000000000000000, 0.5000000000000000000 ) ;
#350 = DIRECTION ( 'NONE',  ( 1.000000000000000000, 0.000000000000000000, 0.000000000000000000 ) ) ;
#351 = ORIENTED_EDGE ( 'NONE', *, *, #5, .F. ) ;
#352 = DIRECTION ( 'NONE',  ( 1.000000000000000000, 0.000000000000000000, 0.000000000000000000 ) ) ;
#353 = EDGE_LOOP ( 'NONE', ( #351, #185 ) ) ;
#354 = CALENDAR_DATE ( 2022, 8, 7 ) ;
#355 = CARTESIAN_POINT ( 'NONE',  ( 8.000000000000000000, 9.797174393178825657E-16, 0.000000000000000000 ) ) ;
#356 = ORIENTED_EDGE ( 'NONE', *, *, #310, .F. ) ;
#357 = ORIENTED_EDGE ( 'NONE', *, *, #12, .T. ) ;
#358 = AXIS2_PLACEMENT_3D ( 'NONE', #11, #229, #68 ) ;
#359 = ORIENTED_EDGE ( 'NONE', *, *, #12, .F. ) ;
#360 = DIRECTION ( 'NONE',  ( 0.000000000000000000, 0.000000000000000000, 1.000000000000000000 ) ) ;
#361 = CYLINDRICAL_SURFACE ( 'NONE', #225, 5.000000000000000000 ) ;
#362 = APPROVAL_PERSON_ORGANIZATION ( #77, #194, #166 ) ;
#363 = CYLINDRICAL_SURFACE ( 'NONE', #2, 8.000000000000000000 ) ;
#364 = PLANE ( 'NONE',  #155 ) ;
#365 = DIRECTION ( 'NONE',  ( -0.000000000000000000, -0.000000000000000000, -1.000000000000000000 ) ) ;
#366 = DIRECTION ( 'NONE',  ( -0.000000000000000000, -0.000000000000000000, -1.000000000000000000 ) ) ;
#367 = PERSON_AND_ORGANIZATION_ROLE ( 'creator' ) ;
#368 = CARTESIAN_POINT ( 'NONE',  ( 0.000000000000000000, 0.000000000000000000, 5.500000000000005329 ) ) ;
#369 = DATE_AND_TIME ( #238, #237 ) ;
#370 = DIRECTION ( 'NONE',  ( 1.224646799147353207E-16, 1.000000000000000000, -0.000000000000000000 ) ) ;
#371 = PERSON_AND_ORGANIZATION_ROLE ( 'creator' ) ;
#372 = MANIFOLD_SOLID_BREP ( 'Odebrat vysunutím3', #307 ) ;
#373 = CYLINDRICAL_SURFACE ( 'NONE', #39, 8.000000000000000000 ) ;
#374 = EDGE_CURVE ( 'NONE', #272, #154, #226, .T. ) ;
#375 = APPROVAL_STATUS ( 'not_yet_approved' ) ;
#376 = APPROVAL_PERSON_ORGANIZATION ( #169, #13, #208 ) ;
#377 = CC_DESIGN_PERSON_AND_ORGANIZATION_ASSIGNMENT ( #53, #367, ( #183 ) ) ;
#378 = EDGE_LOOP ( 'NONE', ( #112, #184 ) ) ;
#379 = DIRECTION ( 'NONE',  ( 1.000000000000000000, 0.000000000000000000, 0.000000000000000000 ) ) ;
#380 = EDGE_CURVE ( 'NONE', #126, #325, #157, .T. ) ;
#381 = ORIENTED_EDGE ( 'NONE', *, *, #193, .T. ) ;
ENDSEC;
END-ISO-10303-21;
