ISO-10303-21;
HEADER;
FILE_DESCRIPTION (( 'STEP AP203' ),
    '1' );
FILE_NAME ('08b8.STEP',
    '2022-07-08T14:18:24',
    ( '' ),
    ( '' ),
    'SwSTEP 2.0',
    'SolidWorks 2019',
    '' );
FILE_SCHEMA (( 'CONFIG_CONTROL_DESIGN' ));
ENDSEC;

DATA;
#1 = CARTESIAN_POINT ( 'NONE',  ( 6.000000000000000888, 7.347880794884120722E-16, 507.0000000000000000 ) ) ;
#2 = VECTOR ( 'NONE', #238, 1000.000000000000000 ) ;
#3 = ORIENTED_EDGE ( 'NONE', *, *, #370, .T. ) ;
#4 = DIRECTION ( 'NONE',  ( -0.000000000000000000, -0.000000000000000000, -1.000000000000000000 ) ) ;
#5 = ORIENTED_EDGE ( 'NONE', *, *, #16, .T. ) ;
#6 = DIRECTION ( 'NONE',  ( -0.000000000000000000, -0.000000000000000000, -1.000000000000000000 ) ) ;
#7 = AXIS2_PLACEMENT_3D ( 'NONE', #52, #340, #15 ) ;
#8 = EDGE_LOOP ( 'NONE', ( #106, #163 ) ) ;
#9 = DIRECTION ( 'NONE',  ( -0.000000000000000000, -0.000000000000000000, -1.000000000000000000 ) ) ;
#10 = CIRCLE ( 'NONE', #237, 8.000000000000000000 ) ;
#11 = DIRECTION ( 'NONE',  ( 1.000000000000000000, 0.000000000000000000, 0.000000000000000000 ) ) ;
#12 = EDGE_CURVE ( 'NONE', #305, #329, #320, .T. ) ;
#13 = CARTESIAN_POINT ( 'NONE',  ( -8.699999999999999289, 1.065442715258197248E-15, 7.699999999999985079 ) ) ;
#14 = DIRECTION ( 'NONE',  ( -0.000000000000000000, -0.000000000000000000, -1.000000000000000000 ) ) ;
#15 = DIRECTION ( 'NONE',  ( 0.000000000000000000, 0.000000000000000000, -1.000000000000000000 ) ) ;
#16 = EDGE_CURVE ( 'NONE', #191, #305, #281, .T. ) ;
#17 =( LENGTH_UNIT ( ) NAMED_UNIT ( * ) SI_UNIT ( .MILLI., .METRE. ) );
#18 = APPROVAL_PERSON_ORGANIZATION ( #268, #267, #296 ) ;
#19 = DIRECTION ( 'NONE',  ( 0.000000000000000000, 0.000000000000000000, 1.000000000000000000 ) ) ;
#20 = LINE ( 'NONE', #314, #153 ) ;
#21 = UNCERTAINTY_MEASURE_WITH_UNIT (LENGTH_MEASURE( 1.000000000000000082E-05 ), #17, 'distance_accuracy_value', 'NONE');
#22 = EDGE_LOOP ( 'NONE', ( #246, #175 ) ) ;
#23 = PERSON_AND_ORGANIZATION_ROLE ( 'creator' ) ;
#24 = PRODUCT_RELATED_PRODUCT_CATEGORY ( 'detail', '', ( #264 ) ) ;
#25 = CARTESIAN_POINT ( 'NONE',  ( 6.000000000000000888, 7.347880794884120722E-16, 0.000000000000000000 ) ) ;
#26 = ORIENTED_EDGE ( 'NONE', *, *, #82, .F. ) ;
#27 = TOROIDAL_SURFACE ( 'NONE', #313, 8.699999999999999289, 0.6999999999999999556 ) ;
#28 = PERSON_AND_ORGANIZATION ( #196, #134 ) ;
#29 = PERSON_AND_ORGANIZATION ( #196, #134 ) ;
#30 = CIRCLE ( 'NONE', #258, 0.6999999999999992895 ) ;
#31 = PLANE ( 'NONE',  #81 ) ;
#32 = ORIENTED_EDGE ( 'NONE', *, *, #82, .T. ) ;
#33 = ADVANCED_FACE ( 'NONE', ( #335 ), #87, .T. ) ;
#34 = APPROVAL_STATUS ( 'not_yet_approved' ) ;
#35 = ORIENTED_EDGE ( 'NONE', *, *, #289, .T. ) ;
#36 = DIRECTION ( 'NONE',  ( 1.000000000000000000, 0.000000000000000000, 0.000000000000000000 ) ) ;
#37 = AXIS2_PLACEMENT_3D ( 'NONE', #159, #6, #132 ) ;
#38 = ORIENTED_EDGE ( 'NONE', *, *, #95, .F. ) ;
#39 = CARTESIAN_POINT ( 'NONE',  ( -8.699999999999999289, 1.065442715258197248E-15, 6.999999999999992006 ) ) ;
#40 = EDGE_CURVE ( 'NONE', #185, #150, #120, .T. ) ;
#41 = ORIENTED_EDGE ( 'NONE', *, *, #285, .T. ) ;
#42 = DIRECTION ( 'NONE',  ( -1.000000000000000000, 0.000000000000000000, 0.000000000000000000 ) ) ;
#43 = ORIENTED_EDGE ( 'NONE', *, *, #162, .F. ) ;
#44 = AXIS2_PLACEMENT_3D ( 'NONE', #230, #4, #42 ) ;
#45 = CARTESIAN_POINT ( 'NONE',  ( 0.000000000000000000, 0.000000000000000000, 0.000000000000000000 ) ) ;
#46 = ORIENTED_EDGE ( 'NONE', *, *, #12, .T. ) ;
#47 = PERSON_AND_ORGANIZATION ( #196, #134 ) ;
#48 = PRODUCT_DEFINITION_FORMATION_WITH_SPECIFIED_SOURCE ( 'LIBOVOLNÝ', '', #264, .NOT_KNOWN. ) ;
#49 = ADVANCED_FACE ( 'NONE', ( #77, #141 ), #135, .T. ) ;
#50 = ADVANCED_BREP_SHAPE_REPRESENTATION ( '08b8', ( #80, #184 ), #119 ) ;
#51 = DIRECTION ( 'NONE',  ( 1.000000000000000000, 0.000000000000000000, 0.000000000000000000 ) ) ;
#52 = CARTESIAN_POINT ( 'NONE',  ( 8.699999999999999289, 0.000000000000000000, 7.699999999999985079 ) ) ;
#53 = CC_DESIGN_PERSON_AND_ORGANIZATION_ASSIGNMENT ( #236, #240, ( #48 ) ) ;
#54 = LOCAL_TIME ( 16, 18, 24.00000000000000000, #290 ) ;
#55 = DIRECTION ( 'NONE',  ( -0.000000000000000000, -0.000000000000000000, -1.000000000000000000 ) ) ;
#56 = PERSON_AND_ORGANIZATION ( #196, #134 ) ;
#57 = LINE ( 'NONE', #379, #2 ) ;
#58 = AXIS2_PLACEMENT_3D ( 'NONE', #85, #19, #51 ) ;
#59 = ORIENTED_EDGE ( 'NONE', *, *, #255, .F. ) ;
#60 = APPROVAL_STATUS ( 'not_yet_approved' ) ;
#61 = DIRECTION ( 'NONE',  ( -0.000000000000000000, -0.000000000000000000, -1.000000000000000000 ) ) ;
#62 = ORIENTED_EDGE ( 'NONE', *, *, #348, .F. ) ;
#63 = CLOSED_SHELL ( 'NONE', ( #200, #117, #210, #327, #33, #102, #144, #136, #49, #366, #225 ) ) ;
#64 = DIRECTION ( 'NONE',  ( 1.000000000000000000, 0.000000000000000000, 0.000000000000000000 ) ) ;
#65 = ORIENTED_EDGE ( 'NONE', *, *, #285, .F. ) ;
#66 = CC_DESIGN_PERSON_AND_ORGANIZATION_ASSIGNMENT ( #29, #23, ( #139 ) ) ;
#67 = CARTESIAN_POINT ( 'NONE',  ( 0.000000000000000000, 0.000000000000000000, 507.0000000000000000 ) ) ;
#68 = CIRCLE ( 'NONE', #208, 11.00000000000000000 ) ;
#69 = ORIENTED_EDGE ( 'NONE', *, *, #273, .T. ) ;
#70 = DIRECTION ( 'NONE',  ( 0.000000000000000000, 0.000000000000000000, -1.000000000000000000 ) ) ;
#71 = EDGE_LOOP ( 'NONE', ( #62, #26 ) ) ;
#72 = CARTESIAN_POINT ( 'NONE',  ( 8.699999999999999289, 0.000000000000000000, 6.999999999999992006 ) ) ;
#73 = FACE_OUTER_BOUND ( 'NONE', #133, .T. ) ;
#74 = LINE ( 'NONE', #157, #143 ) ;
#75 = LOCAL_TIME ( 16, 18, 24.00000000000000000, #378 ) ;
#76 = CC_DESIGN_PERSON_AND_ORGANIZATION_ASSIGNMENT ( #28, #323, ( #243 ) ) ;
#77 = FACE_BOUND ( 'NONE', #8, .T. ) ;
#78 = CARTESIAN_POINT ( 'NONE',  ( 8.000000000000000000, 9.797174393178825657E-16, 507.0000000000000000 ) ) ;
#79 = PERSON_AND_ORGANIZATION_ROLE ( 'design_owner' ) ;
#80 = MANIFOLD_SOLID_BREP ( 'Odebrat vysunutím3', #63 ) ;
#81 = AXIS2_PLACEMENT_3D ( 'NONE', #297, #244, #349 ) ;
#82 = EDGE_CURVE ( 'NONE', #150, #266, #112, .T. ) ;
#83 = CARTESIAN_POINT ( 'NONE',  ( 0.000000000000000000, 0.000000000000000000, 7.699999999999985079 ) ) ;
#84 = CIRCLE ( 'NONE', #367, 8.699999999999999289 ) ;
#85 = CARTESIAN_POINT ( 'NONE',  ( 0.000000000000000000, 0.000000000000000000, 507.0000000000000000 ) ) ;
#86 = DIRECTION ( 'NONE',  ( 0.000000000000000000, 0.000000000000000000, 1.000000000000000000 ) ) ;
#87 = CYLINDRICAL_SURFACE ( 'NONE', #125, 11.00000000000000000 ) ;
#88 = SECURITY_CLASSIFICATION_LEVEL ( 'unclassified' ) ;
#89 = DIRECTION ( 'NONE',  ( -0.000000000000000000, -0.000000000000000000, -1.000000000000000000 ) ) ;
#90 = AXIS2_PLACEMENT_3D ( 'NONE', #304, #306, #365 ) ;
#91 = PERSON_AND_ORGANIZATION_ROLE ( 'design_supplier' ) ;
#92 = FACE_OUTER_BOUND ( 'NONE', #288, .T. ) ;
#93 = AXIS2_PLACEMENT_3D ( 'NONE', #110, #167, #372 ) ;
#94 = APPROVAL_DATE_TIME ( #316, #361 ) ;
#95 = EDGE_CURVE ( 'NONE', #328, #191, #344, .T. ) ;
#96 = DIRECTION ( 'NONE',  ( 1.000000000000000000, 0.000000000000000000, 0.000000000000000000 ) ) ;
#97 = DATE_AND_TIME ( #178, #75 ) ;
#98 = AXIS2_PLACEMENT_3D ( 'NONE', #359, #231, #118 ) ;
#99 = DIRECTION ( 'NONE',  ( -1.000000000000000000, 0.000000000000000000, 0.000000000000000000 ) ) ;
#100 = ORIENTED_EDGE ( 'NONE', *, *, #16, .F. ) ;
#101 = FACE_OUTER_BOUND ( 'NONE', #331, .T. ) ;
#102 = ADVANCED_FACE ( 'NONE', ( #253, #310 ), #165, .T. ) ;
#103 = ORIENTED_EDGE ( 'NONE', *, *, #294, .F. ) ;
#104 = LINE ( 'NONE', #362, #107 ) ;
#105 = CIRCLE ( 'NONE', #127, 8.000000000000000000 ) ;
#106 = ORIENTED_EDGE ( 'NONE', *, *, #370, .F. ) ;
#107 = VECTOR ( 'NONE', #109, 1000.000000000000000 ) ;
#108 = ORIENTED_EDGE ( 'NONE', *, *, #321, .T. ) ;
#109 = DIRECTION ( 'NONE',  ( -0.000000000000000000, -0.000000000000000000, -1.000000000000000000 ) ) ;
#110 = CARTESIAN_POINT ( 'NONE',  ( 0.000000000000000000, 0.000000000000000000, 7.000000000000000000 ) ) ;
#111 = DIRECTION ( 'NONE',  ( 0.000000000000000000, 0.000000000000000000, 1.000000000000000000 ) ) ;
#112 = CIRCLE ( 'NONE', #262, 6.000000000000000888 ) ;
#113 = EDGE_CURVE ( 'NONE', #271, #298, #20, .T. ) ;
#114 = CARTESIAN_POINT ( 'NONE',  ( -11.00000000000000000, 0.000000000000000000, 7.000000000000000000 ) ) ;
#115 = CIRCLE ( 'NONE', #215, 8.000000000000000000 ) ;
#116 = DIRECTION ( 'NONE',  ( -1.000000000000000000, 0.000000000000000000, 0.000000000000000000 ) ) ;
#117 = ADVANCED_FACE ( 'NONE', ( #73 ), #27, .F. ) ;
#118 = DIRECTION ( 'NONE',  ( 1.000000000000000000, 0.000000000000000000, 0.000000000000000000 ) ) ;
#119 =( GEOMETRIC_REPRESENTATION_CONTEXT ( 3 ) GLOBAL_UNCERTAINTY_ASSIGNED_CONTEXT ( ( #21 ) ) GLOBAL_UNIT_ASSIGNED_CONTEXT ( ( #17, #142, #286 ) ) REPRESENTATION_CONTEXT ( 'NONE', 'WORKASPACE' ) );
#120 = LINE ( 'NONE', #283, #229 ) ;
#121 = DATE_AND_TIME ( #373, #265 ) ;
#122 = CARTESIAN_POINT ( 'NONE',  ( 0.000000000000000000, 0.000000000000000000, 507.0000000000000000 ) ) ;
#123 = ORIENTED_EDGE ( 'NONE', *, *, #113, .F. ) ;
#124 = DIRECTION ( 'NONE',  ( 0.000000000000000000, 0.000000000000000000, -1.000000000000000000 ) ) ;
#125 = AXIS2_PLACEMENT_3D ( 'NONE', #170, #9, #279 ) ;
#126 = EDGE_LOOP ( 'NONE', ( #160, #186, #325, #224 ) ) ;
#127 = AXIS2_PLACEMENT_3D ( 'NONE', #291, #213, #64 ) ;
#128 = CARTESIAN_POINT ( 'NONE',  ( 0.000000000000000000, 0.000000000000000000, 7.699999999999985079 ) ) ;
#129 = CC_DESIGN_DATE_AND_TIME_ASSIGNMENT ( #319, #146, ( #139 ) ) ;
#130 = ORIENTED_EDGE ( 'NONE', *, *, #301, .T. ) ;
#131 = EDGE_LOOP ( 'NONE', ( #353, #381 ) ) ;
#132 = DIRECTION ( 'NONE',  ( 1.000000000000000000, 0.000000000000000000, 0.000000000000000000 ) ) ;
#133 = EDGE_LOOP ( 'NONE', ( #156, #41, #209, #100 ) ) ;
#134 = ORGANIZATION ( 'NEURÈENÝ', 'NEURÈENÝ', '' ) ;
#135 = PLANE ( 'NONE',  #221 ) ;
#136 = ADVANCED_FACE ( 'NONE', ( #363 ), #317, .T. ) ;
#137 = CARTESIAN_POINT ( 'NONE',  ( 0.000000000000000000, 0.000000000000000000, 507.0000000000000000 ) ) ;
#138 = DIRECTION ( 'NONE',  ( 1.000000000000000000, 0.000000000000000000, -0.000000000000000000 ) ) ;
#139 = PRODUCT_DEFINITION ( 'NEZNÁMÝ', '', #48, #181 ) ;
#140 = AXIS2_PLACEMENT_3D ( 'NONE', #332, #364, #36 ) ;
#141 = FACE_OUTER_BOUND ( 'NONE', #22, .T. ) ;
#142 =( NAMED_UNIT ( * ) PLANE_ANGLE_UNIT ( ) SI_UNIT ( $, .RADIAN. ) );
#143 = VECTOR ( 'NONE', #339, 1000.000000000000000 ) ;
#144 = ADVANCED_FACE ( 'NONE', ( #234, #338 ), #31, .F. ) ;
#145 = CARTESIAN_POINT ( 'NONE',  ( 0.000000000000000000, 0.000000000000000000, 507.0000000000000000 ) ) ;
#146 = DATE_TIME_ROLE ( 'creation_date' ) ;
#147 = APPROVAL ( #34, 'NEURÈENÝ' ) ;
#148 = LOCAL_TIME ( 16, 18, 24.00000000000000000, #211 ) ;
#149 = APPROVAL_ROLE ( '' ) ;
#150 = VERTEX_POINT ( 'NONE', #25 ) ;
#151 = CALENDAR_DATE ( 2022, 8, 7 ) ;
#152 = CYLINDRICAL_SURFACE ( 'NONE', #278, 6.000000000000000888 ) ;
#153 = VECTOR ( 'NONE', #55, 1000.000000000000000 ) ;
#154 = APPROVAL_DATE_TIME ( #97, #147 ) ;
#155 = CARTESIAN_POINT ( 'NONE',  ( 11.00000000000000000, 1.347111479062088405E-15, 0.000000000000000000 ) ) ;
#156 = ORIENTED_EDGE ( 'NONE', *, *, #172, .F. ) ;
#157 = CARTESIAN_POINT ( 'NONE',  ( 11.00000000000000000, 1.347111479062088405E-15, 7.000000000000000000 ) ) ;
#158 = ORIENTED_EDGE ( 'NONE', *, *, #193, .F. ) ;
#159 = CARTESIAN_POINT ( 'NONE',  ( 0.000000000000000000, 0.000000000000000000, 0.000000000000000000 ) ) ;
#160 = ORIENTED_EDGE ( 'NONE', *, *, #315, .F. ) ;
#161 = CARTESIAN_POINT ( 'NONE',  ( -6.000000000000000888, 0.000000000000000000, 0.000000000000000000 ) ) ;
#162 = EDGE_CURVE ( 'NONE', #191, #194, #105, .T. ) ;
#163 = ORIENTED_EDGE ( 'NONE', *, *, #321, .F. ) ;
#164 = AXIS2_PLACEMENT_3D ( 'NONE', #122, #61, #180 ) ;
#165 = PLANE ( 'NONE',  #202 ) ;
#166 = DIRECTION ( 'NONE',  ( -1.000000000000000000, 1.224646799147353207E-16, 0.000000000000000000 ) ) ;
#167 = DIRECTION ( 'NONE',  ( -0.000000000000000000, -0.000000000000000000, -1.000000000000000000 ) ) ;
#168 = CC_DESIGN_DATE_AND_TIME_ASSIGNMENT ( #351, #182, ( #243 ) ) ;
#169 = DIRECTION ( 'NONE',  ( 1.000000000000000000, 0.000000000000000000, 0.000000000000000000 ) ) ;
#170 = CARTESIAN_POINT ( 'NONE',  ( 0.000000000000000000, 0.000000000000000000, 7.000000000000000000 ) ) ;
#171 = CIRCLE ( 'NONE', #140, 11.00000000000000000 ) ;
#172 = EDGE_CURVE ( 'NONE', #194, #191, #10, .T. ) ;
#173 = FACE_OUTER_BOUND ( 'NONE', #222, .T. ) ;
#174 = DIRECTION ( 'NONE',  ( 0.000000000000000000, 0.000000000000000000, -1.000000000000000000 ) ) ;
#175 = ORIENTED_EDGE ( 'NONE', *, *, #315, .T. ) ;
#176 = CALENDAR_DATE ( 2022, 8, 7 ) ;
#177 = ORIENTED_EDGE ( 'NONE', *, *, #260, .T. ) ;
#178 = CALENDAR_DATE ( 2022, 8, 7 ) ;
#179 = CC_DESIGN_PERSON_AND_ORGANIZATION_ASSIGNMENT ( #257, #79, ( #264 ) ) ;
#180 = DIRECTION ( 'NONE',  ( -1.000000000000000000, 0.000000000000000000, 0.000000000000000000 ) ) ;
#181 = DESIGN_CONTEXT ( 'detailed design', #337, 'design' ) ;
#182 = DATE_TIME_ROLE ( 'classification_date' ) ;
#183 = DIRECTION ( 'NONE',  ( 1.000000000000000000, 0.000000000000000000, 0.000000000000000000 ) ) ;
#184 = AXIS2_PLACEMENT_3D ( 'NONE', #201, #86, #169 ) ;
#185 = VERTEX_POINT ( 'NONE', #1 ) ;
#186 = ORIENTED_EDGE ( 'NONE', *, *, #95, .T. ) ;
#187 = DIRECTION ( 'NONE',  ( 0.000000000000000000, 0.000000000000000000, 1.000000000000000000 ) ) ;
#188 = ORIENTED_EDGE ( 'NONE', *, *, #355, .F. ) ;
#189 = CIRCLE ( 'NONE', #58, 6.000000000000000888 ) ;
#190 = CYLINDRICAL_SURFACE ( 'NONE', #44, 11.00000000000000000 ) ;
#191 = VERTEX_POINT ( 'NONE', #354 ) ;
#192 = CARTESIAN_POINT ( 'NONE',  ( -6.000000000000000888, 0.000000000000000000, 507.0000000000000000 ) ) ;
#193 = EDGE_CURVE ( 'NONE', #239, #328, #115, .T. ) ;
#194 = VERTEX_POINT ( 'NONE', #374 ) ;
#195 = VECTOR ( 'NONE', #89, 1000.000000000000000 ) ;
#196 = PERSON ( 'NEURÈENÝ', 'NEURÈENÝ', 'NEURÈENÝ', ('NEURÈENÝ'), ('NEURÈENÝ'), ('NEURÈENÝ') ) ;
#197 = CARTESIAN_POINT ( 'NONE',  ( -11.00000000000000000, 0.000000000000000000, 0.000000000000000000 ) ) ;
#198 = DIRECTION ( 'NONE',  ( 0.000000000000000000, 0.000000000000000000, 1.000000000000000000 ) ) ;
#199 = FACE_OUTER_BOUND ( 'NONE', #269, .T. ) ;
#200 = ADVANCED_FACE ( 'NONE', ( #92 ), #152, .F. ) ;
#201 = CARTESIAN_POINT ( 'NONE',  ( 0.000000000000000000, 0.000000000000000000, 0.000000000000000000 ) ) ;
#202 = AXIS2_PLACEMENT_3D ( 'NONE', #256, #206, #138 ) ;
#203 = DIRECTION ( 'NONE',  ( 1.000000000000000000, 0.000000000000000000, 0.000000000000000000 ) ) ;
#204 = APPLICATION_CONTEXT ( 'configuration controlled 3d designs of mechanical parts and assemblies' ) ;
#205 = DIRECTION ( 'NONE',  ( 0.000000000000000000, 0.000000000000000000, 1.000000000000000000 ) ) ;
#206 = DIRECTION ( 'NONE',  ( 0.000000000000000000, 0.000000000000000000, 1.000000000000000000 ) ) ;
#207 = CARTESIAN_POINT ( 'NONE',  ( 0.000000000000000000, 0.000000000000000000, 7.699999999999985079 ) ) ;
#208 = AXIS2_PLACEMENT_3D ( 'NONE', #252, #254, #308 ) ;
#209 = ORIENTED_EDGE ( 'NONE', *, *, #12, .F. ) ;
#210 = ADVANCED_FACE ( 'NONE', ( #218 ), #322, .T. ) ;
#211 = COORDINATED_UNIVERSAL_TIME_OFFSET ( 1, 0, .AHEAD. ) ;
#212 = PRODUCT_DEFINITION_SHAPE ( 'NONE', 'NONE',  #139 ) ;
#213 = DIRECTION ( 'NONE',  ( 0.000000000000000000, 0.000000000000000000, 1.000000000000000000 ) ) ;
#214 = ORIENTED_EDGE ( 'NONE', *, *, #289, .F. ) ;
#215 = AXIS2_PLACEMENT_3D ( 'NONE', #263, #241, #183 ) ;
#216 = CIRCLE ( 'NONE', #371, 8.000000000000000000 ) ;
#217 = SHAPE_DEFINITION_REPRESENTATION ( #212, #50 ) ;
#218 = FACE_OUTER_BOUND ( 'NONE', #126, .T. ) ;
#219 = EDGE_CURVE ( 'NONE', #277, #266, #57, .T. ) ;
#220 = VERTEX_POINT ( 'NONE', #155 ) ;
#221 = AXIS2_PLACEMENT_3D ( 'NONE', #145, #198, #232 ) ;
#222 = EDGE_LOOP ( 'NONE', ( #65, #43, #5, #103 ) ) ;
#223 = DIRECTION ( 'NONE',  ( -0.000000000000000000, -0.000000000000000000, -1.000000000000000000 ) ) ;
#224 = ORIENTED_EDGE ( 'NONE', *, *, #273, .F. ) ;
#225 = ADVANCED_FACE ( 'NONE', ( #101 ), #293, .F. ) ;
#226 = ORIENTED_EDGE ( 'NONE', *, *, #294, .T. ) ;
#227 = CARTESIAN_POINT ( 'NONE',  ( 11.00000000000000000, 1.347111479062088405E-15, 7.000000000000000000 ) ) ;
#228 = CARTESIAN_POINT ( 'NONE',  ( 0.000000000000000000, 0.000000000000000000, 507.0000000000000000 ) ) ;
#229 = VECTOR ( 'NONE', #174, 1000.000000000000000 ) ;
#230 = CARTESIAN_POINT ( 'NONE',  ( 0.000000000000000000, 0.000000000000000000, 7.000000000000000000 ) ) ;
#231 = DIRECTION ( 'NONE',  ( 0.000000000000000000, 0.000000000000000000, 1.000000000000000000 ) ) ;
#232 = DIRECTION ( 'NONE',  ( 1.000000000000000000, 0.000000000000000000, -0.000000000000000000 ) ) ;
#233 = APPROVAL_PERSON_ORGANIZATION ( #56, #147, #149 ) ;
#234 = FACE_BOUND ( 'NONE', #71, .T. ) ;
#235 = CC_DESIGN_PERSON_AND_ORGANIZATION_ASSIGNMENT ( #270, #91, ( #48 ) ) ;
#236 = PERSON_AND_ORGANIZATION ( #196, #134 ) ;
#237 = AXIS2_PLACEMENT_3D ( 'NONE', #128, #300, #96 ) ;
#238 = DIRECTION ( 'NONE',  ( 0.000000000000000000, 0.000000000000000000, -1.000000000000000000 ) ) ;
#239 = VERTEX_POINT ( 'NONE', #275 ) ;
#240 = PERSON_AND_ORGANIZATION_ROLE ( 'creator' ) ;
#241 = DIRECTION ( 'NONE',  ( 0.000000000000000000, 0.000000000000000000, 1.000000000000000000 ) ) ;
#242 = ORIENTED_EDGE ( 'NONE', *, *, #301, .F. ) ;
#243 = SECURITY_CLASSIFICATION ( '', '', #88 ) ;
#244 = DIRECTION ( 'NONE',  ( 0.000000000000000000, 0.000000000000000000, 1.000000000000000000 ) ) ;
#245 = ORIENTED_EDGE ( 'NONE', *, *, #40, .F. ) ;
#246 = ORIENTED_EDGE ( 'NONE', *, *, #193, .T. ) ;
#247 = DIRECTION ( 'NONE',  ( 1.000000000000000000, 0.000000000000000000, 0.000000000000000000 ) ) ;
#248 = EDGE_LOOP ( 'NONE', ( #38, #158, #69, #358 ) ) ;
#249 = AXIS2_PLACEMENT_3D ( 'NONE', #280, #111, #336 ) ;
#250 = DIRECTION ( 'NONE',  ( 1.224646799147353207E-16, 1.000000000000000000, -0.000000000000000000 ) ) ;
#251 = DIRECTION ( 'NONE',  ( 0.000000000000000000, 0.000000000000000000, 1.000000000000000000 ) ) ;
#252 = CARTESIAN_POINT ( 'NONE',  ( 0.000000000000000000, 0.000000000000000000, 7.000000000000000000 ) ) ;
#253 = FACE_BOUND ( 'NONE', #343, .T. ) ;
#254 = DIRECTION ( 'NONE',  ( 0.000000000000000000, 0.000000000000000000, 1.000000000000000000 ) ) ;
#255 = EDGE_CURVE ( 'NONE', #271, #274, #68, .T. ) ;
#256 = CARTESIAN_POINT ( 'NONE',  ( 0.000000000000000000, 0.000000000000000000, 7.000000000000000000 ) ) ;
#257 = PERSON_AND_ORGANIZATION ( #196, #134 ) ;
#258 = AXIS2_PLACEMENT_3D ( 'NONE', #13, #250, #166 ) ;
#259 = CIRCLE ( 'NONE', #37, 6.000000000000000888 ) ;
#260 = EDGE_CURVE ( 'NONE', #220, #298, #171, .T. ) ;
#261 = DIRECTION ( 'NONE',  ( 1.000000000000000000, 0.000000000000000000, 0.000000000000000000 ) ) ;
#262 = AXIS2_PLACEMENT_3D ( 'NONE', #45, #14, #11 ) ;
#263 = CARTESIAN_POINT ( 'NONE',  ( 0.000000000000000000, 0.000000000000000000, 507.0000000000000000 ) ) ;
#264 = PRODUCT ( '08b8', '08b8', '', ( #368 ) ) ;
#265 = LOCAL_TIME ( 16, 18, 24.00000000000000000, #380 ) ;
#266 = VERTEX_POINT ( 'NONE', #161 ) ;
#267 = APPROVAL ( #60, 'NEURÈENÝ' ) ;
#268 = PERSON_AND_ORGANIZATION ( #196, #134 ) ;
#269 = EDGE_LOOP ( 'NONE', ( #188, #130, #177, #123 ) ) ;
#270 = PERSON_AND_ORGANIZATION ( #196, #134 ) ;
#271 = VERTEX_POINT ( 'NONE', #114 ) ;
#272 = CC_DESIGN_SECURITY_CLASSIFICATION ( #243, ( #48 ) ) ;
#273 = EDGE_CURVE ( 'NONE', #239, #194, #104, .T. ) ;
#274 = VERTEX_POINT ( 'NONE', #227 ) ;
#275 = CARTESIAN_POINT ( 'NONE',  ( -8.000000000000000000, 0.000000000000000000, 507.0000000000000000 ) ) ;
#276 = EDGE_LOOP ( 'NONE', ( #214, #303 ) ) ;
#277 = VERTEX_POINT ( 'NONE', #192 ) ;
#278 = AXIS2_PLACEMENT_3D ( 'NONE', #326, #124, #99 ) ;
#279 = DIRECTION ( 'NONE',  ( -1.000000000000000000, 0.000000000000000000, 0.000000000000000000 ) ) ;
#280 = CARTESIAN_POINT ( 'NONE',  ( 0.000000000000000000, 0.000000000000000000, 0.000000000000000000 ) ) ;
#281 = CIRCLE ( 'NONE', #7, 0.7000000000000000666 ) ;
#282 = APPLICATION_PROTOCOL_DEFINITION ( 'international standard', 'config_control_design', 1994, #204 ) ;
#283 = CARTESIAN_POINT ( 'NONE',  ( 6.000000000000000888, 7.347880794884120722E-16, 507.0000000000000000 ) ) ;
#284 = APPROVAL_STATUS ( 'not_yet_approved' ) ;
#285 = EDGE_CURVE ( 'NONE', #194, #329, #30, .T. ) ;
#286 =( NAMED_UNIT ( * ) SI_UNIT ( $, .STERADIAN. ) SOLID_ANGLE_UNIT ( ) );
#287 = CC_DESIGN_APPROVAL ( #147, ( #243 ) ) ;
#288 = EDGE_LOOP ( 'NONE', ( #3, #307, #32, #350 ) ) ;
#289 = EDGE_CURVE ( 'NONE', #298, #220, #377, .T. ) ;
#290 = COORDINATED_UNIVERSAL_TIME_OFFSET ( 1, 0, .AHEAD. ) ;
#291 = CARTESIAN_POINT ( 'NONE',  ( 0.000000000000000000, 0.000000000000000000, 7.699999999999985079 ) ) ;
#292 = AXIS2_PLACEMENT_3D ( 'NONE', #228, #345, #116 ) ;
#293 = CYLINDRICAL_SURFACE ( 'NONE', #318, 6.000000000000000888 ) ;
#294 = EDGE_CURVE ( 'NONE', #329, #305, #84, .T. ) ;
#295 = LOCAL_TIME ( 16, 18, 24.00000000000000000, #346 ) ;
#296 = APPROVAL_ROLE ( '' ) ;
#297 = CARTESIAN_POINT ( 'NONE',  ( 0.000000000000000000, 0.000000000000000000, 0.000000000000000000 ) ) ;
#298 = VERTEX_POINT ( 'NONE', #197 ) ;
#299 = CALENDAR_DATE ( 2022, 8, 7 ) ;
#300 = DIRECTION ( 'NONE',  ( 0.000000000000000000, 0.000000000000000000, 1.000000000000000000 ) ) ;
#301 = EDGE_CURVE ( 'NONE', #274, #220, #74, .T. ) ;
#302 = CARTESIAN_POINT ( 'NONE',  ( 0.000000000000000000, 0.000000000000000000, 7.000000000000000000 ) ) ;
#303 = ORIENTED_EDGE ( 'NONE', *, *, #260, .F. ) ;
#304 = CARTESIAN_POINT ( 'NONE',  ( 0.000000000000000000, 0.000000000000000000, 507.0000000000000000 ) ) ;
#305 = VERTEX_POINT ( 'NONE', #72 ) ;
#306 = DIRECTION ( 'NONE',  ( 0.000000000000000000, 0.000000000000000000, 1.000000000000000000 ) ) ;
#307 = ORIENTED_EDGE ( 'NONE', *, *, #40, .T. ) ;
#308 = DIRECTION ( 'NONE',  ( 1.000000000000000000, 0.000000000000000000, 0.000000000000000000 ) ) ;
#309 = AXIS2_PLACEMENT_3D ( 'NONE', #83, #205, #203 ) ;
#310 = FACE_OUTER_BOUND ( 'NONE', #131, .T. ) ;
#311 = APPLICATION_PROTOCOL_DEFINITION ( 'international standard', 'config_control_design', 1994, #337 ) ;
#312 = CIRCLE ( 'NONE', #98, 11.00000000000000000 ) ;
#313 = AXIS2_PLACEMENT_3D ( 'NONE', #207, #251, #261 ) ;
#314 = CARTESIAN_POINT ( 'NONE',  ( -11.00000000000000000, 0.000000000000000000, 7.000000000000000000 ) ) ;
#315 = EDGE_CURVE ( 'NONE', #328, #239, #216, .T. ) ;
#316 = DATE_AND_TIME ( #151, #54 ) ;
#317 = CYLINDRICAL_SURFACE ( 'NONE', #292, 8.000000000000000000 ) ;
#318 = AXIS2_PLACEMENT_3D ( 'NONE', #137, #70, #357 ) ;
#319 = DATE_AND_TIME ( #176, #295 ) ;
#320 = CIRCLE ( 'NONE', #93, 8.699999999999999289 ) ;
#321 = EDGE_CURVE ( 'NONE', #185, #277, #369, .T. ) ;
#322 = CYLINDRICAL_SURFACE ( 'NONE', #164, 8.000000000000000000 ) ;
#323 = PERSON_AND_ORGANIZATION_ROLE ( 'classification_officer' ) ;
#324 = CC_DESIGN_APPROVAL ( #267, ( #48 ) ) ;
#325 = ORIENTED_EDGE ( 'NONE', *, *, #162, .T. ) ;
#326 = CARTESIAN_POINT ( 'NONE',  ( 0.000000000000000000, 0.000000000000000000, 507.0000000000000000 ) ) ;
#327 = ADVANCED_FACE ( 'NONE', ( #199 ), #190, .T. ) ;
#328 = VERTEX_POINT ( 'NONE', #330 ) ;
#329 = VERTEX_POINT ( 'NONE', #39 ) ;
#330 = CARTESIAN_POINT ( 'NONE',  ( 8.000000000000000000, 9.797174393178825657E-16, 507.0000000000000000 ) ) ;
#331 = EDGE_LOOP ( 'NONE', ( #245, #108, #360, #375 ) ) ;
#332 = CARTESIAN_POINT ( 'NONE',  ( 0.000000000000000000, 0.000000000000000000, 0.000000000000000000 ) ) ;
#333 = EDGE_LOOP ( 'NONE', ( #242, #59, #356, #35 ) ) ;
#334 = DIRECTION ( 'NONE',  ( 1.000000000000000000, 0.000000000000000000, 0.000000000000000000 ) ) ;
#335 = FACE_OUTER_BOUND ( 'NONE', #333, .T. ) ;
#336 = DIRECTION ( 'NONE',  ( 1.000000000000000000, 0.000000000000000000, 0.000000000000000000 ) ) ;
#337 = APPLICATION_CONTEXT ( 'configuration controlled 3d designs of mechanical parts and assemblies' ) ;
#338 = FACE_OUTER_BOUND ( 'NONE', #276, .T. ) ;
#339 = DIRECTION ( 'NONE',  ( -0.000000000000000000, -0.000000000000000000, -1.000000000000000000 ) ) ;
#340 = DIRECTION ( 'NONE',  ( 0.000000000000000000, -1.000000000000000000, 0.000000000000000000 ) ) ;
#341 = APPROVAL_ROLE ( '' ) ;
#342 = TOROIDAL_SURFACE ( 'NONE', #309, 8.699999999999999289, 0.6999999999999999556 ) ;
#343 = EDGE_LOOP ( 'NONE', ( #46, #226 ) ) ;
#344 = LINE ( 'NONE', #78, #195 ) ;
#345 = DIRECTION ( 'NONE',  ( -0.000000000000000000, -0.000000000000000000, -1.000000000000000000 ) ) ;
#346 = COORDINATED_UNIVERSAL_TIME_OFFSET ( 1, 0, .AHEAD. ) ;
#347 = APPROVAL_PERSON_ORGANIZATION ( #47, #361, #341 ) ;
#348 = EDGE_CURVE ( 'NONE', #266, #150, #259, .T. ) ;
#349 = DIRECTION ( 'NONE',  ( 1.000000000000000000, 0.000000000000000000, -0.000000000000000000 ) ) ;
#350 = ORIENTED_EDGE ( 'NONE', *, *, #219, .F. ) ;
#351 = DATE_AND_TIME ( #299, #148 ) ;
#352 = CC_DESIGN_APPROVAL ( #361, ( #139 ) ) ;
#353 = ORIENTED_EDGE ( 'NONE', *, *, #255, .T. ) ;
#354 = CARTESIAN_POINT ( 'NONE',  ( 8.000000000000000000, 9.797174393178825657E-16, 7.699999999999985079 ) ) ;
#355 = EDGE_CURVE ( 'NONE', #274, #271, #312, .T. ) ;
#356 = ORIENTED_EDGE ( 'NONE', *, *, #113, .T. ) ;
#357 = DIRECTION ( 'NONE',  ( -1.000000000000000000, 0.000000000000000000, 0.000000000000000000 ) ) ;
#358 = ORIENTED_EDGE ( 'NONE', *, *, #172, .T. ) ;
#359 = CARTESIAN_POINT ( 'NONE',  ( 0.000000000000000000, 0.000000000000000000, 7.000000000000000000 ) ) ;
#360 = ORIENTED_EDGE ( 'NONE', *, *, #219, .T. ) ;
#361 = APPROVAL ( #284, 'NEURÈENÝ' ) ;
#362 = CARTESIAN_POINT ( 'NONE',  ( -8.000000000000000000, 0.000000000000000000, 507.0000000000000000 ) ) ;
#363 = FACE_OUTER_BOUND ( 'NONE', #248, .T. ) ;
#364 = DIRECTION ( 'NONE',  ( 0.000000000000000000, 0.000000000000000000, 1.000000000000000000 ) ) ;
#365 = DIRECTION ( 'NONE',  ( 1.000000000000000000, 0.000000000000000000, 0.000000000000000000 ) ) ;
#366 = ADVANCED_FACE ( 'NONE', ( #173 ), #342, .F. ) ;
#367 = AXIS2_PLACEMENT_3D ( 'NONE', #302, #223, #334 ) ;
#368 = MECHANICAL_CONTEXT ( 'NONE', #204, 'mechanical' ) ;
#369 = CIRCLE ( 'NONE', #90, 6.000000000000000888 ) ;
#370 = EDGE_CURVE ( 'NONE', #277, #185, #189, .T. ) ;
#371 = AXIS2_PLACEMENT_3D ( 'NONE', #67, #187, #247 ) ;
#372 = DIRECTION ( 'NONE',  ( 1.000000000000000000, 0.000000000000000000, 0.000000000000000000 ) ) ;
#373 = CALENDAR_DATE ( 2022, 8, 7 ) ;
#374 = CARTESIAN_POINT ( 'NONE',  ( -8.000000000000000000, 0.000000000000000000, 7.699999999999985079 ) ) ;
#375 = ORIENTED_EDGE ( 'NONE', *, *, #348, .T. ) ;
#376 = APPROVAL_DATE_TIME ( #121, #267 ) ;
#377 = CIRCLE ( 'NONE', #249, 11.00000000000000000 ) ;
#378 = COORDINATED_UNIVERSAL_TIME_OFFSET ( 1, 0, .AHEAD. ) ;
#379 = CARTESIAN_POINT ( 'NONE',  ( -6.000000000000000888, 0.000000000000000000, 507.0000000000000000 ) ) ;
#380 = COORDINATED_UNIVERSAL_TIME_OFFSET ( 1, 0, .AHEAD. ) ;
#381 = ORIENTED_EDGE ( 'NONE', *, *, #355, .T. ) ;
ENDSEC;
END-ISO-10303-21;
