ISO-10303-21;
HEADER;
FILE_DESCRIPTION (( 'STEP AP203' ),
    '1' );
FILE_NAME ('458a.STEP',
    '2022-07-08T14:19:06',
    ( '' ),
    ( '' ),
    'SwSTEP 2.0',
    'SolidWorks 2019',
    '' );
FILE_SCHEMA (( 'CONFIG_CONTROL_DESIGN' ));
ENDSEC;

DATA;
#1 = EDGE_LOOP ( 'NONE', ( #251, #56 ) ) ;
#2 = AXIS2_PLACEMENT_3D ( 'NONE', #150, #121, #148 ) ;
#3 = ORIENTED_EDGE ( 'NONE', *, *, #126, .F. ) ;
#4 = MECHANICAL_CONTEXT ( 'NONE', #7, 'mechanical' ) ;
#5 = FACE_BOUND ( 'NONE', #1, .T. ) ;
#6 = ORIENTED_EDGE ( 'NONE', *, *, #261, .T. ) ;
#7 = APPLICATION_CONTEXT ( 'configuration controlled 3d designs of mechanical parts and assemblies' ) ;
#8 = ORIENTED_EDGE ( 'NONE', *, *, #298, .T. ) ;
#9 = UNCERTAINTY_MEASURE_WITH_UNIT (LENGTH_MEASURE( 1.000000000000000082E-05 ), #296, 'distance_accuracy_value', 'NONE');
#10 = DATE_TIME_ROLE ( 'creation_date' ) ;
#11 = LINE ( 'NONE', #256, #222 ) ;
#12 = CIRCLE ( 'NONE', #31, 11.00000000000000000 ) ;
#13 = EDGE_CURVE ( 'NONE', #275, #32, #240, .T. ) ;
#14 = DIRECTION ( 'NONE',  ( -1.000000000000000000, 0.000000000000000000, 0.000000000000000000 ) ) ;
#15 = PERSON_AND_ORGANIZATION ( #276, #353 ) ;
#16 = CC_DESIGN_APPROVAL ( #25, ( #97 ) ) ;
#17 = CARTESIAN_POINT ( 'NONE',  ( 0.000000000000000000, 0.000000000000000000, 7.000000000000000000 ) ) ;
#18 = PERSON_AND_ORGANIZATION ( #276, #353 ) ;
#19 = APPROVAL_ROLE ( '' ) ;
#20 = DIRECTION ( 'NONE',  ( 0.000000000000000000, 0.000000000000000000, 1.000000000000000000 ) ) ;
#21 = ADVANCED_FACE ( 'NONE', ( #5, #129 ), #273, .F. ) ;
#22 = LINE ( 'NONE', #55, #206 ) ;
#23 = AXIS2_PLACEMENT_3D ( 'NONE', #160, #157, #38 ) ;
#24 = VERTEX_POINT ( 'NONE', #303 ) ;
#25 = APPROVAL ( #196, 'NEURÈENÝ' ) ;
#26 = DIRECTION ( 'NONE',  ( -0.000000000000000000, -0.000000000000000000, -1.000000000000000000 ) ) ;
#27 = DIRECTION ( 'NONE',  ( 1.000000000000000000, 0.000000000000000000, 0.000000000000000000 ) ) ;
#28 = CIRCLE ( 'NONE', #152, 11.00000000000000000 ) ;
#29 = CARTESIAN_POINT ( 'NONE',  ( 0.000000000000000000, 0.000000000000000000, 0.000000000000000000 ) ) ;
#30 = VERTEX_POINT ( 'NONE', #329 ) ;
#31 = AXIS2_PLACEMENT_3D ( 'NONE', #255, #76, #203 ) ;
#32 = VERTEX_POINT ( 'NONE', #60 ) ;
#33 = ORIENTED_EDGE ( 'NONE', *, *, #202, .F. ) ;
#34 =( NAMED_UNIT ( * ) SI_UNIT ( $, .STERADIAN. ) SOLID_ANGLE_UNIT ( ) );
#35 = ORIENTED_EDGE ( 'NONE', *, *, #13, .T. ) ;
#36 = DIRECTION ( 'NONE',  ( 0.000000000000000000, -1.000000000000000000, 0.000000000000000000 ) ) ;
#37 = CARTESIAN_POINT ( 'NONE',  ( 0.000000000000000000, 0.000000000000000000, 357.0000000000000000 ) ) ;
#38 = DIRECTION ( 'NONE',  ( -1.000000000000000000, 0.000000000000000000, 0.000000000000000000 ) ) ;
#39 = ORIENTED_EDGE ( 'NONE', *, *, #219, .F. ) ;
#40 = AXIS2_PLACEMENT_3D ( 'NONE', #340, #144, #258 ) ;
#41 = FACE_OUTER_BOUND ( 'NONE', #217, .T. ) ;
#42 = APPROVAL ( #200, 'NEURÈENÝ' ) ;
#43 = PERSON_AND_ORGANIZATION ( #276, #353 ) ;
#44 = CARTESIAN_POINT ( 'NONE',  ( -6.000000000000000888, 0.000000000000000000, 0.000000000000000000 ) ) ;
#45 = CIRCLE ( 'NONE', #120, 8.000000000000000000 ) ;
#46 = CARTESIAN_POINT ( 'NONE',  ( 6.000000000000000888, 7.347880794884120722E-16, 0.000000000000000000 ) ) ;
#47 = LINE ( 'NONE', #284, #125 ) ;
#48 = ADVANCED_FACE ( 'NONE', ( #66 ), #124, .F. ) ;
#49 = CARTESIAN_POINT ( 'NONE',  ( 0.000000000000000000, 0.000000000000000000, 7.000000000000000000 ) ) ;
#50 = DIRECTION ( 'NONE',  ( -0.000000000000000000, -0.000000000000000000, -1.000000000000000000 ) ) ;
#51 = AXIS2_PLACEMENT_3D ( 'NONE', #195, #280, #14 ) ;
#52 = CC_DESIGN_PERSON_AND_ORGANIZATION_ASSIGNMENT ( #179, #355, ( #361 ) ) ;
#53 = DIRECTION ( 'NONE',  ( 0.000000000000000000, 0.000000000000000000, 1.000000000000000000 ) ) ;
#54 = CARTESIAN_POINT ( 'NONE',  ( 0.000000000000000000, 0.000000000000000000, 7.000000000000000000 ) ) ;
#55 = CARTESIAN_POINT ( 'NONE',  ( 11.00000000000000000, 1.347111479062088405E-15, 7.000000000000000000 ) ) ;
#56 = ORIENTED_EDGE ( 'NONE', *, *, #269, .F. ) ;
#57 = AXIS2_PLACEMENT_3D ( 'NONE', #175, #378, #118 ) ;
#58 = CYLINDRICAL_SURFACE ( 'NONE', #23, 8.000000000000000000 ) ;
#59 = DIRECTION ( 'NONE',  ( 0.000000000000000000, 0.000000000000000000, 1.000000000000000000 ) ) ;
#60 = CARTESIAN_POINT ( 'NONE',  ( -8.699999999999999289, 1.065442715258197248E-15, 6.999999999999992006 ) ) ;
#61 = ORIENTED_EDGE ( 'NONE', *, *, #312, .F. ) ;
#62 = ADVANCED_FACE ( 'NONE', ( #182 ), #305, .T. ) ;
#63 = AXIS2_PLACEMENT_3D ( 'NONE', #17, #197, #72 ) ;
#64 = LOCAL_TIME ( 16, 19, 6.000000000000000000, #315 ) ;
#65 = CARTESIAN_POINT ( 'NONE',  ( -8.000000000000000000, 0.000000000000000000, 357.0000000000000000 ) ) ;
#66 = FACE_OUTER_BOUND ( 'NONE', #95, .T. ) ;
#67 = EDGE_LOOP ( 'NONE', ( #91, #266, #324, #374 ) ) ;
#68 = CLOSED_SHELL ( 'NONE', ( #48, #234, #375, #62, #263, #145, #21, #193, #88, #216, #342 ) ) ;
#69 = VERTEX_POINT ( 'NONE', #46 ) ;
#70 = LOCAL_TIME ( 16, 19, 6.000000000000000000, #304 ) ;
#71 = PERSON_AND_ORGANIZATION ( #276, #353 ) ;
#72 = DIRECTION ( 'NONE',  ( 1.000000000000000000, 0.000000000000000000, 0.000000000000000000 ) ) ;
#73 = DIRECTION ( 'NONE',  ( 1.000000000000000000, 0.000000000000000000, 0.000000000000000000 ) ) ;
#74 = CIRCLE ( 'NONE', #233, 8.000000000000000000 ) ;
#75 = PERSON_AND_ORGANIZATION_ROLE ( 'design_supplier' ) ;
#76 = DIRECTION ( 'NONE',  ( 0.000000000000000000, 0.000000000000000000, 1.000000000000000000 ) ) ;
#77 = EDGE_CURVE ( 'NONE', #275, #244, #45, .T. ) ;
#78 = CIRCLE ( 'NONE', #131, 6.000000000000000888 ) ;
#79 = DIRECTION ( 'NONE',  ( -0.000000000000000000, -0.000000000000000000, -1.000000000000000000 ) ) ;
#80 = PLANE ( 'NONE',  #245 ) ;
#81 = EDGE_CURVE ( 'NONE', #354, #267, #172, .T. ) ;
#82 = CYLINDRICAL_SURFACE ( 'NONE', #57, 6.000000000000000888 ) ;
#83 = ORIENTED_EDGE ( 'NONE', *, *, #94, .T. ) ;
#84 = CIRCLE ( 'NONE', #40, 6.000000000000000888 ) ;
#85 = CARTESIAN_POINT ( 'NONE',  ( 0.000000000000000000, 0.000000000000000000, 7.699999999999985079 ) ) ;
#86 = ORIENTED_EDGE ( 'NONE', *, *, #176, .F. ) ;
#87 = LINE ( 'NONE', #127, #105 ) ;
#88 = ADVANCED_FACE ( 'NONE', ( #107, #224 ), #80, .T. ) ;
#89 = DIRECTION ( 'NONE',  ( 1.000000000000000000, 0.000000000000000000, 0.000000000000000000 ) ) ;
#90 = APPROVAL_PERSON_ORGANIZATION ( #15, #25, #19 ) ;
#91 = ORIENTED_EDGE ( 'NONE', *, *, #365, .F. ) ;
#92 =( GEOMETRIC_REPRESENTATION_CONTEXT ( 3 ) GLOBAL_UNCERTAINTY_ASSIGNED_CONTEXT ( ( #9 ) ) GLOBAL_UNIT_ASSIGNED_CONTEXT ( ( #296, #302, #34 ) ) REPRESENTATION_CONTEXT ( 'NONE', 'WORKASPACE' ) );
#93 = EDGE_LOOP ( 'NONE', ( #295, #297 ) ) ;
#94 = EDGE_CURVE ( 'NONE', #24, #267, #12, .T. ) ;
#95 = EDGE_LOOP ( 'NONE', ( #350, #132, #128, #86 ) ) ;
#96 = PERSON_AND_ORGANIZATION ( #276, #353 ) ;
#97 = SECURITY_CLASSIFICATION ( '', '', #262 ) ;
#98 = ORIENTED_EDGE ( 'NONE', *, *, #126, .T. ) ;
#99 = AXIS2_PLACEMENT_3D ( 'NONE', #311, #314, #368 ) ;
#100 = APPLICATION_PROTOCOL_DEFINITION ( 'international standard', 'config_control_design', 1994, #7 ) ;
#101 = EDGE_LOOP ( 'NONE', ( #3, #183, #241, #39 ) ) ;
#102 = PERSON_AND_ORGANIZATION_ROLE ( 'classification_officer' ) ;
#103 = ORIENTED_EDGE ( 'NONE', *, *, #359, .F. ) ;
#104 = CYLINDRICAL_SURFACE ( 'NONE', #51, 8.000000000000000000 ) ;
#105 = VECTOR ( 'NONE', #330, 1000.000000000000000 ) ;
#106 = DATE_TIME_ROLE ( 'classification_date' ) ;
#107 = FACE_BOUND ( 'NONE', #114, .T. ) ;
#108 = DIRECTION ( 'NONE',  ( 0.000000000000000000, 0.000000000000000000, -1.000000000000000000 ) ) ;
#109 = CC_DESIGN_PERSON_AND_ORGANIZATION_ASSIGNMENT ( #71, #75, ( #283 ) ) ;
#110 = COORDINATED_UNIVERSAL_TIME_OFFSET ( 1, 0, .AHEAD. ) ;
#111 = FACE_OUTER_BOUND ( 'NONE', #67, .T. ) ;
#112 = APPROVAL ( #187, 'NEURÈENÝ' ) ;
#113 = CARTESIAN_POINT ( 'NONE',  ( -6.000000000000000888, 0.000000000000000000, 357.0000000000000000 ) ) ;
#114 = EDGE_LOOP ( 'NONE', ( #159, #218 ) ) ;
#115 = AXIS2_PLACEMENT_3D ( 'NONE', #49, #169, #343 ) ;
#116 = CARTESIAN_POINT ( 'NONE',  ( 0.000000000000000000, 0.000000000000000000, 7.000000000000000000 ) ) ;
#117 = AXIS2_PLACEMENT_3D ( 'NONE', #85, #204, #89 ) ;
#118 = DIRECTION ( 'NONE',  ( -1.000000000000000000, 0.000000000000000000, 0.000000000000000000 ) ) ;
#119 = PRODUCT_RELATED_PRODUCT_CATEGORY ( 'detail', '', ( #361 ) ) ;
#120 = AXIS2_PLACEMENT_3D ( 'NONE', #228, #260, #370 ) ;
#121 = DIRECTION ( 'NONE',  ( -0.000000000000000000, -0.000000000000000000, -1.000000000000000000 ) ) ;
#122 = ORIENTED_EDGE ( 'NONE', *, *, #81, .T. ) ;
#123 = APPROVAL_ROLE ( '' ) ;
#124 = CYLINDRICAL_SURFACE ( 'NONE', #213, 6.000000000000000888 ) ;
#125 = VECTOR ( 'NONE', #137, 1000.000000000000000 ) ;
#126 = EDGE_CURVE ( 'NONE', #185, #379, #74, .T. ) ;
#127 = CARTESIAN_POINT ( 'NONE',  ( 8.000000000000000000, 9.797174393178825657E-16, 357.0000000000000000 ) ) ;
#128 = ORIENTED_EDGE ( 'NONE', *, *, #269, .T. ) ;
#129 = FACE_OUTER_BOUND ( 'NONE', #278, .T. ) ;
#130 = ORIENTED_EDGE ( 'NONE', *, *, #171, .F. ) ;
#131 = AXIS2_PLACEMENT_3D ( 'NONE', #380, #26, #288 ) ;
#132 = ORIENTED_EDGE ( 'NONE', *, *, #133, .T. ) ;
#133 = EDGE_CURVE ( 'NONE', #30, #69, #309, .T. ) ;
#134 = CALENDAR_DATE ( 2022, 8, 7 ) ;
#135 = CARTESIAN_POINT ( 'NONE',  ( 0.000000000000000000, 0.000000000000000000, 357.0000000000000000 ) ) ;
#136 = COORDINATED_UNIVERSAL_TIME_OFFSET ( 1, 0, .AHEAD. ) ;
#137 = DIRECTION ( 'NONE',  ( -0.000000000000000000, -0.000000000000000000, -1.000000000000000000 ) ) ;
#138 = LOCAL_TIME ( 16, 19, 6.000000000000000000, #110 ) ;
#139 = CC_DESIGN_PERSON_AND_ORGANIZATION_ASSIGNMENT ( #220, #334, ( #283 ) ) ;
#140 = DATE_AND_TIME ( #285, #64 ) ;
#141 = CARTESIAN_POINT ( 'NONE',  ( 8.699999999999999289, 0.000000000000000000, 6.999999999999992006 ) ) ;
#142 = CARTESIAN_POINT ( 'NONE',  ( 0.000000000000000000, 0.000000000000000000, 0.000000000000000000 ) ) ;
#143 = ADVANCED_BREP_SHAPE_REPRESENTATION ( '458a', ( #205, #307 ), #92 ) ;
#144 = DIRECTION ( 'NONE',  ( 0.000000000000000000, 0.000000000000000000, 1.000000000000000000 ) ) ;
#145 = ADVANCED_FACE ( 'NONE', ( #336, #371 ), #316, .T. ) ;
#146 = CC_DESIGN_SECURITY_CLASSIFICATION ( #97, ( #283 ) ) ;
#147 = CIRCLE ( 'NONE', #292, 6.000000000000000888 ) ;
#148 = DIRECTION ( 'NONE',  ( 1.000000000000000000, 0.000000000000000000, 0.000000000000000000 ) ) ;
#149 = CARTESIAN_POINT ( 'NONE',  ( 0.000000000000000000, 0.000000000000000000, 7.699999999999985079 ) ) ;
#150 = CARTESIAN_POINT ( 'NONE',  ( 0.000000000000000000, 0.000000000000000000, 7.000000000000000000 ) ) ;
#151 = VERTEX_POINT ( 'NONE', #141 ) ;
#152 = AXIS2_PLACEMENT_3D ( 'NONE', #210, #53, #317 ) ;
#153 = DIRECTION ( 'NONE',  ( 0.000000000000000000, 0.000000000000000000, 1.000000000000000000 ) ) ;
#154 = CARTESIAN_POINT ( 'NONE',  ( 0.000000000000000000, 0.000000000000000000, 357.0000000000000000 ) ) ;
#155 = FACE_OUTER_BOUND ( 'NONE', #101, .T. ) ;
#156 = DIRECTION ( 'NONE',  ( -1.000000000000000000, 0.000000000000000000, 0.000000000000000000 ) ) ;
#157 = DIRECTION ( 'NONE',  ( -0.000000000000000000, -0.000000000000000000, -1.000000000000000000 ) ) ;
#158 = ORIENTED_EDGE ( 'NONE', *, *, #381, .T. ) ;
#159 = ORIENTED_EDGE ( 'NONE', *, *, #180, .F. ) ;
#160 = CARTESIAN_POINT ( 'NONE',  ( 0.000000000000000000, 0.000000000000000000, 357.0000000000000000 ) ) ;
#161 = DIRECTION ( 'NONE',  ( 0.000000000000000000, 0.000000000000000000, -1.000000000000000000 ) ) ;
#162 = DIRECTION ( 'NONE',  ( 0.000000000000000000, 0.000000000000000000, -1.000000000000000000 ) ) ;
#163 = ORIENTED_EDGE ( 'NONE', *, *, #94, .F. ) ;
#164 = DIRECTION ( 'NONE',  ( 1.000000000000000000, 0.000000000000000000, 0.000000000000000000 ) ) ;
#165 = CALENDAR_DATE ( 2022, 8, 7 ) ;
#166 = CC_DESIGN_PERSON_AND_ORGANIZATION_ASSIGNMENT ( #43, #339, ( #186 ) ) ;
#167 = CARTESIAN_POINT ( 'NONE',  ( 8.000000000000000000, 9.797174393178825657E-16, 357.0000000000000000 ) ) ;
#168 = APPROVAL_PERSON_ORGANIZATION ( #18, #42, #170 ) ;
#169 = DIRECTION ( 'NONE',  ( 0.000000000000000000, 0.000000000000000000, 1.000000000000000000 ) ) ;
#170 = APPROVAL_ROLE ( '' ) ;
#171 = EDGE_CURVE ( 'NONE', #267, #24, #291, .T. ) ;
#172 = LINE ( 'NONE', #369, #332 ) ;
#173 = DIRECTION ( 'NONE',  ( 0.000000000000000000, 0.000000000000000000, 1.000000000000000000 ) ) ;
#174 = CIRCLE ( 'NONE', #299, 11.00000000000000000 ) ;
#175 = CARTESIAN_POINT ( 'NONE',  ( 0.000000000000000000, 0.000000000000000000, 357.0000000000000000 ) ) ;
#176 = EDGE_CURVE ( 'NONE', #333, #212, #11, .T. ) ;
#177 = CARTESIAN_POINT ( 'NONE',  ( 8.000000000000000000, 9.797174393178825657E-16, 7.699999999999985079 ) ) ;
#178 = ORIENTED_EDGE ( 'NONE', *, *, #322, .T. ) ;
#179 = PERSON_AND_ORGANIZATION ( #276, #353 ) ;
#180 = EDGE_CURVE ( 'NONE', #333, #30, #84, .T. ) ;
#181 = EDGE_LOOP ( 'NONE', ( #243, #8, #348, #178 ) ) ;
#182 = FACE_OUTER_BOUND ( 'NONE', #308, .T. ) ;
#183 = ORIENTED_EDGE ( 'NONE', *, *, #365, .T. ) ;
#184 = LOCAL_TIME ( 16, 19, 6.000000000000000000, #223 ) ;
#185 = VERTEX_POINT ( 'NONE', #167 ) ;
#186 = PRODUCT_DEFINITION ( 'NEZNÁMÝ', '', #283, #360 ) ;
#187 = APPROVAL_STATUS ( 'not_yet_approved' ) ;
#188 = ORIENTED_EDGE ( 'NONE', *, *, #252, .F. ) ;
#189 = DATE_AND_TIME ( #313, #184 ) ;
#190 = DIRECTION ( 'NONE',  ( -1.000000000000000000, 1.224646799147353207E-16, 0.000000000000000000 ) ) ;
#191 = APPROVAL_PERSON_ORGANIZATION ( #96, #112, #123 ) ;
#192 = DIRECTION ( 'NONE',  ( 0.000000000000000000, 0.000000000000000000, 1.000000000000000000 ) ) ;
#193 = ADVANCED_FACE ( 'NONE', ( #111 ), #104, .T. ) ;
#194 = APPROVAL_DATE_TIME ( #189, #25 ) ;
#195 = CARTESIAN_POINT ( 'NONE',  ( 0.000000000000000000, 0.000000000000000000, 357.0000000000000000 ) ) ;
#196 = APPROVAL_STATUS ( 'not_yet_approved' ) ;
#197 = DIRECTION ( 'NONE',  ( -0.000000000000000000, -0.000000000000000000, -1.000000000000000000 ) ) ;
#198 = AXIS2_PLACEMENT_3D ( 'NONE', #116, #50, #294 ) ;
#199 = CC_DESIGN_APPROVAL ( #42, ( #283 ) ) ;
#200 = APPROVAL_STATUS ( 'not_yet_approved' ) ;
#201 = CARTESIAN_POINT ( 'NONE',  ( 0.000000000000000000, 0.000000000000000000, 357.0000000000000000 ) ) ;
#202 = EDGE_CURVE ( 'NONE', #32, #151, #257, .T. ) ;
#203 = DIRECTION ( 'NONE',  ( 1.000000000000000000, 0.000000000000000000, 0.000000000000000000 ) ) ;
#204 = DIRECTION ( 'NONE',  ( 0.000000000000000000, 0.000000000000000000, 1.000000000000000000 ) ) ;
#205 = MANIFOLD_SOLID_BREP ( 'Odebrat vysunutím3', #68 ) ;
#206 = VECTOR ( 'NONE', #347, 1000.000000000000000 ) ;
#207 = APPLICATION_CONTEXT ( 'configuration controlled 3d designs of mechanical parts and assemblies' ) ;
#208 = FACE_OUTER_BOUND ( 'NONE', #181, .T. ) ;
#209 = ORIENTED_EDGE ( 'NONE', *, *, #81, .F. ) ;
#210 = CARTESIAN_POINT ( 'NONE',  ( 0.000000000000000000, 0.000000000000000000, 7.000000000000000000 ) ) ;
#211 = ORIENTED_EDGE ( 'NONE', *, *, #325, .F. ) ;
#212 = VERTEX_POINT ( 'NONE', #44 ) ;
#213 = AXIS2_PLACEMENT_3D ( 'NONE', #37, #161, #156 ) ;
#214 = EDGE_LOOP ( 'NONE', ( #237, #98 ) ) ;
#215 = DIRECTION ( 'NONE',  ( 1.000000000000000000, 0.000000000000000000, -0.000000000000000000 ) ) ;
#216 = ADVANCED_FACE ( 'NONE', ( #41 ), #272, .F. ) ;
#217 = EDGE_LOOP ( 'NONE', ( #319, #103, #158, #33 ) ) ;
#218 = ORIENTED_EDGE ( 'NONE', *, *, #298, .F. ) ;
#219 = EDGE_CURVE ( 'NONE', #379, #275, #47, .T. ) ;
#220 = PERSON_AND_ORGANIZATION ( #276, #353 ) ;
#221 = CARTESIAN_POINT ( 'NONE',  ( 6.000000000000000888, 7.347880794884120722E-16, 357.0000000000000000 ) ) ;
#222 = VECTOR ( 'NONE', #108, 1000.000000000000000 ) ;
#223 = COORDINATED_UNIVERSAL_TIME_OFFSET ( 1, 0, .AHEAD. ) ;
#224 = FACE_OUTER_BOUND ( 'NONE', #214, .T. ) ;
#225 = APPROVAL_DATE_TIME ( #306, #112 ) ;
#226 = CARTESIAN_POINT ( 'NONE',  ( 0.000000000000000000, 0.000000000000000000, 7.000000000000000000 ) ) ;
#227 = CALENDAR_DATE ( 2022, 8, 7 ) ;
#228 = CARTESIAN_POINT ( 'NONE',  ( 0.000000000000000000, 0.000000000000000000, 7.699999999999985079 ) ) ;
#229 = AXIS2_PLACEMENT_3D ( 'NONE', #149, #238, #349 ) ;
#230 = DIRECTION ( 'NONE',  ( 0.000000000000000000, 0.000000000000000000, -1.000000000000000000 ) ) ;
#231 = DIRECTION ( 'NONE',  ( 1.000000000000000000, 0.000000000000000000, 0.000000000000000000 ) ) ;
#232 = ORIENTED_EDGE ( 'NONE', *, *, #252, .T. ) ;
#233 = AXIS2_PLACEMENT_3D ( 'NONE', #135, #20, #73 ) ;
#234 = ADVANCED_FACE ( 'NONE', ( #320 ), #335, .F. ) ;
#235 = CYLINDRICAL_SURFACE ( 'NONE', #198, 11.00000000000000000 ) ;
#236 = FACE_OUTER_BOUND ( 'NONE', #376, .T. ) ;
#237 = ORIENTED_EDGE ( 'NONE', *, *, #338, .T. ) ;
#238 = DIRECTION ( 'NONE',  ( 0.000000000000000000, 0.000000000000000000, 1.000000000000000000 ) ) ;
#239 = CC_DESIGN_DATE_AND_TIME_ASSIGNMENT ( #140, #106, ( #97 ) ) ;
#240 = CIRCLE ( 'NONE', #287, 0.6999999999999992895 ) ;
#241 = ORIENTED_EDGE ( 'NONE', *, *, #359, .T. ) ;
#242 = AXIS2_PLACEMENT_3D ( 'NONE', #154, #268, #231 ) ;
#243 = ORIENTED_EDGE ( 'NONE', *, *, #133, .F. ) ;
#244 = VERTEX_POINT ( 'NONE', #177 ) ;
#245 = AXIS2_PLACEMENT_3D ( 'NONE', #201, #192, #337 ) ;
#246 = DIRECTION ( 'NONE',  ( 1.000000000000000000, 0.000000000000000000, 0.000000000000000000 ) ) ;
#247 = CC_DESIGN_DATE_AND_TIME_ASSIGNMENT ( #259, #10, ( #186 ) ) ;
#248 = CARTESIAN_POINT ( 'NONE',  ( 0.000000000000000000, 0.000000000000000000, 0.000000000000000000 ) ) ;
#249 = CIRCLE ( 'NONE', #242, 6.000000000000000888 ) ;
#250 = ORIENTED_EDGE ( 'NONE', *, *, #77, .F. ) ;
#251 = ORIENTED_EDGE ( 'NONE', *, *, #322, .F. ) ;
#252 = EDGE_CURVE ( 'NONE', #274, #24, #22, .T. ) ;
#253 = VECTOR ( 'NONE', #230, 1000.000000000000000 ) ;
#254 = APPROVAL_DATE_TIME ( #366, #42 ) ;
#255 = CARTESIAN_POINT ( 'NONE',  ( 0.000000000000000000, 0.000000000000000000, 0.000000000000000000 ) ) ;
#256 = CARTESIAN_POINT ( 'NONE',  ( -6.000000000000000888, 0.000000000000000000, 357.0000000000000000 ) ) ;
#257 = CIRCLE ( 'NONE', #63, 8.699999999999999289 ) ;
#258 = DIRECTION ( 'NONE',  ( 1.000000000000000000, 0.000000000000000000, 0.000000000000000000 ) ) ;
#259 = DATE_AND_TIME ( #227, #138 ) ;
#260 = DIRECTION ( 'NONE',  ( 0.000000000000000000, 0.000000000000000000, 1.000000000000000000 ) ) ;
#261 = EDGE_CURVE ( 'NONE', #354, #274, #28, .T. ) ;
#262 = SECURITY_CLASSIFICATION_LEVEL ( 'unclassified' ) ;
#263 = ADVANCED_FACE ( 'NONE', ( #236 ), #235, .T. ) ;
#264 = CARTESIAN_POINT ( 'NONE',  ( 11.00000000000000000, 1.347111479062088405E-15, 7.000000000000000000 ) ) ;
#265 = DIRECTION ( 'NONE',  ( 1.000000000000000000, 0.000000000000000000, 0.000000000000000000 ) ) ;
#266 = ORIENTED_EDGE ( 'NONE', *, *, #338, .F. ) ;
#267 = VERTEX_POINT ( 'NONE', #345 ) ;
#268 = DIRECTION ( 'NONE',  ( 0.000000000000000000, 0.000000000000000000, 1.000000000000000000 ) ) ;
#269 = EDGE_CURVE ( 'NONE', #69, #212, #147, .T. ) ;
#270 = APPLICATION_PROTOCOL_DEFINITION ( 'international standard', 'config_control_design', 1994, #207 ) ;
#271 = DIRECTION ( 'NONE',  ( 1.224646799147353207E-16, 1.000000000000000000, -0.000000000000000000 ) ) ;
#272 = TOROIDAL_SURFACE ( 'NONE', #99, 8.699999999999999289, 0.6999999999999999556 ) ;
#273 = PLANE ( 'NONE',  #363 ) ;
#274 = VERTEX_POINT ( 'NONE', #264 ) ;
#275 = VERTEX_POINT ( 'NONE', #323 ) ;
#276 = PERSON ( 'NEURÈENÝ', 'NEURÈENÝ', 'NEURÈENÝ', ('NEURÈENÝ'), ('NEURÈENÝ'), ('NEURÈENÝ') ) ;
#277 = CIRCLE ( 'NONE', #367, 0.7000000000000000666 ) ;
#278 = EDGE_LOOP ( 'NONE', ( #130, #163 ) ) ;
#279 = AXIS2_PLACEMENT_3D ( 'NONE', #226, #282, #286 ) ;
#280 = DIRECTION ( 'NONE',  ( -0.000000000000000000, -0.000000000000000000, -1.000000000000000000 ) ) ;
#281 = PERSON_AND_ORGANIZATION ( #276, #353 ) ;
#282 = DIRECTION ( 'NONE',  ( -0.000000000000000000, -0.000000000000000000, -1.000000000000000000 ) ) ;
#283 = PRODUCT_DEFINITION_FORMATION_WITH_SPECIFIED_SOURCE ( 'LIBOVOLNÝ', '', #361, .NOT_KNOWN. ) ;
#284 = CARTESIAN_POINT ( 'NONE',  ( -8.000000000000000000, 0.000000000000000000, 357.0000000000000000 ) ) ;
#285 = CALENDAR_DATE ( 2022, 8, 7 ) ;
#286 = DIRECTION ( 'NONE',  ( -1.000000000000000000, 0.000000000000000000, 0.000000000000000000 ) ) ;
#287 = AXIS2_PLACEMENT_3D ( 'NONE', #326, #271, #190 ) ;
#288 = DIRECTION ( 'NONE',  ( 1.000000000000000000, 0.000000000000000000, 0.000000000000000000 ) ) ;
#289 = CC_DESIGN_APPROVAL ( #112, ( #186 ) ) ;
#290 = CARTESIAN_POINT ( 'NONE',  ( -11.00000000000000000, 0.000000000000000000, 7.000000000000000000 ) ) ;
#291 = CIRCLE ( 'NONE', #327, 11.00000000000000000 ) ;
#292 = AXIS2_PLACEMENT_3D ( 'NONE', #29, #373, #321 ) ;
#293 = CC_DESIGN_PERSON_AND_ORGANIZATION_ASSIGNMENT ( #281, #102, ( #97 ) ) ;
#294 = DIRECTION ( 'NONE',  ( -1.000000000000000000, 0.000000000000000000, 0.000000000000000000 ) ) ;
#295 = ORIENTED_EDGE ( 'NONE', *, *, #325, .T. ) ;
#296 =( LENGTH_UNIT ( ) NAMED_UNIT ( * ) SI_UNIT ( .MILLI., .METRE. ) );
#297 = ORIENTED_EDGE ( 'NONE', *, *, #202, .T. ) ;
#298 = EDGE_CURVE ( 'NONE', #30, #333, #249, .T. ) ;
#299 = AXIS2_PLACEMENT_3D ( 'NONE', #54, #173, #27 ) ;
#300 = CARTESIAN_POINT ( 'NONE',  ( 8.699999999999999289, 0.000000000000000000, 7.699999999999985079 ) ) ;
#301 = EDGE_LOOP ( 'NONE', ( #250, #35, #211, #358 ) ) ;
#302 =( NAMED_UNIT ( * ) PLANE_ANGLE_UNIT ( ) SI_UNIT ( $, .RADIAN. ) );
#303 = CARTESIAN_POINT ( 'NONE',  ( 11.00000000000000000, 1.347111479062088405E-15, 0.000000000000000000 ) ) ;
#304 = COORDINATED_UNIVERSAL_TIME_OFFSET ( 1, 0, .AHEAD. ) ;
#305 = CYLINDRICAL_SURFACE ( 'NONE', #279, 11.00000000000000000 ) ;
#306 = DATE_AND_TIME ( #165, #70 ) ;
#307 = AXIS2_PLACEMENT_3D ( 'NONE', #357, #59, #246 ) ;
#308 = EDGE_LOOP ( 'NONE', ( #61, #232, #83, #209 ) ) ;
#309 = LINE ( 'NONE', #221, #253 ) ;
#310 = SHAPE_DEFINITION_REPRESENTATION ( #351, #143 ) ;
#311 = CARTESIAN_POINT ( 'NONE',  ( 0.000000000000000000, 0.000000000000000000, 7.699999999999985079 ) ) ;
#312 = EDGE_CURVE ( 'NONE', #274, #354, #174, .T. ) ;
#313 = CALENDAR_DATE ( 2022, 8, 7 ) ;
#314 = DIRECTION ( 'NONE',  ( 0.000000000000000000, 0.000000000000000000, 1.000000000000000000 ) ) ;
#315 = COORDINATED_UNIVERSAL_TIME_OFFSET ( 1, 0, .AHEAD. ) ;
#316 = PLANE ( 'NONE',  #115 ) ;
#317 = DIRECTION ( 'NONE',  ( 1.000000000000000000, 0.000000000000000000, 0.000000000000000000 ) ) ;
#318 = CARTESIAN_POINT ( 'NONE',  ( 0.000000000000000000, 0.000000000000000000, 357.0000000000000000 ) ) ;
#319 = ORIENTED_EDGE ( 'NONE', *, *, #13, .F. ) ;
#320 = FACE_OUTER_BOUND ( 'NONE', #301, .T. ) ;
#321 = DIRECTION ( 'NONE',  ( 1.000000000000000000, 0.000000000000000000, 0.000000000000000000 ) ) ;
#322 = EDGE_CURVE ( 'NONE', #212, #69, #78, .T. ) ;
#323 = CARTESIAN_POINT ( 'NONE',  ( -8.000000000000000000, 0.000000000000000000, 7.699999999999985079 ) ) ;
#324 = ORIENTED_EDGE ( 'NONE', *, *, #219, .T. ) ;
#325 = EDGE_CURVE ( 'NONE', #151, #32, #372, .T. ) ;
#326 = CARTESIAN_POINT ( 'NONE',  ( -8.699999999999999289, 1.065442715258197248E-15, 7.699999999999985079 ) ) ;
#327 = AXIS2_PLACEMENT_3D ( 'NONE', #142, #364, #164 ) ;
#328 = CIRCLE ( 'NONE', #341, 8.000000000000000000 ) ;
#329 = CARTESIAN_POINT ( 'NONE',  ( 6.000000000000000888, 7.347880794884120722E-16, 357.0000000000000000 ) ) ;
#330 = DIRECTION ( 'NONE',  ( -0.000000000000000000, -0.000000000000000000, -1.000000000000000000 ) ) ;
#331 = ORIENTED_EDGE ( 'NONE', *, *, #261, .F. ) ;
#332 = VECTOR ( 'NONE', #79, 1000.000000000000000 ) ;
#333 = VERTEX_POINT ( 'NONE', #113 ) ;
#334 = PERSON_AND_ORGANIZATION_ROLE ( 'creator' ) ;
#335 = TOROIDAL_SURFACE ( 'NONE', #117, 8.699999999999999289, 0.6999999999999999556 ) ;
#336 = FACE_BOUND ( 'NONE', #93, .T. ) ;
#337 = DIRECTION ( 'NONE',  ( 1.000000000000000000, 0.000000000000000000, -0.000000000000000000 ) ) ;
#338 = EDGE_CURVE ( 'NONE', #379, #185, #328, .T. ) ;
#339 = PERSON_AND_ORGANIZATION_ROLE ( 'creator' ) ;
#340 = CARTESIAN_POINT ( 'NONE',  ( 0.000000000000000000, 0.000000000000000000, 357.0000000000000000 ) ) ;
#341 = AXIS2_PLACEMENT_3D ( 'NONE', #318, #153, #265 ) ;
#342 = ADVANCED_FACE ( 'NONE', ( #208 ), #82, .F. ) ;
#343 = DIRECTION ( 'NONE',  ( 1.000000000000000000, 0.000000000000000000, -0.000000000000000000 ) ) ;
#344 = ORIENTED_EDGE ( 'NONE', *, *, #171, .T. ) ;
#345 = CARTESIAN_POINT ( 'NONE',  ( -11.00000000000000000, 0.000000000000000000, 0.000000000000000000 ) ) ;
#346 = CIRCLE ( 'NONE', #229, 8.000000000000000000 ) ;
#347 = DIRECTION ( 'NONE',  ( -0.000000000000000000, -0.000000000000000000, -1.000000000000000000 ) ) ;
#348 = ORIENTED_EDGE ( 'NONE', *, *, #176, .T. ) ;
#349 = DIRECTION ( 'NONE',  ( 1.000000000000000000, 0.000000000000000000, 0.000000000000000000 ) ) ;
#350 = ORIENTED_EDGE ( 'NONE', *, *, #180, .T. ) ;
#351 = PRODUCT_DEFINITION_SHAPE ( 'NONE', 'NONE',  #186 ) ;
#352 = EDGE_LOOP ( 'NONE', ( #6, #362 ) ) ;
#353 = ORGANIZATION ( 'NEURÈENÝ', 'NEURÈENÝ', '' ) ;
#354 = VERTEX_POINT ( 'NONE', #290 ) ;
#355 = PERSON_AND_ORGANIZATION_ROLE ( 'design_owner' ) ;
#356 = DIRECTION ( 'NONE',  ( 0.000000000000000000, 0.000000000000000000, 1.000000000000000000 ) ) ;
#357 = CARTESIAN_POINT ( 'NONE',  ( 0.000000000000000000, 0.000000000000000000, 0.000000000000000000 ) ) ;
#358 = ORIENTED_EDGE ( 'NONE', *, *, #381, .F. ) ;
#359 = EDGE_CURVE ( 'NONE', #244, #275, #346, .T. ) ;
#360 = DESIGN_CONTEXT ( 'detailed design', #207, 'design' ) ;
#361 = PRODUCT ( '458a', '458a', '', ( #4 ) ) ;
#362 = ORIENTED_EDGE ( 'NONE', *, *, #312, .T. ) ;
#363 = AXIS2_PLACEMENT_3D ( 'NONE', #248, #356, #215 ) ;
#364 = DIRECTION ( 'NONE',  ( 0.000000000000000000, 0.000000000000000000, 1.000000000000000000 ) ) ;
#365 = EDGE_CURVE ( 'NONE', #185, #244, #87, .T. ) ;
#366 = DATE_AND_TIME ( #134, #377 ) ;
#367 = AXIS2_PLACEMENT_3D ( 'NONE', #300, #36, #162 ) ;
#368 = DIRECTION ( 'NONE',  ( 1.000000000000000000, 0.000000000000000000, 0.000000000000000000 ) ) ;
#369 = CARTESIAN_POINT ( 'NONE',  ( -11.00000000000000000, 0.000000000000000000, 7.000000000000000000 ) ) ;
#370 = DIRECTION ( 'NONE',  ( 1.000000000000000000, 0.000000000000000000, 0.000000000000000000 ) ) ;
#371 = FACE_OUTER_BOUND ( 'NONE', #352, .T. ) ;
#372 = CIRCLE ( 'NONE', #2, 8.699999999999999289 ) ;
#373 = DIRECTION ( 'NONE',  ( -0.000000000000000000, -0.000000000000000000, -1.000000000000000000 ) ) ;
#374 = ORIENTED_EDGE ( 'NONE', *, *, #77, .T. ) ;
#375 = ADVANCED_FACE ( 'NONE', ( #155 ), #58, .T. ) ;
#376 = EDGE_LOOP ( 'NONE', ( #188, #331, #122, #344 ) ) ;
#377 = LOCAL_TIME ( 16, 19, 6.000000000000000000, #136 ) ;
#378 = DIRECTION ( 'NONE',  ( 0.000000000000000000, 0.000000000000000000, -1.000000000000000000 ) ) ;
#379 = VERTEX_POINT ( 'NONE', #65 ) ;
#380 = CARTESIAN_POINT ( 'NONE',  ( 0.000000000000000000, 0.000000000000000000, 0.000000000000000000 ) ) ;
#381 = EDGE_CURVE ( 'NONE', #244, #151, #277, .T. ) ;
ENDSEC;
END-ISO-10303-21;
