ISO-10303-21;
HEADER;
FILE_DESCRIPTION (( 'STEP AP203' ),
    '1' );
FILE_NAME ('c4e7.STEP',
    '2022-07-08T14:27:46',
    ( '' ),
    ( '' ),
    'SwSTEP 2.0',
    'SolidWorks 2019',
    '' );
FILE_SCHEMA (( 'CONFIG_CONTROL_DESIGN' ));
ENDSEC;

DATA;
#1 = ADVANCED_FACE ( 'NONE', ( #218 ), #70, .T. ) ;
#2 = VERTEX_POINT ( 'NONE', #165 ) ;
#3 = VECTOR ( 'NONE', #13, 1000.000000000000000 ) ;
#4 = CIRCLE ( 'NONE', #203, 10.00000000000000000 ) ;
#5 = MECHANICAL_CONTEXT ( 'NONE', #193, 'mechanical' ) ;
#6 = LINE ( 'NONE', #280, #374 ) ;
#7 = CC_DESIGN_PERSON_AND_ORGANIZATION_ASSIGNMENT ( #186, #244, ( #209 ) ) ;
#8 = DIRECTION ( 'NONE',  ( 1.224646799147353207E-16, 1.000000000000000000, -0.000000000000000000 ) ) ;
#9 = EDGE_LOOP ( 'NONE', ( #298, #277 ) ) ;
#10 = DIRECTION ( 'NONE',  ( 0.000000000000000000, 0.000000000000000000, -1.000000000000000000 ) ) ;
#11 = EDGE_LOOP ( 'NONE', ( #29, #349, #122, #27 ) ) ;
#12 = PERSON_AND_ORGANIZATION ( #307, #199 ) ;
#13 = DIRECTION ( 'NONE',  ( -0.000000000000000000, -0.000000000000000000, -1.000000000000000000 ) ) ;
#14 = CC_DESIGN_PERSON_AND_ORGANIZATION_ASSIGNMENT ( #73, #162, ( #51 ) ) ;
#15 = DIRECTION ( 'NONE',  ( 0.000000000000000000, 0.000000000000000000, 1.000000000000000000 ) ) ;
#16 = AXIS2_PLACEMENT_3D ( 'NONE', #296, #350, #207 ) ;
#17 = DATE_TIME_ROLE ( 'creation_date' ) ;
#18 = AXIS2_PLACEMENT_3D ( 'NONE', #194, #66, #336 ) ;
#19 = FACE_OUTER_BOUND ( 'NONE', #286, .T. ) ;
#20 = COORDINATED_UNIVERSAL_TIME_OFFSET ( 1, 0, .AHEAD. ) ;
#21 = CARTESIAN_POINT ( 'NONE',  ( 0.000000000000000000, 0.000000000000000000, 167.0000000000000000 ) ) ;
#22 = COORDINATED_UNIVERSAL_TIME_OFFSET ( 1, 0, .AHEAD. ) ;
#23 = DIRECTION ( 'NONE',  ( 1.000000000000000000, 0.000000000000000000, -0.000000000000000000 ) ) ;
#24 = CARTESIAN_POINT ( 'NONE',  ( 0.000000000000000000, 0.000000000000000000, 167.0000000000000000 ) ) ;
#25 = PRODUCT_RELATED_PRODUCT_CATEGORY ( 'detail', '', ( #209 ) ) ;
#26 = EDGE_CURVE ( 'NONE', #65, #56, #345, .T. ) ;
#27 = ORIENTED_EDGE ( 'NONE', *, *, #176, .T. ) ;
#28 = ORIENTED_EDGE ( 'NONE', *, *, #312, .T. ) ;
#29 = ORIENTED_EDGE ( 'NONE', *, *, #202, .F. ) ;
#30 = CARTESIAN_POINT ( 'NONE',  ( 0.000000000000000000, 0.000000000000000000, 167.0000000000000000 ) ) ;
#31 = DIRECTION ( 'NONE',  ( 1.000000000000000000, 0.000000000000000000, -0.000000000000000000 ) ) ;
#32 = CYLINDRICAL_SURFACE ( 'NONE', #240, 4.500000000000000000 ) ;
#33 = AXIS2_PLACEMENT_3D ( 'NONE', #59, #175, #294 ) ;
#34 = FACE_BOUND ( 'NONE', #171, .T. ) ;
#35 = ADVANCED_FACE ( 'NONE', ( #328 ), #32, .F. ) ;
#36 = ORIENTED_EDGE ( 'NONE', *, *, #258, .F. ) ;
#37 =( LENGTH_UNIT ( ) NAMED_UNIT ( * ) SI_UNIT ( .MILLI., .METRE. ) );
#38 = ORIENTED_EDGE ( 'NONE', *, *, #206, .T. ) ;
#39 = CIRCLE ( 'NONE', #299, 0.7000000000000000666 ) ;
#40 = AXIS2_PLACEMENT_3D ( 'NONE', #112, #326, #259 ) ;
#41 = DIRECTION ( 'NONE',  ( 0.000000000000000000, 0.000000000000000000, 1.000000000000000000 ) ) ;
#42 = EDGE_CURVE ( 'NONE', #56, #65, #131, .T. ) ;
#43 = AXIS2_PLACEMENT_3D ( 'NONE', #361, #100, #91 ) ;
#44 = APPROVAL_STATUS ( 'not_yet_approved' ) ;
#45 = CARTESIAN_POINT ( 'NONE',  ( 4.500000000000000000, 5.510910596163087583E-16, 0.000000000000000000 ) ) ;
#46 = PERSON_AND_ORGANIZATION ( #307, #199 ) ;
#47 = DIRECTION ( 'NONE',  ( -0.000000000000000000, -0.000000000000000000, -1.000000000000000000 ) ) ;
#48 = DIRECTION ( 'NONE',  ( 0.000000000000000000, 0.000000000000000000, 1.000000000000000000 ) ) ;
#49 = AXIS2_PLACEMENT_3D ( 'NONE', #355, #69, #190 ) ;
#50 = CARTESIAN_POINT ( 'NONE',  ( 0.000000000000000000, 0.000000000000000000, 7.700000000000012612 ) ) ;
#51 = SECURITY_CLASSIFICATION ( '', '', #338 ) ;
#52 = FACE_OUTER_BOUND ( 'NONE', #113, .T. ) ;
#53 = AXIS2_PLACEMENT_3D ( 'NONE', #213, #159, #276 ) ;
#54 = EDGE_CURVE ( 'NONE', #150, #234, #86, .T. ) ;
#55 = LOCAL_TIME ( 16, 27, 46.00000000000000000, #133 ) ;
#56 = VERTEX_POINT ( 'NONE', #235 ) ;
#57 = DIRECTION ( 'NONE',  ( -1.000000000000000000, 0.000000000000000000, 0.000000000000000000 ) ) ;
#58 = VERTEX_POINT ( 'NONE', #205 ) ;
#59 = CARTESIAN_POINT ( 'NONE',  ( 0.000000000000000000, 0.000000000000000000, 167.0000000000000000 ) ) ;
#60 = DIRECTION ( 'NONE',  ( 0.000000000000000000, 0.000000000000000000, -1.000000000000000000 ) ) ;
#61 = ORIENTED_EDGE ( 'NONE', *, *, #242, .T. ) ;
#62 = ORIENTED_EDGE ( 'NONE', *, *, #279, .T. ) ;
#63 = DIRECTION ( 'NONE',  ( 1.000000000000000000, 0.000000000000000000, 0.000000000000000000 ) ) ;
#64 = CIRCLE ( 'NONE', #227, 4.500000000000000000 ) ;
#65 = VERTEX_POINT ( 'NONE', #119 ) ;
#66 = DIRECTION ( 'NONE',  ( 0.000000000000000000, 0.000000000000000000, 1.000000000000000000 ) ) ;
#67 = ORIENTED_EDGE ( 'NONE', *, *, #198, .T. ) ;
#68 = COORDINATED_UNIVERSAL_TIME_OFFSET ( 1, 0, .AHEAD. ) ;
#69 = DIRECTION ( 'NONE',  ( 0.000000000000000000, -1.000000000000000000, 0.000000000000000000 ) ) ;
#70 = CYLINDRICAL_SURFACE ( 'NONE', #253, 10.00000000000000000 ) ;
#71 = APPLICATION_PROTOCOL_DEFINITION ( 'international standard', 'config_control_design', 1994, #77 ) ;
#72 = CARTESIAN_POINT ( 'NONE',  ( -4.500000000000000000, 0.000000000000000000, 0.000000000000000000 ) ) ;
#73 = PERSON_AND_ORGANIZATION ( #307, #199 ) ;
#74 = DIRECTION ( 'NONE',  ( 0.000000000000000000, 0.000000000000000000, 1.000000000000000000 ) ) ;
#75 = CARTESIAN_POINT ( 'NONE',  ( 0.000000000000000000, 0.000000000000000000, 0.000000000000000000 ) ) ;
#76 = AXIS2_PLACEMENT_3D ( 'NONE', #346, #114, #63 ) ;
#77 = APPLICATION_CONTEXT ( 'configuration controlled 3d designs of mechanical parts and assemblies' ) ;
#78 = LOCAL_TIME ( 16, 27, 46.00000000000000000, #22 ) ;
#79 = APPROVAL_DATE_TIME ( #226, #164 ) ;
#80 = ORIENTED_EDGE ( 'NONE', *, *, #121, .F. ) ;
#81 = AXIS2_PLACEMENT_3D ( 'NONE', #174, #90, #268 ) ;
#82 = FACE_OUTER_BOUND ( 'NONE', #98, .T. ) ;
#83 = CIRCLE ( 'NONE', #375, 6.000000000000000888 ) ;
#84 = DIRECTION ( 'NONE',  ( -0.000000000000000000, -0.000000000000000000, -1.000000000000000000 ) ) ;
#85 = EDGE_LOOP ( 'NONE', ( #297, #36, #111, #288 ) ) ;
#86 = LINE ( 'NONE', #261, #319 ) ;
#87 = APPROVAL_PERSON_ORGANIZATION ( #99, #89, #189 ) ;
#88 = ORIENTED_EDGE ( 'NONE', *, *, #54, .F. ) ;
#89 = APPROVAL ( #44, 'NEURÈENÝ' ) ;
#90 = DIRECTION ( 'NONE',  ( 0.000000000000000000, 0.000000000000000000, 1.000000000000000000 ) ) ;
#91 = DIRECTION ( 'NONE',  ( 1.000000000000000000, 0.000000000000000000, 0.000000000000000000 ) ) ;
#92 = VERTEX_POINT ( 'NONE', #204 ) ;
#93 = CARTESIAN_POINT ( 'NONE',  ( -6.000000000000000888, 0.000000000000000000, 167.0000000000000000 ) ) ;
#94 = ORIENTED_EDGE ( 'NONE', *, *, #250, .F. ) ;
#95 = CARTESIAN_POINT ( 'NONE',  ( -10.00000000000000000, 0.000000000000000000, 7.000000000000000000 ) ) ;
#96 = CC_DESIGN_DATE_AND_TIME_ASSIGNMENT ( #200, #160, ( #51 ) ) ;
#97 = EDGE_CURVE ( 'NONE', #150, #180, #108, .T. ) ;
#98 = EDGE_LOOP ( 'NONE', ( #188, #324, #332, #62 ) ) ;
#99 = PERSON_AND_ORGANIZATION ( #307, #199 ) ;
#100 = DIRECTION ( 'NONE',  ( -0.000000000000000000, -0.000000000000000000, -1.000000000000000000 ) ) ;
#101 = PRODUCT_DEFINITION_SHAPE ( 'NONE', 'NONE',  #378 ) ;
#102 = CC_DESIGN_SECURITY_CLASSIFICATION ( #51, ( #334 ) ) ;
#103 = PERSON_AND_ORGANIZATION_ROLE ( 'design_supplier' ) ;
#104 = DIRECTION ( 'NONE',  ( 1.000000000000000000, 0.000000000000000000, 0.000000000000000000 ) ) ;
#105 = UNCERTAINTY_MEASURE_WITH_UNIT (LENGTH_MEASURE( 1.000000000000000082E-05 ), #37, 'distance_accuracy_value', 'NONE');
#106 = DIRECTION ( 'NONE',  ( 1.000000000000000000, 0.000000000000000000, 0.000000000000000000 ) ) ;
#107 = ADVANCED_FACE ( 'NONE', ( #211 ), #379, .F. ) ;
#108 = CIRCLE ( 'NONE', #81, 10.00000000000000000 ) ;
#109 = CARTESIAN_POINT ( 'NONE',  ( 0.000000000000000000, 0.000000000000000000, 7.700000000000012612 ) ) ;
#110 = DIRECTION ( 'NONE',  ( 0.000000000000000000, 0.000000000000000000, -1.000000000000000000 ) ) ;
#111 = ORIENTED_EDGE ( 'NONE', *, *, #219, .T. ) ;
#112 = CARTESIAN_POINT ( 'NONE',  ( 0.000000000000000000, 0.000000000000000000, 7.000000000000000000 ) ) ;
#113 = EDGE_LOOP ( 'NONE', ( #151, #28 ) ) ;
#114 = DIRECTION ( 'NONE',  ( 0.000000000000000000, 0.000000000000000000, 1.000000000000000000 ) ) ;
#115 = DIRECTION ( 'NONE',  ( 1.000000000000000000, 0.000000000000000000, -0.000000000000000000 ) ) ;
#116 = EDGE_CURVE ( 'NONE', #58, #92, #208, .T. ) ;
#117 = ORIENTED_EDGE ( 'NONE', *, *, #352, .T. ) ;
#118 =( NAMED_UNIT ( * ) PLANE_ANGLE_UNIT ( ) SI_UNIT ( $, .RADIAN. ) );
#119 = CARTESIAN_POINT ( 'NONE',  ( 6.700000000000001066, 0.000000000000000000, 7.000000000000006217 ) ) ;
#120 = EDGE_LOOP ( 'NONE', ( #271, #141, #177, #243 ) ) ;
#121 = EDGE_CURVE ( 'NONE', #140, #214, #64, .T. ) ;
#122 = ORIENTED_EDGE ( 'NONE', *, *, #54, .T. ) ;
#123 = CC_DESIGN_PERSON_AND_ORGANIZATION_ASSIGNMENT ( #365, #103, ( #334 ) ) ;
#124 = AXIS2_PLACEMENT_3D ( 'NONE', #24, #48, #161 ) ;
#125 = ORIENTED_EDGE ( 'NONE', *, *, #121, .T. ) ;
#126 = LOCAL_TIME ( 16, 27, 46.00000000000000000, #380 ) ;
#127 = APPROVAL_DATE_TIME ( #283, #89 ) ;
#128 = FACE_OUTER_BOUND ( 'NONE', #166, .T. ) ;
#129 =( NAMED_UNIT ( * ) SI_UNIT ( $, .STERADIAN. ) SOLID_ANGLE_UNIT ( ) );
#130 = EDGE_CURVE ( 'NONE', #214, #140, #308, .T. ) ;
#131 = CIRCLE ( 'NONE', #273, 6.700000000000001066 ) ;
#132 = TOROIDAL_SURFACE ( 'NONE', #347, 6.700000000000001066, 0.6999999999999999556 ) ;
#133 = COORDINATED_UNIVERSAL_TIME_OFFSET ( 1, 0, .AHEAD. ) ;
#134 = LOCAL_TIME ( 16, 27, 46.00000000000000000, #20 ) ;
#135 = FACE_OUTER_BOUND ( 'NONE', #85, .T. ) ;
#136 = DIRECTION ( 'NONE',  ( 0.000000000000000000, 0.000000000000000000, 1.000000000000000000 ) ) ;
#137 = CARTESIAN_POINT ( 'NONE',  ( 4.500000000000000000, 5.510910596163087583E-16, 167.0000000000000000 ) ) ;
#138 = DATE_AND_TIME ( #195, #55 ) ;
#139 = DIRECTION ( 'NONE',  ( 0.000000000000000000, 0.000000000000000000, 1.000000000000000000 ) ) ;
#140 = VERTEX_POINT ( 'NONE', #45 ) ;
#141 = ORIENTED_EDGE ( 'NONE', *, *, #170, .T. ) ;
#142 = CYLINDRICAL_SURFACE ( 'NONE', #341, 6.000000000000000888 ) ;
#143 = ORIENTED_EDGE ( 'NONE', *, *, #219, .F. ) ;
#144 = DIRECTION ( 'NONE',  ( 1.000000000000000000, 0.000000000000000000, 0.000000000000000000 ) ) ;
#145 = DIRECTION ( 'NONE',  ( 1.000000000000000000, 0.000000000000000000, 0.000000000000000000 ) ) ;
#146 = CARTESIAN_POINT ( 'NONE',  ( 0.000000000000000000, 0.000000000000000000, 167.0000000000000000 ) ) ;
#147 = TOROIDAL_SURFACE ( 'NONE', #228, 6.700000000000001066, 0.6999999999999999556 ) ;
#148 = FACE_OUTER_BOUND ( 'NONE', #376, .T. ) ;
#149 = CARTESIAN_POINT ( 'NONE',  ( 0.000000000000000000, 0.000000000000000000, 7.000000000000000000 ) ) ;
#150 = VERTEX_POINT ( 'NONE', #95 ) ;
#151 = ORIENTED_EDGE ( 'NONE', *, *, #116, .T. ) ;
#152 = AXIS2_PLACEMENT_3D ( 'NONE', #153, #110, #232 ) ;
#153 = CARTESIAN_POINT ( 'NONE',  ( 0.000000000000000000, 0.000000000000000000, 167.0000000000000000 ) ) ;
#154 = AXIS2_PLACEMENT_3D ( 'NONE', #163, #15, #104 ) ;
#155 = DIRECTION ( 'NONE',  ( 1.000000000000000000, 0.000000000000000000, 0.000000000000000000 ) ) ;
#156 = LINE ( 'NONE', #340, #233 ) ;
#157 = ORIENTED_EDGE ( 'NONE', *, *, #26, .F. ) ;
#158 = CALENDAR_DATE ( 2022, 8, 7 ) ;
#159 = DIRECTION ( 'NONE',  ( 0.000000000000000000, 0.000000000000000000, 1.000000000000000000 ) ) ;
#160 = DATE_TIME_ROLE ( 'classification_date' ) ;
#161 = DIRECTION ( 'NONE',  ( 1.000000000000000000, 0.000000000000000000, 0.000000000000000000 ) ) ;
#162 = PERSON_AND_ORGANIZATION_ROLE ( 'classification_officer' ) ;
#163 = CARTESIAN_POINT ( 'NONE',  ( 0.000000000000000000, 0.000000000000000000, 7.700000000000012612 ) ) ;
#164 = APPROVAL ( #196, 'NEURÈENÝ' ) ;
#165 = CARTESIAN_POINT ( 'NONE',  ( 6.000000000000000888, 7.347880794884120722E-16, 7.700000000000012612 ) ) ;
#166 = EDGE_LOOP ( 'NONE', ( #178, #330, #157, #143 ) ) ;
#167 = CYLINDRICAL_SURFACE ( 'NONE', #40, 10.00000000000000000 ) ;
#168 = CC_DESIGN_APPROVAL ( #89, ( #378 ) ) ;
#169 = APPROVAL ( #287, 'NEURÈENÝ' ) ;
#170 = EDGE_CURVE ( 'NONE', #92, #2, #222, .T. ) ;
#171 = EDGE_LOOP ( 'NONE', ( #246, #80 ) ) ;
#172 = EDGE_LOOP ( 'NONE', ( #210, #117, #216, #236 ) ) ;
#173 = DIRECTION ( 'NONE',  ( 0.000000000000000000, 0.000000000000000000, 1.000000000000000000 ) ) ;
#174 = CARTESIAN_POINT ( 'NONE',  ( 0.000000000000000000, 0.000000000000000000, 7.000000000000000000 ) ) ;
#175 = DIRECTION ( 'NONE',  ( -0.000000000000000000, -0.000000000000000000, -1.000000000000000000 ) ) ;
#176 = EDGE_CURVE ( 'NONE', #234, #356, #325, .T. ) ;
#177 = ORIENTED_EDGE ( 'NONE', *, *, #258, .T. ) ;
#178 = ORIENTED_EDGE ( 'NONE', *, *, #279, .F. ) ;
#179 = DIRECTION ( 'NONE',  ( -0.000000000000000000, -0.000000000000000000, -1.000000000000000000 ) ) ;
#180 = VERTEX_POINT ( 'NONE', #301 ) ;
#181 = DIRECTION ( 'NONE',  ( 1.000000000000000000, 0.000000000000000000, 0.000000000000000000 ) ) ;
#182 = VECTOR ( 'NONE', #335, 1000.000000000000000 ) ;
#183 = AXIS2_PLACEMENT_3D ( 'NONE', #50, #247, #370 ) ;
#184 = EDGE_CURVE ( 'NONE', #302, #56, #39, .T. ) ;
#185 = ORIENTED_EDGE ( 'NONE', *, *, #202, .T. ) ;
#186 = PERSON_AND_ORGANIZATION ( #307, #199 ) ;
#187 = CARTESIAN_POINT ( 'NONE',  ( 6.000000000000000888, 7.347880794884120722E-16, 167.0000000000000000 ) ) ;
#188 = ORIENTED_EDGE ( 'NONE', *, *, #170, .F. ) ;
#189 = APPROVAL_ROLE ( '' ) ;
#190 = DIRECTION ( 'NONE',  ( 0.000000000000000000, 0.000000000000000000, -1.000000000000000000 ) ) ;
#191 = ADVANCED_FACE ( 'NONE', ( #128 ), #132, .F. ) ;
#192 = EDGE_CURVE ( 'NONE', #58, #302, #217, .T. ) ;
#193 = APPLICATION_CONTEXT ( 'configuration controlled 3d designs of mechanical parts and assemblies' ) ;
#194 = CARTESIAN_POINT ( 'NONE',  ( 0.000000000000000000, 0.000000000000000000, 7.000000000000000000 ) ) ;
#195 = CALENDAR_DATE ( 2022, 8, 7 ) ;
#196 = APPROVAL_STATUS ( 'not_yet_approved' ) ;
#197 = DIRECTION ( 'NONE',  ( 0.000000000000000000, 0.000000000000000000, 1.000000000000000000 ) ) ;
#198 = EDGE_CURVE ( 'NONE', #180, #150, #292, .T. ) ;
#199 = ORGANIZATION ( 'NEURÈENÝ', 'NEURÈENÝ', '' ) ;
#200 = DATE_AND_TIME ( #367, #134 ) ;
#201 = CARTESIAN_POINT ( 'NONE',  ( -4.500000000000000000, 0.000000000000000000, 167.0000000000000000 ) ) ;
#202 = EDGE_CURVE ( 'NONE', #180, #356, #156, .T. ) ;
#203 = AXIS2_PLACEMENT_3D ( 'NONE', #75, #197, #314 ) ;
#204 = CARTESIAN_POINT ( 'NONE',  ( 6.000000000000000888, 7.347880794884120722E-16, 167.0000000000000000 ) ) ;
#205 = CARTESIAN_POINT ( 'NONE',  ( -6.000000000000000888, 0.000000000000000000, 167.0000000000000000 ) ) ;
#206 = EDGE_CURVE ( 'NONE', #269, #140, #6, .T. ) ;
#207 = DIRECTION ( 'NONE',  ( 1.000000000000000000, 0.000000000000000000, 0.000000000000000000 ) ) ;
#208 = CIRCLE ( 'NONE', #76, 6.000000000000000888 ) ;
#209 = PRODUCT ( 'c4e7', 'c4e7', '', ( #5 ) ) ;
#210 = ORIENTED_EDGE ( 'NONE', *, *, #206, .F. ) ;
#211 = FACE_OUTER_BOUND ( 'NONE', #358, .T. ) ;
#212 = ORIENTED_EDGE ( 'NONE', *, *, #97, .T. ) ;
#213 = CARTESIAN_POINT ( 'NONE',  ( 0.000000000000000000, 0.000000000000000000, 0.000000000000000000 ) ) ;
#214 = VERTEX_POINT ( 'NONE', #72 ) ;
#215 = CIRCLE ( 'NONE', #49, 0.7000000000000000666 ) ;
#216 = ORIENTED_EDGE ( 'NONE', *, *, #250, .T. ) ;
#217 = LINE ( 'NONE', #93, #182 ) ;
#218 = FACE_OUTER_BOUND ( 'NONE', #295, .T. ) ;
#219 = EDGE_CURVE ( 'NONE', #2, #65, #215, .T. ) ;
#220 = DIRECTION ( 'NONE',  ( 0.000000000000000000, 0.000000000000000000, 1.000000000000000000 ) ) ;
#221 = APPLICATION_PROTOCOL_DEFINITION ( 'international standard', 'config_control_design', 1994, #193 ) ;
#222 = LINE ( 'NONE', #187, #3 ) ;
#223 = AXIS2_PLACEMENT_3D ( 'NONE', #30, #173, #145 ) ;
#224 = APPROVAL_ROLE ( '' ) ;
#225 = PLANE ( 'NONE',  #343 ) ;
#226 = DATE_AND_TIME ( #254, #78 ) ;
#227 = AXIS2_PLACEMENT_3D ( 'NONE', #282, #47, #181 ) ;
#228 = AXIS2_PLACEMENT_3D ( 'NONE', #109, #366, #368 ) ;
#229 = FACE_BOUND ( 'NONE', #9, .T. ) ;
#230 = CARTESIAN_POINT ( 'NONE',  ( -6.000000000000000888, 0.000000000000000000, 7.700000000000012612 ) ) ;
#231 = VERTEX_POINT ( 'NONE', #256 ) ;
#232 = DIRECTION ( 'NONE',  ( -1.000000000000000000, 0.000000000000000000, 0.000000000000000000 ) ) ;
#233 = VECTOR ( 'NONE', #303, 1000.000000000000000 ) ;
#234 = VERTEX_POINT ( 'NONE', #316 ) ;
#235 = CARTESIAN_POINT ( 'NONE',  ( -6.700000000000001066, 8.205133554287267548E-16, 7.000000000000006217 ) ) ;
#236 = ORIENTED_EDGE ( 'NONE', *, *, #130, .T. ) ;
#237 = CARTESIAN_POINT ( 'NONE',  ( 0.000000000000000000, 0.000000000000000000, 0.000000000000000000 ) ) ;
#238 = DIRECTION ( 'NONE',  ( -1.000000000000000000, 1.224646799147353454E-16, 0.000000000000000000 ) ) ;
#239 = ORIENTED_EDGE ( 'NONE', *, *, #198, .F. ) ;
#240 = AXIS2_PLACEMENT_3D ( 'NONE', #146, #60, #57 ) ;
#241 = AXIS2_PLACEMENT_3D ( 'NONE', #363, #74, #31 ) ;
#242 = EDGE_CURVE ( 'NONE', #231, #269, #263, .T. ) ;
#243 = ORIENTED_EDGE ( 'NONE', *, *, #192, .F. ) ;
#244 = PERSON_AND_ORGANIZATION_ROLE ( 'design_owner' ) ;
#245 = ADVANCED_FACE ( 'NONE', ( #285, #19 ), #225, .T. ) ;
#246 = ORIENTED_EDGE ( 'NONE', *, *, #130, .F. ) ;
#247 = DIRECTION ( 'NONE',  ( 0.000000000000000000, 0.000000000000000000, 1.000000000000000000 ) ) ;
#248 = AXIS2_PLACEMENT_3D ( 'NONE', #381, #353, #115 ) ;
#249 = PERSON_AND_ORGANIZATION_ROLE ( 'creator' ) ;
#250 = EDGE_CURVE ( 'NONE', #231, #214, #252, .T. ) ;
#251 = DIRECTION ( 'NONE',  ( 0.000000000000000000, 0.000000000000000000, -1.000000000000000000 ) ) ;
#252 = LINE ( 'NONE', #201, #364 ) ;
#253 = AXIS2_PLACEMENT_3D ( 'NONE', #337, #362, #315 ) ;
#254 = CALENDAR_DATE ( 2022, 8, 7 ) ;
#255 = AXIS2_PLACEMENT_3D ( 'NONE', #237, #41, #333 ) ;
#256 = CARTESIAN_POINT ( 'NONE',  ( -4.500000000000000000, 0.000000000000000000, 167.0000000000000000 ) ) ;
#257 = ORIENTED_EDGE ( 'NONE', *, *, #284, .F. ) ;
#258 = EDGE_CURVE ( 'NONE', #2, #302, #348, .T. ) ;
#259 = DIRECTION ( 'NONE',  ( -1.000000000000000000, 0.000000000000000000, 0.000000000000000000 ) ) ;
#260 = CARTESIAN_POINT ( 'NONE',  ( 0.000000000000000000, 0.000000000000000000, 167.0000000000000000 ) ) ;
#261 = CARTESIAN_POINT ( 'NONE',  ( -10.00000000000000000, 0.000000000000000000, 7.000000000000000000 ) ) ;
#262 = ADVANCED_BREP_SHAPE_REPRESENTATION ( 'c4e7', ( #317, #255 ), #300 ) ;
#263 = CIRCLE ( 'NONE', #124, 4.500000000000000000 ) ;
#264 = CC_DESIGN_DATE_AND_TIME_ASSIGNMENT ( #138, #17, ( #378 ) ) ;
#265 = CC_DESIGN_APPROVAL ( #169, ( #51 ) ) ;
#266 = CARTESIAN_POINT ( 'NONE',  ( 10.00000000000000000, 1.224646799147353256E-15, 0.000000000000000000 ) ) ;
#267 = ADVANCED_FACE ( 'NONE', ( #135 ), #147, .F. ) ;
#268 = DIRECTION ( 'NONE',  ( 1.000000000000000000, 0.000000000000000000, 0.000000000000000000 ) ) ;
#269 = VERTEX_POINT ( 'NONE', #137 ) ;
#270 = PLANE ( 'NONE',  #248 ) ;
#271 = ORIENTED_EDGE ( 'NONE', *, *, #312, .F. ) ;
#272 = ORIENTED_EDGE ( 'NONE', *, *, #26, .T. ) ;
#273 = AXIS2_PLACEMENT_3D ( 'NONE', #149, #179, #144 ) ;
#274 = APPROVAL_PERSON_ORGANIZATION ( #313, #164, #224 ) ;
#275 = DIRECTION ( 'NONE',  ( -0.000000000000000000, -0.000000000000000000, -1.000000000000000000 ) ) ;
#276 = DIRECTION ( 'NONE',  ( 1.000000000000000000, 0.000000000000000000, 0.000000000000000000 ) ) ;
#277 = ORIENTED_EDGE ( 'NONE', *, *, #352, .F. ) ;
#278 = PERSON_AND_ORGANIZATION_ROLE ( 'creator' ) ;
#279 = EDGE_CURVE ( 'NONE', #302, #2, #359, .T. ) ;
#280 = CARTESIAN_POINT ( 'NONE',  ( 4.500000000000000000, 5.510910596163087583E-16, 167.0000000000000000 ) ) ;
#281 = ORIENTED_EDGE ( 'NONE', *, *, #176, .F. ) ;
#282 = CARTESIAN_POINT ( 'NONE',  ( 0.000000000000000000, 0.000000000000000000, 0.000000000000000000 ) ) ;
#283 = DATE_AND_TIME ( #158, #309 ) ;
#284 = EDGE_CURVE ( 'NONE', #356, #234, #4, .T. ) ;
#285 = FACE_BOUND ( 'NONE', #360, .T. ) ;
#286 = EDGE_LOOP ( 'NONE', ( #212, #67 ) ) ;
#287 = APPROVAL_STATUS ( 'not_yet_approved' ) ;
#288 = ORIENTED_EDGE ( 'NONE', *, *, #42, .F. ) ;
#289 = SHAPE_DEFINITION_REPRESENTATION ( #101, #262 ) ;
#290 = DIRECTION ( 'NONE',  ( -1.000000000000000000, 0.000000000000000000, 0.000000000000000000 ) ) ;
#291 = APPROVAL_DATE_TIME ( #377, #169 ) ;
#292 = CIRCLE ( 'NONE', #18, 10.00000000000000000 ) ;
#293 = CIRCLE ( 'NONE', #223, 4.500000000000000000 ) ;
#294 = DIRECTION ( 'NONE',  ( -1.000000000000000000, 0.000000000000000000, 0.000000000000000000 ) ) ;
#295 = EDGE_LOOP ( 'NONE', ( #239, #185, #354, #88 ) ) ;
#296 = CARTESIAN_POINT ( 'NONE',  ( 0.000000000000000000, 0.000000000000000000, 7.000000000000000000 ) ) ;
#297 = ORIENTED_EDGE ( 'NONE', *, *, #184, .F. ) ;
#298 = ORIENTED_EDGE ( 'NONE', *, *, #242, .F. ) ;
#299 = AXIS2_PLACEMENT_3D ( 'NONE', #306, #8, #238 ) ;
#300 =( GEOMETRIC_REPRESENTATION_CONTEXT ( 3 ) GLOBAL_UNCERTAINTY_ASSIGNED_CONTEXT ( ( #105 ) ) GLOBAL_UNIT_ASSIGNED_CONTEXT ( ( #37, #118, #129 ) ) REPRESENTATION_CONTEXT ( 'NONE', 'WORKASPACE' ) );
#301 = CARTESIAN_POINT ( 'NONE',  ( 10.00000000000000000, 1.224646799147353256E-15, 7.000000000000000000 ) ) ;
#302 = VERTEX_POINT ( 'NONE', #230 ) ;
#303 = DIRECTION ( 'NONE',  ( -0.000000000000000000, -0.000000000000000000, -1.000000000000000000 ) ) ;
#304 = ORIENTED_EDGE ( 'NONE', *, *, #42, .T. ) ;
#305 = DESIGN_CONTEXT ( 'detailed design', #77, 'design' ) ;
#306 = CARTESIAN_POINT ( 'NONE',  ( -6.700000000000001066, 8.205133554287267548E-16, 7.700000000000012612 ) ) ;
#307 = PERSON ( 'NEURÈENÝ', 'NEURÈENÝ', 'NEURÈENÝ', ('NEURÈENÝ'), ('NEURÈENÝ'), ('NEURÈENÝ') ) ;
#308 = CIRCLE ( 'NONE', #43, 4.500000000000000000 ) ;
#309 = LOCAL_TIME ( 16, 27, 46.00000000000000000, #68 ) ;
#310 = CC_DESIGN_PERSON_AND_ORGANIZATION_ASSIGNMENT ( #311, #249, ( #334 ) ) ;
#311 = PERSON_AND_ORGANIZATION ( #307, #199 ) ;
#312 = EDGE_CURVE ( 'NONE', #92, #58, #83, .T. ) ;
#313 = PERSON_AND_ORGANIZATION ( #307, #199 ) ;
#314 = DIRECTION ( 'NONE',  ( 1.000000000000000000, 0.000000000000000000, 0.000000000000000000 ) ) ;
#315 = DIRECTION ( 'NONE',  ( -1.000000000000000000, 0.000000000000000000, 0.000000000000000000 ) ) ;
#316 = CARTESIAN_POINT ( 'NONE',  ( -10.00000000000000000, 0.000000000000000000, 0.000000000000000000 ) ) ;
#317 = MANIFOLD_SOLID_BREP ( 'Odebrat vysunutím3', #357 ) ;
#318 = CALENDAR_DATE ( 2022, 8, 7 ) ;
#319 = VECTOR ( 'NONE', #275, 1000.000000000000000 ) ;
#320 = CC_DESIGN_APPROVAL ( #164, ( #334 ) ) ;
#321 = FACE_OUTER_BOUND ( 'NONE', #11, .T. ) ;
#322 = APPROVAL_ROLE ( '' ) ;
#323 = CYLINDRICAL_SURFACE ( 'NONE', #33, 6.000000000000000888 ) ;
#324 = ORIENTED_EDGE ( 'NONE', *, *, #116, .F. ) ;
#325 = CIRCLE ( 'NONE', #53, 10.00000000000000000 ) ;
#326 = DIRECTION ( 'NONE',  ( -0.000000000000000000, -0.000000000000000000, -1.000000000000000000 ) ) ;
#327 = ADVANCED_FACE ( 'NONE', ( #229, #52 ), #344, .T. ) ;
#328 = FACE_OUTER_BOUND ( 'NONE', #172, .T. ) ;
#329 = ADVANCED_FACE ( 'NONE', ( #82 ), #142, .T. ) ;
#330 = ORIENTED_EDGE ( 'NONE', *, *, #184, .T. ) ;
#331 = CARTESIAN_POINT ( 'NONE',  ( 0.000000000000000000, 0.000000000000000000, 7.700000000000012612 ) ) ;
#332 = ORIENTED_EDGE ( 'NONE', *, *, #192, .T. ) ;
#333 = DIRECTION ( 'NONE',  ( 1.000000000000000000, 0.000000000000000000, 0.000000000000000000 ) ) ;
#334 = PRODUCT_DEFINITION_FORMATION_WITH_SPECIFIED_SOURCE ( 'LIBOVOLNÝ', '', #209, .NOT_KNOWN. ) ;
#335 = DIRECTION ( 'NONE',  ( -0.000000000000000000, -0.000000000000000000, -1.000000000000000000 ) ) ;
#336 = DIRECTION ( 'NONE',  ( 1.000000000000000000, 0.000000000000000000, 0.000000000000000000 ) ) ;
#337 = CARTESIAN_POINT ( 'NONE',  ( 0.000000000000000000, 0.000000000000000000, 7.000000000000000000 ) ) ;
#338 = SECURITY_CLASSIFICATION_LEVEL ( 'unclassified' ) ;
#339 = ADVANCED_FACE ( 'NONE', ( #321 ), #167, .T. ) ;
#340 = CARTESIAN_POINT ( 'NONE',  ( 10.00000000000000000, 1.224646799147353256E-15, 7.000000000000000000 ) ) ;
#341 = AXIS2_PLACEMENT_3D ( 'NONE', #260, #84, #290 ) ;
#342 = CARTESIAN_POINT ( 'NONE',  ( 0.000000000000000000, 0.000000000000000000, 7.000000000000000000 ) ) ;
#343 = AXIS2_PLACEMENT_3D ( 'NONE', #342, #139, #23 ) ;
#344 = PLANE ( 'NONE',  #241 ) ;
#345 = CIRCLE ( 'NONE', #16, 6.700000000000001066 ) ;
#346 = CARTESIAN_POINT ( 'NONE',  ( 0.000000000000000000, 0.000000000000000000, 167.0000000000000000 ) ) ;
#347 = AXIS2_PLACEMENT_3D ( 'NONE', #331, #220, #155 ) ;
#348 = CIRCLE ( 'NONE', #183, 6.000000000000000888 ) ;
#349 = ORIENTED_EDGE ( 'NONE', *, *, #97, .F. ) ;
#350 = DIRECTION ( 'NONE',  ( -0.000000000000000000, -0.000000000000000000, -1.000000000000000000 ) ) ;
#351 = FACE_OUTER_BOUND ( 'NONE', #120, .T. ) ;
#352 = EDGE_CURVE ( 'NONE', #269, #231, #293, .T. ) ;
#353 = DIRECTION ( 'NONE',  ( 0.000000000000000000, 0.000000000000000000, 1.000000000000000000 ) ) ;
#354 = ORIENTED_EDGE ( 'NONE', *, *, #284, .T. ) ;
#355 = CARTESIAN_POINT ( 'NONE',  ( 6.700000000000001066, 0.000000000000000000, 7.700000000000012612 ) ) ;
#356 = VERTEX_POINT ( 'NONE', #266 ) ;
#357 = CLOSED_SHELL ( 'NONE', ( #107, #191, #372, #1, #339, #245, #373, #329, #327, #267, #35 ) ) ;
#358 = EDGE_LOOP ( 'NONE', ( #61, #38, #125, #94 ) ) ;
#359 = CIRCLE ( 'NONE', #154, 6.000000000000000888 ) ;
#360 = EDGE_LOOP ( 'NONE', ( #272, #304 ) ) ;
#361 = CARTESIAN_POINT ( 'NONE',  ( 0.000000000000000000, 0.000000000000000000, 0.000000000000000000 ) ) ;
#362 = DIRECTION ( 'NONE',  ( -0.000000000000000000, -0.000000000000000000, -1.000000000000000000 ) ) ;
#363 = CARTESIAN_POINT ( 'NONE',  ( 0.000000000000000000, 0.000000000000000000, 167.0000000000000000 ) ) ;
#364 = VECTOR ( 'NONE', #251, 1000.000000000000000 ) ;
#365 = PERSON_AND_ORGANIZATION ( #307, #199 ) ;
#366 = DIRECTION ( 'NONE',  ( 0.000000000000000000, 0.000000000000000000, 1.000000000000000000 ) ) ;
#367 = CALENDAR_DATE ( 2022, 8, 7 ) ;
#368 = DIRECTION ( 'NONE',  ( 1.000000000000000000, 0.000000000000000000, 0.000000000000000000 ) ) ;
#369 = APPROVAL_PERSON_ORGANIZATION ( #46, #169, #322 ) ;
#370 = DIRECTION ( 'NONE',  ( 1.000000000000000000, 0.000000000000000000, 0.000000000000000000 ) ) ;
#371 = CC_DESIGN_PERSON_AND_ORGANIZATION_ASSIGNMENT ( #12, #278, ( #378 ) ) ;
#372 = ADVANCED_FACE ( 'NONE', ( #351 ), #323, .T. ) ;
#373 = ADVANCED_FACE ( 'NONE', ( #34, #148 ), #270, .F. ) ;
#374 = VECTOR ( 'NONE', #10, 1000.000000000000000 ) ;
#375 = AXIS2_PLACEMENT_3D ( 'NONE', #21, #136, #106 ) ;
#376 = EDGE_LOOP ( 'NONE', ( #281, #257 ) ) ;
#377 = DATE_AND_TIME ( #318, #126 ) ;
#378 = PRODUCT_DEFINITION ( 'NEZNÁMÝ', '', #334, #305 ) ;
#379 = CYLINDRICAL_SURFACE ( 'NONE', #152, 4.500000000000000000 ) ;
#380 = COORDINATED_UNIVERSAL_TIME_OFFSET ( 1, 0, .AHEAD. ) ;
#381 = CARTESIAN_POINT ( 'NONE',  ( 0.000000000000000000, 0.000000000000000000, 0.000000000000000000 ) ) ;
ENDSEC;
END-ISO-10303-21;
