ISO-10303-21;
HEADER;
FILE_DESCRIPTION (( 'STEP AP203' ),
    '1' );
FILE_NAME ('6784.STEP',
    '2022-07-08T15:08:55',
    ( '' ),
    ( '' ),
    'SwSTEP 2.0',
    'SolidWorks 2019',
    '' );
FILE_SCHEMA (( 'CONFIG_CONTROL_DESIGN' ));
ENDSEC;

DATA;
#1 = CYLINDRICAL_SURFACE ( 'NONE', #95, 7.000000000000000000 ) ;
#2 = CARTESIAN_POINT ( 'NONE',  ( 4.000000000000000000, 4.898587196589412829E-16, 230.0000000000000000 ) ) ;
#3 = ORIENTED_EDGE ( 'NONE', *, *, #71, .T. ) ;
#4 = PRODUCT_DEFINITION ( 'NEZNÁMÝ', '', #290, #187 ) ;
#5 = EDGE_LOOP ( 'NONE', ( #89, #226, #27, #177 ) ) ;
#6 = MANIFOLD_SOLID_BREP ( 'Odebrat vysunutím3', #61 ) ;
#7 = DIRECTION ( 'NONE',  ( 1.224646799147353207E-16, 1.000000000000000000, -0.000000000000000000 ) ) ;
#8 = ADVANCED_FACE ( 'NONE', ( #175 ), #351, .F. ) ;
#9 = CARTESIAN_POINT ( 'NONE',  ( 4.500000000000000888, 0.000000000000000000, 5.500000000000005329 ) ) ;
#10 = DIRECTION ( 'NONE',  ( 0.000000000000000000, 0.000000000000000000, -1.000000000000000000 ) ) ;
#11 = CARTESIAN_POINT ( 'NONE',  ( 2.600000000000000089, 3.184081677783118191E-16, 0.000000000000000000 ) ) ;
#12 = DIRECTION ( 'NONE',  ( -0.000000000000000000, -0.000000000000000000, -1.000000000000000000 ) ) ;
#13 = CARTESIAN_POINT ( 'NONE',  ( 7.000000000000000000, 8.572527594031473190E-16, 5.000000000000000000 ) ) ;
#14 = DIRECTION ( 'NONE',  ( 1.000000000000000000, 0.000000000000000000, 0.000000000000000000 ) ) ;
#15 = CIRCLE ( 'NONE', #101, 0.5000000000000004441 ) ;
#16 = ADVANCED_FACE ( 'NONE', ( #286 ), #26, .F. ) ;
#17 = FACE_BOUND ( 'NONE', #264, .T. ) ;
#18 = CARTESIAN_POINT ( 'NONE',  ( 0.000000000000000000, 0.000000000000000000, 5.500000000000005329 ) ) ;
#19 = PERSON ( 'NEURÈENÝ', 'NEURÈENÝ', 'NEURÈENÝ', ('NEURÈENÝ'), ('NEURÈENÝ'), ('NEURÈENÝ') ) ;
#20 = ADVANCED_FACE ( 'NONE', ( #17, #50 ), #375, .T. ) ;
#21 = CARTESIAN_POINT ( 'NONE',  ( 7.000000000000000000, 8.572527594031473190E-16, 0.000000000000000000 ) ) ;
#22 = AXIS2_PLACEMENT_3D ( 'NONE', #144, #65, #228 ) ;
#23 = LOCAL_TIME ( 17, 8, 55.00000000000000000, #367 ) ;
#24 = CARTESIAN_POINT ( 'NONE',  ( -7.000000000000000000, 0.000000000000000000, 0.000000000000000000 ) ) ;
#25 = DIRECTION ( 'NONE',  ( 0.000000000000000000, 0.000000000000000000, 1.000000000000000000 ) ) ;
#26 = CYLINDRICAL_SURFACE ( 'NONE', #183, 2.600000000000000089 ) ;
#27 = ORIENTED_EDGE ( 'NONE', *, *, #340, .T. ) ;
#28 = CIRCLE ( 'NONE', #218, 7.000000000000000000 ) ;
#29 = ORIENTED_EDGE ( 'NONE', *, *, #63, .F. ) ;
#30 = FACE_OUTER_BOUND ( 'NONE', #142, .T. ) ;
#31 = VERTEX_POINT ( 'NONE', #162 ) ;
#32 = EDGE_CURVE ( 'NONE', #85, #92, #334, .T. ) ;
#33 = ORIENTED_EDGE ( 'NONE', *, *, #71, .F. ) ;
#34 = DIRECTION ( 'NONE',  ( 0.000000000000000000, 0.000000000000000000, 1.000000000000000000 ) ) ;
#35 = CIRCLE ( 'NONE', #116, 4.500000000000000888 ) ;
#36 = CARTESIAN_POINT ( 'NONE',  ( -2.600000000000000089, 0.000000000000000000, 230.0000000000000000 ) ) ;
#37 = ADVANCED_FACE ( 'NONE', ( #111 ), #255, .T. ) ;
#38 = DIRECTION ( 'NONE',  ( 0.000000000000000000, 0.000000000000000000, 1.000000000000000000 ) ) ;
#39 = DIRECTION ( 'NONE',  ( -0.000000000000000000, -0.000000000000000000, -1.000000000000000000 ) ) ;
#40 = DIRECTION ( 'NONE',  ( 0.000000000000000000, 0.000000000000000000, 1.000000000000000000 ) ) ;
#41 = AXIS2_PLACEMENT_3D ( 'NONE', #174, #66, #171 ) ;
#42 = CARTESIAN_POINT ( 'NONE',  ( 0.000000000000000000, 0.000000000000000000, 5.000000000000000000 ) ) ;
#43 = PERSON_AND_ORGANIZATION ( #19, #350 ) ;
#44 = PRODUCT ( '6784', '6784', '', ( #251 ) ) ;
#45 = TOROIDAL_SURFACE ( 'NONE', #67, 4.500000000000000888, 0.5000000000000000000 ) ;
#46 = DATE_AND_TIME ( #362, #219 ) ;
#47 = VERTEX_POINT ( 'NONE', #194 ) ;
#48 = DIRECTION ( 'NONE',  ( -0.000000000000000000, -0.000000000000000000, -1.000000000000000000 ) ) ;
#49 = EDGE_CURVE ( 'NONE', #92, #204, #176, .T. ) ;
#50 = FACE_OUTER_BOUND ( 'NONE', #58, .T. ) ;
#51 = EDGE_CURVE ( 'NONE', #31, #354, #68, .T. ) ;
#52 = EDGE_LOOP ( 'NONE', ( #64, #296 ) ) ;
#53 = CALENDAR_DATE ( 2022, 8, 7 ) ;
#54 = DIRECTION ( 'NONE',  ( 0.000000000000000000, 0.000000000000000000, -1.000000000000000000 ) ) ;
#55 = ADVANCED_BREP_SHAPE_REPRESENTATION ( '6784', ( #6, #342 ), #126 ) ;
#56 = PRODUCT_DEFINITION_SHAPE ( 'NONE', 'NONE',  #4 ) ;
#57 = DIRECTION ( 'NONE',  ( -0.000000000000000000, -0.000000000000000000, -1.000000000000000000 ) ) ;
#58 = EDGE_LOOP ( 'NONE', ( #337, #346 ) ) ;
#59 = SHAPE_DEFINITION_REPRESENTATION ( #56, #55 ) ;
#60 = ORIENTED_EDGE ( 'NONE', *, *, #277, .F. ) ;
#61 = CLOSED_SHELL ( 'NONE', ( #16, #152, #37, #345, #250, #83, #182, #373, #20, #205, #8 ) ) ;
#62 = ORIENTED_EDGE ( 'NONE', *, *, #340, .F. ) ;
#63 = EDGE_CURVE ( 'NONE', #108, #47, #69, .T. ) ;
#64 = ORIENTED_EDGE ( 'NONE', *, *, #306, .T. ) ;
#65 = DIRECTION ( 'NONE',  ( -0.000000000000000000, -0.000000000000000000, -1.000000000000000000 ) ) ;
#66 = DIRECTION ( 'NONE',  ( 0.000000000000000000, 0.000000000000000000, 1.000000000000000000 ) ) ;
#67 = AXIS2_PLACEMENT_3D ( 'NONE', #332, #211, #298 ) ;
#68 = CIRCLE ( 'NONE', #289, 4.000000000000000000 ) ;
#69 = CIRCLE ( 'NONE', #341, 4.000000000000000000 ) ;
#70 = PERSON_AND_ORGANIZATION_ROLE ( 'design_supplier' ) ;
#71 = EDGE_CURVE ( 'NONE', #322, #203, #28, .T. ) ;
#72 = APPROVAL_STATUS ( 'not_yet_approved' ) ;
#73 = ORIENTED_EDGE ( 'NONE', *, *, #32, .F. ) ;
#74 = CIRCLE ( 'NONE', #223, 0.5000000000000004441 ) ;
#75 = APPLICATION_CONTEXT ( 'configuration controlled 3d designs of mechanical parts and assemblies' ) ;
#76 = CC_DESIGN_PERSON_AND_ORGANIZATION_ASSIGNMENT ( #363, #132, ( #4 ) ) ;
#77 = AXIS2_PLACEMENT_3D ( 'NONE', #274, #308, #14 ) ;
#78 = ORIENTED_EDGE ( 'NONE', *, *, #215, .F. ) ;
#79 =( NAMED_UNIT ( * ) PLANE_ANGLE_UNIT ( ) SI_UNIT ( $, .RADIAN. ) );
#80 = DIRECTION ( 'NONE',  ( -0.000000000000000000, -0.000000000000000000, -1.000000000000000000 ) ) ;
#81 = UNCERTAINTY_MEASURE_WITH_UNIT (LENGTH_MEASURE( 1.000000000000000082E-05 ), #133, 'distance_accuracy_value', 'NONE');
#82 = DIRECTION ( 'NONE',  ( -1.000000000000000000, 0.000000000000000000, 0.000000000000000000 ) ) ;
#83 = ADVANCED_FACE ( 'NONE', ( #139, #178 ), #233, .T. ) ;
#84 = VERTEX_POINT ( 'NONE', #328 ) ;
#85 = VERTEX_POINT ( 'NONE', #36 ) ;
#86 = DIRECTION ( 'NONE',  ( 0.000000000000000000, 0.000000000000000000, -1.000000000000000000 ) ) ;
#87 = APPROVAL ( #214, 'NEURÈENÝ' ) ;
#88 = EDGE_CURVE ( 'NONE', #31, #47, #309, .T. ) ;
#89 = ORIENTED_EDGE ( 'NONE', *, *, #49, .F. ) ;
#90 = TOROIDAL_SURFACE ( 'NONE', #237, 4.500000000000000888, 0.5000000000000000000 ) ;
#91 = EDGE_LOOP ( 'NONE', ( #380, #268, #143, #62 ) ) ;
#92 = VERTEX_POINT ( 'NONE', #157 ) ;
#93 = DIRECTION ( 'NONE',  ( 1.000000000000000000, 0.000000000000000000, 0.000000000000000000 ) ) ;
#94 = DIRECTION ( 'NONE',  ( 1.000000000000000000, 0.000000000000000000, 0.000000000000000000 ) ) ;
#95 = AXIS2_PLACEMENT_3D ( 'NONE', #123, #48, #325 ) ;
#96 = LINE ( 'NONE', #235, #318 ) ;
#97 = CARTESIAN_POINT ( 'NONE',  ( 0.000000000000000000, 0.000000000000000000, 5.000000000000000000 ) ) ;
#98 = FACE_OUTER_BOUND ( 'NONE', #149, .T. ) ;
#99 = PERSON_AND_ORGANIZATION ( #19, #350 ) ;
#100 = EDGE_CURVE ( 'NONE', #322, #379, #305, .T. ) ;
#101 = AXIS2_PLACEMENT_3D ( 'NONE', #271, #7, #307 ) ;
#102 = CARTESIAN_POINT ( 'NONE',  ( 0.000000000000000000, 0.000000000000000000, 5.500000000000005329 ) ) ;
#103 = FACE_OUTER_BOUND ( 'NONE', #197, .T. ) ;
#104 = CC_DESIGN_APPROVAL ( #114, ( #4 ) ) ;
#105 = DATE_TIME_ROLE ( 'creation_date' ) ;
#106 = CALENDAR_DATE ( 2022, 8, 7 ) ;
#107 = CC_DESIGN_PERSON_AND_ORGANIZATION_ASSIGNMENT ( #160, #186, ( #253 ) ) ;
#108 = VERTEX_POINT ( 'NONE', #185 ) ;
#109 = VECTOR ( 'NONE', #263, 1000.000000000000000 ) ;
#110 = APPROVAL_ROLE ( '' ) ;
#111 = FACE_OUTER_BOUND ( 'NONE', #224, .T. ) ;
#112 = DIRECTION ( 'NONE',  ( 1.000000000000000000, 0.000000000000000000, 0.000000000000000000 ) ) ;
#113 = EDGE_LOOP ( 'NONE', ( #278, #172 ) ) ;
#114 = APPROVAL ( #72, 'NEURÈENÝ' ) ;
#115 = CALENDAR_DATE ( 2022, 8, 7 ) ;
#116 = AXIS2_PLACEMENT_3D ( 'NONE', #222, #256, #377 ) ;
#117 = PLANE ( 'NONE',  #150 ) ;
#118 = ORIENTED_EDGE ( 'NONE', *, *, #88, .T. ) ;
#119 = ORIENTED_EDGE ( 'NONE', *, *, #88, .F. ) ;
#120 = CC_DESIGN_DATE_AND_TIME_ASSIGNMENT ( #311, #105, ( #4 ) ) ;
#121 = COORDINATED_UNIVERSAL_TIME_OFFSET ( 1, 0, .AHEAD. ) ;
#122 = ORIENTED_EDGE ( 'NONE', *, *, #138, .F. ) ;
#123 = CARTESIAN_POINT ( 'NONE',  ( 0.000000000000000000, 0.000000000000000000, 5.000000000000000000 ) ) ;
#124 = ORIENTED_EDGE ( 'NONE', *, *, #273, .F. ) ;
#125 = VECTOR ( 'NONE', #57, 1000.000000000000000 ) ;
#126 =( GEOMETRIC_REPRESENTATION_CONTEXT ( 3 ) GLOBAL_UNCERTAINTY_ASSIGNED_CONTEXT ( ( #81 ) ) GLOBAL_UNIT_ASSIGNED_CONTEXT ( ( #133, #79, #192 ) ) REPRESENTATION_CONTEXT ( 'NONE', 'WORKASPACE' ) );
#127 = ORIENTED_EDGE ( 'NONE', *, *, #195, .T. ) ;
#128 = DIRECTION ( 'NONE',  ( 1.000000000000000000, 0.000000000000000000, -0.000000000000000000 ) ) ;
#129 = CARTESIAN_POINT ( 'NONE',  ( 4.500000000000000888, 0.000000000000000000, 5.000000000000002665 ) ) ;
#130 = EDGE_CURVE ( 'NONE', #47, #227, #15, .T. ) ;
#131 = AXIS2_PLACEMENT_3D ( 'NONE', #254, #299, #336 ) ;
#132 = PERSON_AND_ORGANIZATION_ROLE ( 'creator' ) ;
#133 =( LENGTH_UNIT ( ) NAMED_UNIT ( * ) SI_UNIT ( .MILLI., .METRE. ) );
#134 = AXIS2_PLACEMENT_3D ( 'NONE', #207, #151, #128 ) ;
#135 = ORIENTED_EDGE ( 'NONE', *, *, #130, .T. ) ;
#136 = LINE ( 'NONE', #173, #330 ) ;
#137 = DATE_AND_TIME ( #115, #331 ) ;
#138 = EDGE_CURVE ( 'NONE', #108, #369, #74, .T. ) ;
#139 = FACE_BOUND ( 'NONE', #52, .T. ) ;
#140 = CARTESIAN_POINT ( 'NONE',  ( 0.000000000000000000, 0.000000000000000000, 230.0000000000000000 ) ) ;
#141 = AXIS2_PLACEMENT_3D ( 'NONE', #313, #168, #317 ) ;
#142 = EDGE_LOOP ( 'NONE', ( #246, #232, #291, #127 ) ) ;
#143 = ORIENTED_EDGE ( 'NONE', *, *, #360, .T. ) ;
#144 = CARTESIAN_POINT ( 'NONE',  ( 0.000000000000000000, 0.000000000000000000, 5.000000000000000000 ) ) ;
#145 = ORIENTED_EDGE ( 'NONE', *, *, #51, .F. ) ;
#146 = CARTESIAN_POINT ( 'NONE',  ( 0.000000000000000000, 0.000000000000000000, 5.000000000000000000 ) ) ;
#147 = LINE ( 'NONE', #284, #125 ) ;
#148 = DIRECTION ( 'NONE',  ( -0.000000000000000000, -0.000000000000000000, -1.000000000000000000 ) ) ;
#149 = EDGE_LOOP ( 'NONE', ( #78, #135, #249, #122 ) ) ;
#150 = AXIS2_PLACEMENT_3D ( 'NONE', #202, #259, #225 ) ;
#151 = DIRECTION ( 'NONE',  ( 0.000000000000000000, 0.000000000000000000, 1.000000000000000000 ) ) ;
#152 = ADVANCED_FACE ( 'NONE', ( #98 ), #45, .F. ) ;
#153 = FACE_BOUND ( 'NONE', #376, .T. ) ;
#154 = EDGE_CURVE ( 'NONE', #354, #108, #96, .T. ) ;
#155 = VECTOR ( 'NONE', #269, 1000.000000000000000 ) ;
#156 = PERSON_AND_ORGANIZATION ( #19, #350 ) ;
#157 = CARTESIAN_POINT ( 'NONE',  ( 2.600000000000000089, 3.184081677783118191E-16, 230.0000000000000000 ) ) ;
#158 = DIRECTION ( 'NONE',  ( 1.000000000000000000, 0.000000000000000000, 0.000000000000000000 ) ) ;
#159 = CIRCLE ( 'NONE', #213, 4.000000000000000000 ) ;
#160 = PERSON_AND_ORGANIZATION ( #19, #350 ) ;
#161 = EDGE_LOOP ( 'NONE', ( #260, #3 ) ) ;
#162 = CARTESIAN_POINT ( 'NONE',  ( -4.000000000000000000, 0.000000000000000000, 230.0000000000000000 ) ) ;
#163 = ORIENTED_EDGE ( 'NONE', *, *, #138, .T. ) ;
#164 = APPROVAL_DATE_TIME ( #188, #114 ) ;
#165 = EDGE_CURVE ( 'NONE', #379, #327, #364, .T. ) ;
#166 = AXIS2_PLACEMENT_3D ( 'NONE', #261, #347, #181 ) ;
#167 = APPROVAL_DATE_TIME ( #137, #243 ) ;
#168 = DIRECTION ( 'NONE',  ( 0.000000000000000000, 0.000000000000000000, 1.000000000000000000 ) ) ;
#169 = APPROVAL_STATUS ( 'not_yet_approved' ) ;
#170 = DIRECTION ( 'NONE',  ( -1.000000000000000000, 0.000000000000000000, 0.000000000000000000 ) ) ;
#171 = DIRECTION ( 'NONE',  ( 1.000000000000000000, 0.000000000000000000, 0.000000000000000000 ) ) ;
#172 = ORIENTED_EDGE ( 'NONE', *, *, #165, .F. ) ;
#173 = CARTESIAN_POINT ( 'NONE',  ( -2.600000000000000089, 0.000000000000000000, 230.0000000000000000 ) ) ;
#174 = CARTESIAN_POINT ( 'NONE',  ( 0.000000000000000000, 0.000000000000000000, 0.000000000000000000 ) ) ;
#175 = FACE_OUTER_BOUND ( 'NONE', #5, .T. ) ;
#176 = LINE ( 'NONE', #295, #109 ) ;
#177 = ORIENTED_EDGE ( 'NONE', *, *, #374, .T. ) ;
#178 = FACE_OUTER_BOUND ( 'NONE', #161, .T. ) ;
#179 = ORIENTED_EDGE ( 'NONE', *, *, #230, .F. ) ;
#180 = CIRCLE ( 'NONE', #349, 4.500000000000000888 ) ;
#181 = DIRECTION ( 'NONE',  ( 1.000000000000000000, 0.000000000000000000, 0.000000000000000000 ) ) ;
#182 = ADVANCED_FACE ( 'NONE', ( #153, #378 ), #117, .F. ) ;
#183 = AXIS2_PLACEMENT_3D ( 'NONE', #140, #257, #82 ) ;
#184 = APPROVAL_PERSON_ORGANIZATION ( #310, #114, #242 ) ;
#185 = CARTESIAN_POINT ( 'NONE',  ( 4.000000000000000000, 4.898587196589412829E-16, 5.500000000000005329 ) ) ;
#186 = PERSON_AND_ORGANIZATION_ROLE ( 'classification_officer' ) ;
#187 = DESIGN_CONTEXT ( 'detailed design', #285, 'design' ) ;
#188 = DATE_AND_TIME ( #53, #267 ) ;
#189 = COORDINATED_UNIVERSAL_TIME_OFFSET ( 1, 0, .AHEAD. ) ;
#190 = AXIS2_PLACEMENT_3D ( 'NONE', #206, #12, #361 ) ;
#191 = COORDINATED_UNIVERSAL_TIME_OFFSET ( 1, 0, .AHEAD. ) ;
#192 =( NAMED_UNIT ( * ) SI_UNIT ( $, .STERADIAN. ) SOLID_ANGLE_UNIT ( ) );
#193 = CC_DESIGN_PERSON_AND_ORGANIZATION_ASSIGNMENT ( #43, #70, ( #290 ) ) ;
#194 = CARTESIAN_POINT ( 'NONE',  ( -4.000000000000000000, 0.000000000000000000, 5.500000000000005329 ) ) ;
#195 = EDGE_CURVE ( 'NONE', #327, #379, #229, .T. ) ;
#196 = LOCAL_TIME ( 17, 8, 55.00000000000000000, #314 ) ;
#197 = EDGE_LOOP ( 'NONE', ( #216, #145, #118, #262 ) ) ;
#198 = ORIENTED_EDGE ( 'NONE', *, *, #355, .F. ) ;
#199 = FACE_OUTER_BOUND ( 'NONE', #236, .T. ) ;
#200 = AXIS2_PLACEMENT_3D ( 'NONE', #221, #80, #339 ) ;
#201 = CC_DESIGN_APPROVAL ( #87, ( #290 ) ) ;
#202 = CARTESIAN_POINT ( 'NONE',  ( 0.000000000000000000, 0.000000000000000000, 0.000000000000000000 ) ) ;
#203 = VERTEX_POINT ( 'NONE', #239 ) ;
#204 = VERTEX_POINT ( 'NONE', #11 ) ;
#205 = ADVANCED_FACE ( 'NONE', ( #241 ), #90, .F. ) ;
#206 = CARTESIAN_POINT ( 'NONE',  ( 0.000000000000000000, 0.000000000000000000, 0.000000000000000000 ) ) ;
#207 = CARTESIAN_POINT ( 'NONE',  ( 0.000000000000000000, 0.000000000000000000, 5.000000000000000000 ) ) ;
#208 = CIRCLE ( 'NONE', #190, 2.600000000000000089 ) ;
#209 = DIRECTION ( 'NONE',  ( 0.000000000000000000, 0.000000000000000000, 1.000000000000000000 ) ) ;
#210 = PRODUCT_RELATED_PRODUCT_CATEGORY ( 'detail', '', ( #44 ) ) ;
#211 = DIRECTION ( 'NONE',  ( 0.000000000000000000, 0.000000000000000000, 1.000000000000000000 ) ) ;
#212 = APPLICATION_PROTOCOL_DEFINITION ( 'international standard', 'config_control_design', 1994, #285 ) ;
#213 = AXIS2_PLACEMENT_3D ( 'NONE', #343, #25, #287 ) ;
#214 = APPROVAL_STATUS ( 'not_yet_approved' ) ;
#215 = EDGE_CURVE ( 'NONE', #47, #108, #275, .T. ) ;
#216 = ORIENTED_EDGE ( 'NONE', *, *, #154, .F. ) ;
#217 = PERSON_AND_ORGANIZATION ( #19, #350 ) ;
#218 = AXIS2_PLACEMENT_3D ( 'NONE', #42, #34, #93 ) ;
#219 = LOCAL_TIME ( 17, 8, 55.00000000000000000, #189 ) ;
#220 = EDGE_CURVE ( 'NONE', #203, #322, #252, .T. ) ;
#221 = CARTESIAN_POINT ( 'NONE',  ( 0.000000000000000000, 0.000000000000000000, 230.0000000000000000 ) ) ;
#222 = CARTESIAN_POINT ( 'NONE',  ( 0.000000000000000000, 0.000000000000000000, 5.000000000000000000 ) ) ;
#223 = AXIS2_PLACEMENT_3D ( 'NONE', #9, #358, #10 ) ;
#224 = EDGE_LOOP ( 'NONE', ( #60, #381, #283, #119 ) ) ;
#225 = DIRECTION ( 'NONE',  ( 1.000000000000000000, 0.000000000000000000, -0.000000000000000000 ) ) ;
#226 = ORIENTED_EDGE ( 'NONE', *, *, #355, .T. ) ;
#227 = VERTEX_POINT ( 'NONE', #324 ) ;
#228 = DIRECTION ( 'NONE',  ( -1.000000000000000000, 0.000000000000000000, 0.000000000000000000 ) ) ;
#229 = CIRCLE ( 'NONE', #166, 7.000000000000000000 ) ;
#230 = EDGE_CURVE ( 'NONE', #227, #369, #180, .T. ) ;
#231 = APPROVAL_PERSON_ORGANIZATION ( #281, #87, #110 ) ;
#232 = ORIENTED_EDGE ( 'NONE', *, *, #220, .F. ) ;
#233 = PLANE ( 'NONE',  #134 ) ;
#234 = CYLINDRICAL_SURFACE ( 'NONE', #22, 7.000000000000000000 ) ;
#235 = CARTESIAN_POINT ( 'NONE',  ( 4.000000000000000000, 4.898587196589412829E-16, 230.0000000000000000 ) ) ;
#236 = EDGE_LOOP ( 'NONE', ( #33, #348, #288, #124 ) ) ;
#237 = AXIS2_PLACEMENT_3D ( 'NONE', #365, #38, #158 ) ;
#238 = CIRCLE ( 'NONE', #77, 2.600000000000000089 ) ;
#239 = CARTESIAN_POINT ( 'NONE',  ( -7.000000000000000000, 0.000000000000000000, 5.000000000000000000 ) ) ;
#240 = DIRECTION ( 'NONE',  ( 0.000000000000000000, 0.000000000000000000, 1.000000000000000000 ) ) ;
#241 = FACE_OUTER_BOUND ( 'NONE', #344, .T. ) ;
#242 = APPROVAL_ROLE ( '' ) ;
#243 = APPROVAL ( #169, 'NEURÈENÝ' ) ;
#244 = AXIS2_PLACEMENT_3D ( 'NONE', #248, #280, #372 ) ;
#245 = SECURITY_CLASSIFICATION_LEVEL ( 'unclassified' ) ;
#246 = ORIENTED_EDGE ( 'NONE', *, *, #100, .F. ) ;
#247 = DATE_TIME_ROLE ( 'classification_date' ) ;
#248 = CARTESIAN_POINT ( 'NONE',  ( 0.000000000000000000, 0.000000000000000000, 230.0000000000000000 ) ) ;
#249 = ORIENTED_EDGE ( 'NONE', *, *, #306, .F. ) ;
#250 = ADVANCED_FACE ( 'NONE', ( #30 ), #234, .T. ) ;
#251 = MECHANICAL_CONTEXT ( 'NONE', #75, 'mechanical' ) ;
#252 = CIRCLE ( 'NONE', #301, 7.000000000000000000 ) ;
#253 = SECURITY_CLASSIFICATION ( '', '', #245 ) ;
#254 = CARTESIAN_POINT ( 'NONE',  ( 0.000000000000000000, 0.000000000000000000, 230.0000000000000000 ) ) ;
#255 = CYLINDRICAL_SURFACE ( 'NONE', #200, 4.000000000000000000 ) ;
#256 = DIRECTION ( 'NONE',  ( -0.000000000000000000, -0.000000000000000000, -1.000000000000000000 ) ) ;
#257 = DIRECTION ( 'NONE',  ( 0.000000000000000000, 0.000000000000000000, -1.000000000000000000 ) ) ;
#258 = AXIS2_PLACEMENT_3D ( 'NONE', #18, #209, #359 ) ;
#259 = DIRECTION ( 'NONE',  ( 0.000000000000000000, 0.000000000000000000, 1.000000000000000000 ) ) ;
#260 = ORIENTED_EDGE ( 'NONE', *, *, #220, .T. ) ;
#261 = CARTESIAN_POINT ( 'NONE',  ( 0.000000000000000000, 0.000000000000000000, 0.000000000000000000 ) ) ;
#262 = ORIENTED_EDGE ( 'NONE', *, *, #215, .T. ) ;
#263 = DIRECTION ( 'NONE',  ( 0.000000000000000000, 0.000000000000000000, -1.000000000000000000 ) ) ;
#264 = EDGE_LOOP ( 'NONE', ( #73, #198 ) ) ;
#265 = AXIS2_PLACEMENT_3D ( 'NONE', #320, #54, #170 ) ;
#266 = DIRECTION ( 'NONE',  ( 0.000000000000000000, 0.000000000000000000, 1.000000000000000000 ) ) ;
#267 = LOCAL_TIME ( 17, 8, 55.00000000000000000, #191 ) ;
#268 = ORIENTED_EDGE ( 'NONE', *, *, #49, .T. ) ;
#269 = DIRECTION ( 'NONE',  ( -0.000000000000000000, -0.000000000000000000, -1.000000000000000000 ) ) ;
#270 = DIRECTION ( 'NONE',  ( 0.000000000000000000, 0.000000000000000000, 1.000000000000000000 ) ) ;
#271 = CARTESIAN_POINT ( 'NONE',  ( -4.500000000000000888, 5.510910596163089556E-16, 5.500000000000005329 ) ) ;
#272 = CC_DESIGN_APPROVAL ( #243, ( #253 ) ) ;
#273 = EDGE_CURVE ( 'NONE', #203, #327, #147, .T. ) ;
#274 = CARTESIAN_POINT ( 'NONE',  ( 0.000000000000000000, 0.000000000000000000, 0.000000000000000000 ) ) ;
#275 = CIRCLE ( 'NONE', #258, 4.000000000000000000 ) ;
#276 = DATE_AND_TIME ( #106, #23 ) ;
#277 = EDGE_CURVE ( 'NONE', #354, #31, #159, .T. ) ;
#278 = ORIENTED_EDGE ( 'NONE', *, *, #195, .F. ) ;
#279 = DIRECTION ( 'NONE',  ( 1.000000000000000000, 0.000000000000000000, 0.000000000000000000 ) ) ;
#280 = DIRECTION ( 'NONE',  ( 0.000000000000000000, 0.000000000000000000, 1.000000000000000000 ) ) ;
#281 = PERSON_AND_ORGANIZATION ( #19, #350 ) ;
#282 = CARTESIAN_POINT ( 'NONE',  ( 7.000000000000000000, 8.572527594031473190E-16, 5.000000000000000000 ) ) ;
#283 = ORIENTED_EDGE ( 'NONE', *, *, #63, .T. ) ;
#284 = CARTESIAN_POINT ( 'NONE',  ( -7.000000000000000000, 0.000000000000000000, 5.000000000000000000 ) ) ;
#285 = APPLICATION_CONTEXT ( 'configuration controlled 3d designs of mechanical parts and assemblies' ) ;
#286 = FACE_OUTER_BOUND ( 'NONE', #91, .T. ) ;
#287 = DIRECTION ( 'NONE',  ( 1.000000000000000000, 0.000000000000000000, 0.000000000000000000 ) ) ;
#288 = ORIENTED_EDGE ( 'NONE', *, *, #165, .T. ) ;
#289 = AXIS2_PLACEMENT_3D ( 'NONE', #303, #270, #112 ) ;
#290 = PRODUCT_DEFINITION_FORMATION_WITH_SPECIFIED_SOURCE ( 'LIBOVOLNÝ', '', #44, .NOT_KNOWN. ) ;
#291 = ORIENTED_EDGE ( 'NONE', *, *, #273, .T. ) ;
#292 = CC_DESIGN_PERSON_AND_ORGANIZATION_ASSIGNMENT ( #156, #368, ( #44 ) ) ;
#293 = DIRECTION ( 'NONE',  ( -0.000000000000000000, -0.000000000000000000, -1.000000000000000000 ) ) ;
#294 = APPROVAL_ROLE ( '' ) ;
#295 = CARTESIAN_POINT ( 'NONE',  ( 2.600000000000000089, 3.184081677783118191E-16, 230.0000000000000000 ) ) ;
#296 = ORIENTED_EDGE ( 'NONE', *, *, #230, .T. ) ;
#297 = CARTESIAN_POINT ( 'NONE',  ( 0.000000000000000000, 0.000000000000000000, 230.0000000000000000 ) ) ;
#298 = DIRECTION ( 'NONE',  ( 1.000000000000000000, 0.000000000000000000, 0.000000000000000000 ) ) ;
#299 = DIRECTION ( 'NONE',  ( -0.000000000000000000, -0.000000000000000000, -1.000000000000000000 ) ) ;
#300 = ORIENTED_EDGE ( 'NONE', *, *, #360, .F. ) ;
#301 = AXIS2_PLACEMENT_3D ( 'NONE', #97, #40, #94 ) ;
#302 = CC_DESIGN_SECURITY_CLASSIFICATION ( #253, ( #290 ) ) ;
#303 = CARTESIAN_POINT ( 'NONE',  ( 0.000000000000000000, 0.000000000000000000, 230.0000000000000000 ) ) ;
#304 = CARTESIAN_POINT ( 'NONE',  ( -4.000000000000000000, 0.000000000000000000, 230.0000000000000000 ) ) ;
#305 = LINE ( 'NONE', #13, #155 ) ;
#306 = EDGE_CURVE ( 'NONE', #369, #227, #35, .T. ) ;
#307 = DIRECTION ( 'NONE',  ( -1.000000000000000000, 1.224646799147351482E-16, 0.000000000000000000 ) ) ;
#308 = DIRECTION ( 'NONE',  ( -0.000000000000000000, -0.000000000000000000, -1.000000000000000000 ) ) ;
#309 = LINE ( 'NONE', #304, #323 ) ;
#310 = PERSON_AND_ORGANIZATION ( #19, #350 ) ;
#311 = DATE_AND_TIME ( #370, #196 ) ;
#312 = AXIS2_PLACEMENT_3D ( 'NONE', #297, #266, #353 ) ;
#313 = CARTESIAN_POINT ( 'NONE',  ( 0.000000000000000000, 0.000000000000000000, 230.0000000000000000 ) ) ;
#314 = COORDINATED_UNIVERSAL_TIME_OFFSET ( 1, 0, .AHEAD. ) ;
#315 = DIRECTION ( 'NONE',  ( 0.000000000000000000, 0.000000000000000000, 1.000000000000000000 ) ) ;
#316 = CARTESIAN_POINT ( 'NONE',  ( 0.000000000000000000, 0.000000000000000000, 0.000000000000000000 ) ) ;
#317 = DIRECTION ( 'NONE',  ( 1.000000000000000000, 0.000000000000000000, -0.000000000000000000 ) ) ;
#318 = VECTOR ( 'NONE', #148, 1000.000000000000000 ) ;
#319 = CC_DESIGN_PERSON_AND_ORGANIZATION_ASSIGNMENT ( #99, #333, ( #290 ) ) ;
#320 = CARTESIAN_POINT ( 'NONE',  ( 0.000000000000000000, 0.000000000000000000, 230.0000000000000000 ) ) ;
#321 = ORIENTED_EDGE ( 'NONE', *, *, #130, .F. ) ;
#322 = VERTEX_POINT ( 'NONE', #282 ) ;
#323 = VECTOR ( 'NONE', #39, 1000.000000000000000 ) ;
#324 = CARTESIAN_POINT ( 'NONE',  ( -4.500000000000000888, 5.510910596163088569E-16, 5.000000000000002665 ) ) ;
#325 = DIRECTION ( 'NONE',  ( -1.000000000000000000, 0.000000000000000000, 0.000000000000000000 ) ) ;
#326 = ORIENTED_EDGE ( 'NONE', *, *, #374, .F. ) ;
#327 = VERTEX_POINT ( 'NONE', #24 ) ;
#328 = CARTESIAN_POINT ( 'NONE',  ( -2.600000000000000089, 0.000000000000000000, 0.000000000000000000 ) ) ;
#329 = CC_DESIGN_DATE_AND_TIME_ASSIGNMENT ( #276, #247, ( #253 ) ) ;
#330 = VECTOR ( 'NONE', #86, 1000.000000000000000 ) ;
#331 = LOCAL_TIME ( 17, 8, 55.00000000000000000, #121 ) ;
#332 = CARTESIAN_POINT ( 'NONE',  ( 0.000000000000000000, 0.000000000000000000, 5.500000000000005329 ) ) ;
#333 = PERSON_AND_ORGANIZATION_ROLE ( 'creator' ) ;
#334 = CIRCLE ( 'NONE', #244, 2.600000000000000089 ) ;
#335 = APPROVAL_DATE_TIME ( #46, #87 ) ;
#336 = DIRECTION ( 'NONE',  ( -1.000000000000000000, 0.000000000000000000, 0.000000000000000000 ) ) ;
#337 = ORIENTED_EDGE ( 'NONE', *, *, #51, .T. ) ;
#338 = APPLICATION_PROTOCOL_DEFINITION ( 'international standard', 'config_control_design', 1994, #75 ) ;
#339 = DIRECTION ( 'NONE',  ( -1.000000000000000000, 0.000000000000000000, 0.000000000000000000 ) ) ;
#340 = EDGE_CURVE ( 'NONE', #85, #84, #136, .T. ) ;
#341 = AXIS2_PLACEMENT_3D ( 'NONE', #102, #315, #366 ) ;
#342 = AXIS2_PLACEMENT_3D ( 'NONE', #316, #240, #279 ) ;
#343 = CARTESIAN_POINT ( 'NONE',  ( 0.000000000000000000, 0.000000000000000000, 230.0000000000000000 ) ) ;
#344 = EDGE_LOOP ( 'NONE', ( #321, #29, #163, #179 ) ) ;
#345 = ADVANCED_FACE ( 'NONE', ( #199 ), #1, .T. ) ;
#346 = ORIENTED_EDGE ( 'NONE', *, *, #277, .T. ) ;
#347 = DIRECTION ( 'NONE',  ( 0.000000000000000000, 0.000000000000000000, 1.000000000000000000 ) ) ;
#348 = ORIENTED_EDGE ( 'NONE', *, *, #100, .T. ) ;
#349 = AXIS2_PLACEMENT_3D ( 'NONE', #146, #293, #352 ) ;
#350 = ORGANIZATION ( 'NEURÈENÝ', 'NEURÈENÝ', '' ) ;
#351 = CYLINDRICAL_SURFACE ( 'NONE', #265, 2.600000000000000089 ) ;
#352 = DIRECTION ( 'NONE',  ( 1.000000000000000000, 0.000000000000000000, 0.000000000000000000 ) ) ;
#353 = DIRECTION ( 'NONE',  ( 1.000000000000000000, 0.000000000000000000, 0.000000000000000000 ) ) ;
#354 = VERTEX_POINT ( 'NONE', #2 ) ;
#355 = EDGE_CURVE ( 'NONE', #92, #85, #356, .T. ) ;
#356 = CIRCLE ( 'NONE', #312, 2.600000000000000089 ) ;
#357 = APPROVAL_PERSON_ORGANIZATION ( #217, #243, #294 ) ;
#358 = DIRECTION ( 'NONE',  ( 0.000000000000000000, -1.000000000000000000, 0.000000000000000000 ) ) ;
#359 = DIRECTION ( 'NONE',  ( 1.000000000000000000, 0.000000000000000000, 0.000000000000000000 ) ) ;
#360 = EDGE_CURVE ( 'NONE', #204, #84, #208, .T. ) ;
#361 = DIRECTION ( 'NONE',  ( 1.000000000000000000, 0.000000000000000000, 0.000000000000000000 ) ) ;
#362 = CALENDAR_DATE ( 2022, 8, 7 ) ;
#363 = PERSON_AND_ORGANIZATION ( #19, #350 ) ;
#364 = CIRCLE ( 'NONE', #41, 7.000000000000000000 ) ;
#365 = CARTESIAN_POINT ( 'NONE',  ( 0.000000000000000000, 0.000000000000000000, 5.500000000000005329 ) ) ;
#366 = DIRECTION ( 'NONE',  ( 1.000000000000000000, 0.000000000000000000, 0.000000000000000000 ) ) ;
#367 = COORDINATED_UNIVERSAL_TIME_OFFSET ( 1, 0, .AHEAD. ) ;
#368 = PERSON_AND_ORGANIZATION_ROLE ( 'design_owner' ) ;
#369 = VERTEX_POINT ( 'NONE', #129 ) ;
#370 = CALENDAR_DATE ( 2022, 8, 7 ) ;
#371 = CYLINDRICAL_SURFACE ( 'NONE', #131, 4.000000000000000000 ) ;
#372 = DIRECTION ( 'NONE',  ( 1.000000000000000000, 0.000000000000000000, 0.000000000000000000 ) ) ;
#373 = ADVANCED_FACE ( 'NONE', ( #103 ), #371, .T. ) ;
#374 = EDGE_CURVE ( 'NONE', #84, #204, #238, .T. ) ;
#375 = PLANE ( 'NONE',  #141 ) ;
#376 = EDGE_LOOP ( 'NONE', ( #326, #300 ) ) ;
#377 = DIRECTION ( 'NONE',  ( 1.000000000000000000, 0.000000000000000000, 0.000000000000000000 ) ) ;
#378 = FACE_OUTER_BOUND ( 'NONE', #113, .T. ) ;
#379 = VERTEX_POINT ( 'NONE', #21 ) ;
#380 = ORIENTED_EDGE ( 'NONE', *, *, #32, .T. ) ;
#381 = ORIENTED_EDGE ( 'NONE', *, *, #154, .T. ) ;
ENDSEC;
END-ISO-10303-21;
