ISO-10303-21;
HEADER;
FILE_DESCRIPTION (( 'STEP AP203' ),
    '1' );
FILE_NAME ('b643.STEP',
    '2022-07-08T15:02:25',
    ( '' ),
    ( '' ),
    'SwSTEP 2.0',
    'SolidWorks 2019',
    '' );
FILE_SCHEMA (( 'CONFIG_CONTROL_DESIGN' ));
ENDSEC;

DATA;
#1 = DIRECTION ( 'NONE',  ( -0.000000000000000000, -0.000000000000000000, -1.000000000000000000 ) ) ;
#2 = CC_DESIGN_SECURITY_CLASSIFICATION ( #238, ( #258 ) ) ;
#3 = CARTESIAN_POINT ( 'NONE',  ( 2.750000000000000000, 3.367778697655221012E-16, 132.0000000000000000 ) ) ;
#4 = DIRECTION ( 'NONE',  ( -0.000000000000000000, -0.000000000000000000, -1.000000000000000000 ) ) ;
#5 = PERSON_AND_ORGANIZATION ( #331, #326 ) ;
#6 = DIRECTION ( 'NONE',  ( -0.000000000000000000, -0.000000000000000000, -1.000000000000000000 ) ) ;
#7 = EDGE_CURVE ( 'NONE', #48, #110, #302, .T. ) ;
#8 = CYLINDRICAL_SURFACE ( 'NONE', #201, 10.00000000000000000 ) ;
#9 = AXIS2_PLACEMENT_3D ( 'NONE', #97, #91, #330 ) ;
#10 = CIRCLE ( 'NONE', #212, 6.500000000000000888 ) ;
#11 = CARTESIAN_POINT ( 'NONE',  ( -6.000000000000000888, 0.000000000000000000, 7.500000000000007105 ) ) ;
#12 = ADVANCED_FACE ( 'NONE', ( #84 ), #187, .F. ) ;
#13 = VERTEX_POINT ( 'NONE', #83 ) ;
#14 = EDGE_CURVE ( 'NONE', #198, #110, #112, .T. ) ;
#15 = CARTESIAN_POINT ( 'NONE',  ( 0.000000000000000000, 0.000000000000000000, 0.000000000000000000 ) ) ;
#16 = ORIENTED_EDGE ( 'NONE', *, *, #375, .T. ) ;
#17 = CIRCLE ( 'NONE', #96, 0.5000000000000004441 ) ;
#18 = PERSON_AND_ORGANIZATION ( #331, #326 ) ;
#19 = ORIENTED_EDGE ( 'NONE', *, *, #319, .T. ) ;
#20 = CARTESIAN_POINT ( 'NONE',  ( -2.750000000000000000, 0.000000000000000000, 132.0000000000000000 ) ) ;
#21 = ORIENTED_EDGE ( 'NONE', *, *, #341, .T. ) ;
#22 = EDGE_CURVE ( 'NONE', #220, #306, #17, .T. ) ;
#23 = ORIENTED_EDGE ( 'NONE', *, *, #139, .F. ) ;
#24 = CALENDAR_DATE ( 2022, 8, 7 ) ;
#25 = CC_DESIGN_APPROVAL ( #353, ( #258 ) ) ;
#26 = CARTESIAN_POINT ( 'NONE',  ( 0.000000000000000000, 0.000000000000000000, 132.0000000000000000 ) ) ;
#27 = DIRECTION ( 'NONE',  ( 0.000000000000000000, 0.000000000000000000, 1.000000000000000000 ) ) ;
#28 = EDGE_CURVE ( 'NONE', #47, #220, #181, .T. ) ;
#29 = CARTESIAN_POINT ( 'NONE',  ( 10.00000000000000000, 1.224646799147353256E-15, 0.000000000000000000 ) ) ;
#30 = VECTOR ( 'NONE', #4, 1000.000000000000000 ) ;
#31 = MANIFOLD_SOLID_BREP ( 'Odebrat vysunutím3', #336 ) ;
#32 = CYLINDRICAL_SURFACE ( 'NONE', #33, 2.750000000000000000 ) ;
#33 = AXIS2_PLACEMENT_3D ( 'NONE', #118, #232, #148 ) ;
#34 = EDGE_CURVE ( 'NONE', #202, #47, #260, .T. ) ;
#35 = CARTESIAN_POINT ( 'NONE',  ( 0.000000000000000000, 0.000000000000000000, 132.0000000000000000 ) ) ;
#36 = CARTESIAN_POINT ( 'NONE',  ( 6.000000000000000888, 7.347880794884120722E-16, 7.500000000000007105 ) ) ;
#37 = DIRECTION ( 'NONE',  ( 1.000000000000000000, 0.000000000000000000, 0.000000000000000000 ) ) ;
#38 = DIRECTION ( 'NONE',  ( 0.000000000000000000, 0.000000000000000000, 1.000000000000000000 ) ) ;
#39 = DATE_AND_TIME ( #154, #87 ) ;
#40 = FACE_OUTER_BOUND ( 'NONE', #348, .T. ) ;
#41 = APPROVAL_PERSON_ORGANIZATION ( #18, #353, #316 ) ;
#42 = ORIENTED_EDGE ( 'NONE', *, *, #247, .F. ) ;
#43 = ADVANCED_FACE ( 'NONE', ( #149 ), #266, .T. ) ;
#44 = APPLICATION_PROTOCOL_DEFINITION ( 'international standard', 'config_control_design', 1994, #253 ) ;
#45 = ORIENTED_EDGE ( 'NONE', *, *, #139, .T. ) ;
#46 = CALENDAR_DATE ( 2022, 8, 7 ) ;
#47 = VERTEX_POINT ( 'NONE', #173 ) ;
#48 = VERTEX_POINT ( 'NONE', #29 ) ;
#49 = AXIS2_PLACEMENT_3D ( 'NONE', #297, #145, #235 ) ;
#50 = COORDINATED_UNIVERSAL_TIME_OFFSET ( 1, 0, .AHEAD. ) ;
#51 = ORIENTED_EDGE ( 'NONE', *, *, #28, .T. ) ;
#52 = PERSON_AND_ORGANIZATION_ROLE ( 'classification_officer' ) ;
#53 = ORIENTED_EDGE ( 'NONE', *, *, #239, .T. ) ;
#54 = CARTESIAN_POINT ( 'NONE',  ( 0.000000000000000000, 0.000000000000000000, 132.0000000000000000 ) ) ;
#55 = DIRECTION ( 'NONE',  ( 0.000000000000000000, 0.000000000000000000, 1.000000000000000000 ) ) ;
#56 = DIRECTION ( 'NONE',  ( 0.000000000000000000, 0.000000000000000000, -1.000000000000000000 ) ) ;
#57 = CARTESIAN_POINT ( 'NONE',  ( 0.000000000000000000, 0.000000000000000000, 7.500000000000007105 ) ) ;
#58 = DIRECTION ( 'NONE',  ( 0.000000000000000000, 0.000000000000000000, 1.000000000000000000 ) ) ;
#59 = DIRECTION ( 'NONE',  ( 1.000000000000000000, 0.000000000000000000, -0.000000000000000000 ) ) ;
#60 = ADVANCED_FACE ( 'NONE', ( #299, #323 ), #211, .T. ) ;
#61 = CARTESIAN_POINT ( 'NONE',  ( 6.500000000000000888, 0.000000000000000000, 7.000000000000002665 ) ) ;
#62 = EDGE_CURVE ( 'NONE', #192, #164, #203, .T. ) ;
#63 = UNCERTAINTY_MEASURE_WITH_UNIT (LENGTH_MEASURE( 1.000000000000000082E-05 ), #219, 'distance_accuracy_value', 'NONE');
#64 = CIRCLE ( 'NONE', #194, 2.750000000000000000 ) ;
#65 = DIRECTION ( 'NONE',  ( 1.000000000000000000, 0.000000000000000000, 0.000000000000000000 ) ) ;
#66 = DIRECTION ( 'NONE',  ( 1.000000000000000000, 0.000000000000000000, -0.000000000000000000 ) ) ;
#67 = CARTESIAN_POINT ( 'NONE',  ( 0.000000000000000000, 0.000000000000000000, 132.0000000000000000 ) ) ;
#68 = EDGE_LOOP ( 'NONE', ( #228, #317, #51, #354 ) ) ;
#69 = LOCAL_TIME ( 17, 2, 25.00000000000000000, #287 ) ;
#70 = EDGE_LOOP ( 'NONE', ( #72, #98, #291, #371 ) ) ;
#71 = PERSON_AND_ORGANIZATION ( #331, #326 ) ;
#72 = ORIENTED_EDGE ( 'NONE', *, *, #22, .F. ) ;
#73 = APPROVAL_STATUS ( 'not_yet_approved' ) ;
#74 = ORIENTED_EDGE ( 'NONE', *, *, #127, .F. ) ;
#75 = CIRCLE ( 'NONE', #284, 6.000000000000000888 ) ;
#76 = AXIS2_PLACEMENT_3D ( 'NONE', #115, #293, #56 ) ;
#77 = AXIS2_PLACEMENT_3D ( 'NONE', #207, #377, #236 ) ;
#78 = ADVANCED_FACE ( 'NONE', ( #178 ), #32, .F. ) ;
#79 = EDGE_LOOP ( 'NONE', ( #205, #366 ) ) ;
#80 = DIRECTION ( 'NONE',  ( -0.000000000000000000, -0.000000000000000000, -1.000000000000000000 ) ) ;
#81 = DIRECTION ( 'NONE',  ( 0.000000000000000000, 0.000000000000000000, 1.000000000000000000 ) ) ;
#82 = ADVANCED_FACE ( 'NONE', ( #237 ), #380, .F. ) ;
#83 = CARTESIAN_POINT ( 'NONE',  ( -2.750000000000000000, 0.000000000000000000, 0.000000000000000000 ) ) ;
#84 = FACE_OUTER_BOUND ( 'NONE', #70, .T. ) ;
#85 = ADVANCED_FACE ( 'NONE', ( #113 ), #146, .F. ) ;
#86 = DIRECTION ( 'NONE',  ( 1.000000000000000000, 0.000000000000000000, 0.000000000000000000 ) ) ;
#87 = LOCAL_TIME ( 17, 2, 25.00000000000000000, #50 ) ;
#88 = AXIS2_PLACEMENT_3D ( 'NONE', #262, #55, #143 ) ;
#89 = FACE_OUTER_BOUND ( 'NONE', #309, .T. ) ;
#90 = CARTESIAN_POINT ( 'NONE',  ( -10.00000000000000000, 0.000000000000000000, 7.000000000000000000 ) ) ;
#91 = DIRECTION ( 'NONE',  ( 0.000000000000000000, 0.000000000000000000, 1.000000000000000000 ) ) ;
#92 = EDGE_CURVE ( 'NONE', #192, #220, #229, .T. ) ;
#93 = CC_DESIGN_APPROVAL ( #117, ( #269 ) ) ;
#94 = DIRECTION ( 'NONE',  ( -1.000000000000000000, 0.000000000000000000, 0.000000000000000000 ) ) ;
#95 = AXIS2_PLACEMENT_3D ( 'NONE', #26, #27, #86 ) ;
#96 = AXIS2_PLACEMENT_3D ( 'NONE', #209, #116, #233 ) ;
#97 = CARTESIAN_POINT ( 'NONE',  ( 0.000000000000000000, 0.000000000000000000, 0.000000000000000000 ) ) ;
#98 = ORIENTED_EDGE ( 'NONE', *, *, #92, .F. ) ;
#99 = ADVANCED_BREP_SHAPE_REPRESENTATION ( 'b643', ( #31, #216 ), #379 ) ;
#100 = ORIENTED_EDGE ( 'NONE', *, *, #341, .F. ) ;
#101 = DATE_AND_TIME ( #352, #69 ) ;
#102 = DATE_AND_TIME ( #46, #265 ) ;
#103 = EDGE_LOOP ( 'NONE', ( #365, #281, #21, #344 ) ) ;
#104 = APPROVAL_STATUS ( 'not_yet_approved' ) ;
#105 = DIRECTION ( 'NONE',  ( 0.000000000000000000, 0.000000000000000000, -1.000000000000000000 ) ) ;
#106 = EDGE_LOOP ( 'NONE', ( #42, #100 ) ) ;
#107 = CC_DESIGN_PERSON_AND_ORGANIZATION_ASSIGNMENT ( #5, #242, ( #258 ) ) ;
#108 = EDGE_LOOP ( 'NONE', ( #74, #200 ) ) ;
#109 = PERSON_AND_ORGANIZATION ( #331, #326 ) ;
#110 = VERTEX_POINT ( 'NONE', #355 ) ;
#111 = CC_DESIGN_PERSON_AND_ORGANIZATION_ASSIGNMENT ( #193, #337, ( #258 ) ) ;
#112 = LINE ( 'NONE', #267, #125 ) ;
#113 = FACE_OUTER_BOUND ( 'NONE', #129, .T. ) ;
#114 = CIRCLE ( 'NONE', #9, 10.00000000000000000 ) ;
#115 = CARTESIAN_POINT ( 'NONE',  ( 6.500000000000000888, 0.000000000000000000, 7.500000000000007105 ) ) ;
#116 = DIRECTION ( 'NONE',  ( 1.224646799147353207E-16, 1.000000000000000000, -0.000000000000000000 ) ) ;
#117 = APPROVAL ( #224, 'NEURÈENÝ' ) ;
#118 = CARTESIAN_POINT ( 'NONE',  ( 0.000000000000000000, 0.000000000000000000, 132.0000000000000000 ) ) ;
#119 = LOCAL_TIME ( 17, 2, 25.00000000000000000, #223 ) ;
#120 = CYLINDRICAL_SURFACE ( 'NONE', #358, 6.000000000000000888 ) ;
#121 = DIRECTION ( 'NONE',  ( 1.000000000000000000, 0.000000000000000000, 0.000000000000000000 ) ) ;
#122 = FACE_BOUND ( 'NONE', #108, .T. ) ;
#123 = AXIS2_PLACEMENT_3D ( 'NONE', #304, #188, #37 ) ;
#124 = DIRECTION ( 'NONE',  ( 0.000000000000000000, 0.000000000000000000, 1.000000000000000000 ) ) ;
#125 = VECTOR ( 'NONE', #80, 1000.000000000000000 ) ;
#126 = VECTOR ( 'NONE', #277, 1000.000000000000000 ) ;
#127 = EDGE_CURVE ( 'NONE', #283, #222, #298, .T. ) ;
#128 = DIRECTION ( 'NONE',  ( -0.000000000000000000, -0.000000000000000000, -1.000000000000000000 ) ) ;
#129 = EDGE_LOOP ( 'NONE', ( #196, #165, #312, #250 ) ) ;
#130 = CARTESIAN_POINT ( 'NONE',  ( 0.000000000000000000, 0.000000000000000000, 0.000000000000000000 ) ) ;
#131 = EDGE_LOOP ( 'NONE', ( #45, #133 ) ) ;
#132 = DATE_AND_TIME ( #162, #174 ) ;
#133 = ORIENTED_EDGE ( 'NONE', *, *, #261, .T. ) ;
#134 = AXIS2_PLACEMENT_3D ( 'NONE', #254, #225, #176 ) ;
#135 = CC_DESIGN_PERSON_AND_ORGANIZATION_ASSIGNMENT ( #372, #345, ( #328 ) ) ;
#136 = EDGE_LOOP ( 'NONE', ( #368, #19, #16, #374 ) ) ;
#137 =( NAMED_UNIT ( * ) PLANE_ANGLE_UNIT ( ) SI_UNIT ( $, .RADIAN. ) );
#138 = ORIENTED_EDGE ( 'NONE', *, *, #204, .T. ) ;
#139 = EDGE_CURVE ( 'NONE', #198, #172, #362, .T. ) ;
#140 = ORIENTED_EDGE ( 'NONE', *, *, #34, .F. ) ;
#141 = APPROVAL_PERSON_ORGANIZATION ( #71, #117, #197 ) ;
#142 = PRODUCT_RELATED_PRODUCT_CATEGORY ( 'detail', '', ( #328 ) ) ;
#143 = DIRECTION ( 'NONE',  ( 1.000000000000000000, 0.000000000000000000, -0.000000000000000000 ) ) ;
#144 = CARTESIAN_POINT ( 'NONE',  ( 0.000000000000000000, 0.000000000000000000, 7.500000000000007105 ) ) ;
#145 = DIRECTION ( 'NONE',  ( 0.000000000000000000, 0.000000000000000000, 1.000000000000000000 ) ) ;
#146 = TOROIDAL_SURFACE ( 'NONE', #77, 6.500000000000000888, 0.5000000000000000000 ) ;
#147 = AXIS2_PLACEMENT_3D ( 'NONE', #305, #38, #66 ) ;
#148 = DIRECTION ( 'NONE',  ( -1.000000000000000000, 0.000000000000000000, 0.000000000000000000 ) ) ;
#149 = FACE_OUTER_BOUND ( 'NONE', #68, .T. ) ;
#150 = EDGE_CURVE ( 'NONE', #220, #192, #245, .T. ) ;
#151 = CYLINDRICAL_SURFACE ( 'NONE', #335, 10.00000000000000000 ) ;
#152 = CIRCLE ( 'NONE', #363, 10.00000000000000000 ) ;
#153 = EDGE_CURVE ( 'NONE', #172, #48, #357, .T. ) ;
#154 = CALENDAR_DATE ( 2022, 8, 7 ) ;
#155 = CARTESIAN_POINT ( 'NONE',  ( 6.000000000000000888, 7.347880794884120722E-16, 132.0000000000000000 ) ) ;
#156 = DIRECTION ( 'NONE',  ( 0.000000000000000000, 0.000000000000000000, 1.000000000000000000 ) ) ;
#157 = CARTESIAN_POINT ( 'NONE',  ( 0.000000000000000000, 0.000000000000000000, 7.000000000000000000 ) ) ;
#158 = ADVANCED_FACE ( 'NONE', ( #243 ), #151, .T. ) ;
#159 = APPROVAL_DATE_TIME ( #39, #353 ) ;
#160 = CIRCLE ( 'NONE', #322, 6.500000000000000888 ) ;
#161 = CARTESIAN_POINT ( 'NONE',  ( 0.000000000000000000, 0.000000000000000000, 7.000000000000000000 ) ) ;
#162 = CALENDAR_DATE ( 2022, 8, 7 ) ;
#163 = APPLICATION_CONTEXT ( 'configuration controlled 3d designs of mechanical parts and assemblies' ) ;
#164 = VERTEX_POINT ( 'NONE', #61 ) ;
#165 = ORIENTED_EDGE ( 'NONE', *, *, #22, .T. ) ;
#166 = DIRECTION ( 'NONE',  ( 1.000000000000000000, 0.000000000000000000, 0.000000000000000000 ) ) ;
#167 = EDGE_LOOP ( 'NONE', ( #170, #339 ) ) ;
#168 = AXIS2_PLACEMENT_3D ( 'NONE', #144, #264, #321 ) ;
#169 = DIRECTION ( 'NONE',  ( 1.000000000000000000, 0.000000000000000000, 0.000000000000000000 ) ) ;
#170 = ORIENTED_EDGE ( 'NONE', *, *, #249, .T. ) ;
#171 = SHAPE_DEFINITION_REPRESENTATION ( #256, #99 ) ;
#172 = VERTEX_POINT ( 'NONE', #360 ) ;
#173 = CARTESIAN_POINT ( 'NONE',  ( -6.000000000000000888, 0.000000000000000000, 132.0000000000000000 ) ) ;
#174 = LOCAL_TIME ( 17, 2, 25.00000000000000000, #313 ) ;
#175 = CARTESIAN_POINT ( 'NONE',  ( 0.000000000000000000, 0.000000000000000000, 132.0000000000000000 ) ) ;
#176 = DIRECTION ( 'NONE',  ( 1.000000000000000000, 0.000000000000000000, 0.000000000000000000 ) ) ;
#177 = ADVANCED_FACE ( 'NONE', ( #275, #334 ), #270, .F. ) ;
#178 = FACE_OUTER_BOUND ( 'NONE', #103, .T. ) ;
#179 = AXIS2_PLACEMENT_3D ( 'NONE', #130, #282, #169 ) ;
#180 = CIRCLE ( 'NONE', #123, 2.750000000000000000 ) ;
#181 = LINE ( 'NONE', #295, #315 ) ;
#182 = EDGE_CURVE ( 'NONE', #222, #351, #332, .T. ) ;
#183 = DIRECTION ( 'NONE',  ( -1.000000000000000000, 0.000000000000000000, 0.000000000000000000 ) ) ;
#184 = EDGE_CURVE ( 'NONE', #306, #164, #160, .T. ) ;
#185 = DESIGN_CONTEXT ( 'detailed design', #253, 'design' ) ;
#186 = DIRECTION ( 'NONE',  ( -0.000000000000000000, -0.000000000000000000, -1.000000000000000000 ) ) ;
#187 = TOROIDAL_SURFACE ( 'NONE', #168, 6.500000000000000888, 0.5000000000000000000 ) ;
#188 = DIRECTION ( 'NONE',  ( -0.000000000000000000, -0.000000000000000000, -1.000000000000000000 ) ) ;
#189 = DIRECTION ( 'NONE',  ( 1.000000000000000000, 0.000000000000000000, 0.000000000000000000 ) ) ;
#190 = ADVANCED_FACE ( 'NONE', ( #40 ), #120, .T. ) ;
#191 = DIRECTION ( 'NONE',  ( -0.000000000000000000, -0.000000000000000000, -1.000000000000000000 ) ) ;
#192 = VERTEX_POINT ( 'NONE', #36 ) ;
#193 = PERSON_AND_ORGANIZATION ( #331, #326 ) ;
#194 = AXIS2_PLACEMENT_3D ( 'NONE', #67, #248, #166 ) ;
#195 = DIRECTION ( 'NONE',  ( 0.000000000000000000, 0.000000000000000000, 1.000000000000000000 ) ) ;
#196 = ORIENTED_EDGE ( 'NONE', *, *, #150, .F. ) ;
#197 = APPROVAL_ROLE ( '' ) ;
#198 = VERTEX_POINT ( 'NONE', #90 ) ;
#199 = COORDINATED_UNIVERSAL_TIME_OFFSET ( 1, 0, .AHEAD. ) ;
#200 = ORIENTED_EDGE ( 'NONE', *, *, #319, .F. ) ;
#201 = AXIS2_PLACEMENT_3D ( 'NONE', #240, #191, #183 ) ;
#202 = VERTEX_POINT ( 'NONE', #155 ) ;
#203 = CIRCLE ( 'NONE', #76, 0.5000000000000004441 ) ;
#204 = EDGE_CURVE ( 'NONE', #202, #192, #361, .T. ) ;
#205 = ORIENTED_EDGE ( 'NONE', *, *, #230, .F. ) ;
#206 = CC_DESIGN_PERSON_AND_ORGANIZATION_ASSIGNMENT ( #272, #52, ( #238 ) ) ;
#207 = CARTESIAN_POINT ( 'NONE',  ( 0.000000000000000000, 0.000000000000000000, 7.500000000000007105 ) ) ;
#208 = DIRECTION ( 'NONE',  ( 1.000000000000000000, 0.000000000000000000, 0.000000000000000000 ) ) ;
#209 = CARTESIAN_POINT ( 'NONE',  ( -6.500000000000000888, 7.960204194457796463E-16, 7.500000000000007105 ) ) ;
#210 = CARTESIAN_POINT ( 'NONE',  ( 0.000000000000000000, 0.000000000000000000, 7.000000000000000000 ) ) ;
#211 = PLANE ( 'NONE',  #88 ) ;
#212 = AXIS2_PLACEMENT_3D ( 'NONE', #274, #6, #189 ) ;
#213 = CARTESIAN_POINT ( 'NONE',  ( 0.000000000000000000, 0.000000000000000000, 132.0000000000000000 ) ) ;
#214 = CARTESIAN_POINT ( 'NONE',  ( 0.000000000000000000, 0.000000000000000000, 7.000000000000000000 ) ) ;
#215 = PLANE ( 'NONE',  #350 ) ;
#216 = AXIS2_PLACEMENT_3D ( 'NONE', #15, #195, #251 ) ;
#217 = DIRECTION ( 'NONE',  ( -1.000000000000000000, 0.000000000000000000, 0.000000000000000000 ) ) ;
#218 = CARTESIAN_POINT ( 'NONE',  ( -2.750000000000000000, 0.000000000000000000, 132.0000000000000000 ) ) ;
#219 =( LENGTH_UNIT ( ) NAMED_UNIT ( * ) SI_UNIT ( .MILLI., .METRE. ) );
#220 = VERTEX_POINT ( 'NONE', #11 ) ;
#221 = APPROVAL_DATE_TIME ( #343, #278 ) ;
#222 = VERTEX_POINT ( 'NONE', #241 ) ;
#223 = COORDINATED_UNIVERSAL_TIME_OFFSET ( 1, 0, .AHEAD. ) ;
#224 = APPROVAL_STATUS ( 'not_yet_approved' ) ;
#225 = DIRECTION ( 'NONE',  ( 0.000000000000000000, 0.000000000000000000, 1.000000000000000000 ) ) ;
#226 = ADVANCED_FACE ( 'NONE', ( #338 ), #8, .T. ) ;
#227 = AXIS2_PLACEMENT_3D ( 'NONE', #175, #81, #356 ) ;
#228 = ORIENTED_EDGE ( 'NONE', *, *, #204, .F. ) ;
#229 = CIRCLE ( 'NONE', #49, 6.000000000000000888 ) ;
#230 = EDGE_CURVE ( 'NONE', #110, #48, #114, .T. ) ;
#231 = ORIENTED_EDGE ( 'NONE', *, *, #34, .T. ) ;
#232 = DIRECTION ( 'NONE',  ( 0.000000000000000000, 0.000000000000000000, -1.000000000000000000 ) ) ;
#233 = DIRECTION ( 'NONE',  ( -1.000000000000000000, 1.224646799147351482E-16, 0.000000000000000000 ) ) ;
#234 = ADVANCED_FACE ( 'NONE', ( #122, #89 ), #215, .T. ) ;
#235 = DIRECTION ( 'NONE',  ( 1.000000000000000000, 0.000000000000000000, 0.000000000000000000 ) ) ;
#236 = DIRECTION ( 'NONE',  ( 1.000000000000000000, 0.000000000000000000, 0.000000000000000000 ) ) ;
#237 = FACE_OUTER_BOUND ( 'NONE', #136, .T. ) ;
#238 = SECURITY_CLASSIFICATION ( '', '', #279 ) ;
#239 = EDGE_CURVE ( 'NONE', #47, #202, #75, .T. ) ;
#240 = CARTESIAN_POINT ( 'NONE',  ( 0.000000000000000000, 0.000000000000000000, 7.000000000000000000 ) ) ;
#241 = CARTESIAN_POINT ( 'NONE',  ( 2.750000000000000000, 3.367778697655221012E-16, 132.0000000000000000 ) ) ;
#242 = PERSON_AND_ORGANIZATION_ROLE ( 'creator' ) ;
#243 = FACE_OUTER_BOUND ( 'NONE', #271, .T. ) ;
#244 = VECTOR ( 'NONE', #128, 1000.000000000000000 ) ;
#245 = CIRCLE ( 'NONE', #307, 6.000000000000000888 ) ;
#246 = DIRECTION ( 'NONE',  ( 1.000000000000000000, 0.000000000000000000, 0.000000000000000000 ) ) ;
#247 = EDGE_CURVE ( 'NONE', #13, #351, #180, .T. ) ;
#248 = DIRECTION ( 'NONE',  ( 0.000000000000000000, 0.000000000000000000, 1.000000000000000000 ) ) ;
#249 = EDGE_CURVE ( 'NONE', #164, #306, #10, .T. ) ;
#250 = ORIENTED_EDGE ( 'NONE', *, *, #62, .F. ) ;
#251 = DIRECTION ( 'NONE',  ( 1.000000000000000000, 0.000000000000000000, 0.000000000000000000 ) ) ;
#252 = ORIENTED_EDGE ( 'NONE', *, *, #230, .T. ) ;
#253 = APPLICATION_CONTEXT ( 'configuration controlled 3d designs of mechanical parts and assemblies' ) ;
#254 = CARTESIAN_POINT ( 'NONE',  ( 0.000000000000000000, 0.000000000000000000, 0.000000000000000000 ) ) ;
#255 =( NAMED_UNIT ( * ) SI_UNIT ( $, .STERADIAN. ) SOLID_ANGLE_UNIT ( ) );
#256 = PRODUCT_DEFINITION_SHAPE ( 'NONE', 'NONE',  #269 ) ;
#257 = ORIENTED_EDGE ( 'NONE', *, *, #153, .T. ) ;
#258 = PRODUCT_DEFINITION_FORMATION_WITH_SPECIFIED_SOURCE ( 'LIBOVOLNÝ', '', #328, .NOT_KNOWN. ) ;
#259 = EDGE_LOOP ( 'NONE', ( #286, #257, #373, #376 ) ) ;
#260 = CIRCLE ( 'NONE', #95, 6.000000000000000888 ) ;
#261 = EDGE_CURVE ( 'NONE', #172, #198, #152, .T. ) ;
#262 = CARTESIAN_POINT ( 'NONE',  ( 0.000000000000000000, 0.000000000000000000, 7.000000000000000000 ) ) ;
#263 = CC_DESIGN_DATE_AND_TIME_ASSIGNMENT ( #101, #318, ( #238 ) ) ;
#264 = DIRECTION ( 'NONE',  ( 0.000000000000000000, 0.000000000000000000, 1.000000000000000000 ) ) ;
#265 = LOCAL_TIME ( 17, 2, 25.00000000000000000, #199 ) ;
#266 = CYLINDRICAL_SURFACE ( 'NONE', #329, 6.000000000000000888 ) ;
#267 = CARTESIAN_POINT ( 'NONE',  ( -10.00000000000000000, 0.000000000000000000, 7.000000000000000000 ) ) ;
#268 = DIRECTION ( 'NONE',  ( -0.000000000000000000, -0.000000000000000000, -1.000000000000000000 ) ) ;
#269 = PRODUCT_DEFINITION ( 'NEZNÁMÝ', '', #258, #185 ) ;
#270 = PLANE ( 'NONE',  #147 ) ;
#271 = EDGE_LOOP ( 'NONE', ( #346, #23, #320, #252 ) ) ;
#272 = PERSON_AND_ORGANIZATION ( #331, #326 ) ;
#273 = CARTESIAN_POINT ( 'NONE',  ( 6.000000000000000888, 7.347880794884120722E-16, 132.0000000000000000 ) ) ;
#274 = CARTESIAN_POINT ( 'NONE',  ( 0.000000000000000000, 0.000000000000000000, 7.000000000000000000 ) ) ;
#275 = FACE_BOUND ( 'NONE', #106, .T. ) ;
#276 = VECTOR ( 'NONE', #105, 1000.000000000000000 ) ;
#277 = DIRECTION ( 'NONE',  ( 0.000000000000000000, 0.000000000000000000, -1.000000000000000000 ) ) ;
#278 = APPROVAL ( #104, 'NEURÈENÝ' ) ;
#279 = SECURITY_CLASSIFICATION_LEVEL ( 'unclassified' ) ;
#280 = APPROVAL_DATE_TIME ( #132, #117 ) ;
#281 = ORIENTED_EDGE ( 'NONE', *, *, #182, .T. ) ;
#282 = DIRECTION ( 'NONE',  ( -0.000000000000000000, -0.000000000000000000, -1.000000000000000000 ) ) ;
#283 = VERTEX_POINT ( 'NONE', #218 ) ;
#284 = AXIS2_PLACEMENT_3D ( 'NONE', #35, #303, #65 ) ;
#285 = APPLICATION_PROTOCOL_DEFINITION ( 'international standard', 'config_control_design', 1994, #163 ) ;
#286 = ORIENTED_EDGE ( 'NONE', *, *, #261, .F. ) ;
#287 = COORDINATED_UNIVERSAL_TIME_OFFSET ( 1, 0, .AHEAD. ) ;
#288 = LINE ( 'NONE', #20, #276 ) ;
#289 = CC_DESIGN_PERSON_AND_ORGANIZATION_ASSIGNMENT ( #370, #311, ( #269 ) ) ;
#290 = ORIENTED_EDGE ( 'NONE', *, *, #28, .F. ) ;
#291 = ORIENTED_EDGE ( 'NONE', *, *, #62, .T. ) ;
#292 = APPROVAL_PERSON_ORGANIZATION ( #109, #278, #310 ) ;
#293 = DIRECTION ( 'NONE',  ( 0.000000000000000000, -1.000000000000000000, 0.000000000000000000 ) ) ;
#294 = CARTESIAN_POINT ( 'NONE',  ( 0.000000000000000000, 0.000000000000000000, 132.0000000000000000 ) ) ;
#295 = CARTESIAN_POINT ( 'NONE',  ( -6.000000000000000888, 0.000000000000000000, 132.0000000000000000 ) ) ;
#296 = AXIS2_PLACEMENT_3D ( 'NONE', #54, #327, #378 ) ;
#297 = CARTESIAN_POINT ( 'NONE',  ( 0.000000000000000000, 0.000000000000000000, 7.500000000000007105 ) ) ;
#298 = CIRCLE ( 'NONE', #227, 2.750000000000000000 ) ;
#299 = FACE_BOUND ( 'NONE', #167, .T. ) ;
#300 = DIRECTION ( 'NONE',  ( -0.000000000000000000, -0.000000000000000000, -1.000000000000000000 ) ) ;
#301 = CARTESIAN_POINT ( 'NONE',  ( 0.000000000000000000, 0.000000000000000000, 132.0000000000000000 ) ) ;
#302 = CIRCLE ( 'NONE', #134, 10.00000000000000000 ) ;
#303 = DIRECTION ( 'NONE',  ( 0.000000000000000000, 0.000000000000000000, 1.000000000000000000 ) ) ;
#304 = CARTESIAN_POINT ( 'NONE',  ( 0.000000000000000000, 0.000000000000000000, 0.000000000000000000 ) ) ;
#305 = CARTESIAN_POINT ( 'NONE',  ( 0.000000000000000000, 0.000000000000000000, 0.000000000000000000 ) ) ;
#306 = VERTEX_POINT ( 'NONE', #340 ) ;
#307 = AXIS2_PLACEMENT_3D ( 'NONE', #57, #58, #208 ) ;
#308 = MECHANICAL_CONTEXT ( 'NONE', #163, 'mechanical' ) ;
#309 = EDGE_LOOP ( 'NONE', ( #53, #231 ) ) ;
#310 = APPROVAL_ROLE ( '' ) ;
#311 = PERSON_AND_ORGANIZATION_ROLE ( 'creator' ) ;
#312 = ORIENTED_EDGE ( 'NONE', *, *, #249, .F. ) ;
#313 = COORDINATED_UNIVERSAL_TIME_OFFSET ( 1, 0, .AHEAD. ) ;
#314 = ORIENTED_EDGE ( 'NONE', *, *, #92, .T. ) ;
#315 = VECTOR ( 'NONE', #268, 1000.000000000000000 ) ;
#316 = APPROVAL_ROLE ( '' ) ;
#317 = ORIENTED_EDGE ( 'NONE', *, *, #239, .F. ) ;
#318 = DATE_TIME_ROLE ( 'classification_date' ) ;
#319 = EDGE_CURVE ( 'NONE', #222, #283, #64, .T. ) ;
#320 = ORIENTED_EDGE ( 'NONE', *, *, #14, .T. ) ;
#321 = DIRECTION ( 'NONE',  ( 1.000000000000000000, 0.000000000000000000, 0.000000000000000000 ) ) ;
#322 = AXIS2_PLACEMENT_3D ( 'NONE', #161, #186, #121 ) ;
#323 = FACE_OUTER_BOUND ( 'NONE', #131, .T. ) ;
#324 = DIRECTION ( 'NONE',  ( -1.000000000000000000, 0.000000000000000000, 0.000000000000000000 ) ) ;
#325 = DIRECTION ( 'NONE',  ( 1.000000000000000000, 0.000000000000000000, 0.000000000000000000 ) ) ;
#326 = ORGANIZATION ( 'NEURÈENÝ', 'NEURÈENÝ', '' ) ;
#327 = DIRECTION ( 'NONE',  ( 0.000000000000000000, 0.000000000000000000, -1.000000000000000000 ) ) ;
#328 = PRODUCT ( 'b643', 'b643', '', ( #308 ) ) ;
#329 = AXIS2_PLACEMENT_3D ( 'NONE', #294, #1, #324 ) ;
#330 = DIRECTION ( 'NONE',  ( 1.000000000000000000, 0.000000000000000000, 0.000000000000000000 ) ) ;
#331 = PERSON ( 'NEURÈENÝ', 'NEURÈENÝ', 'NEURÈENÝ', ('NEURÈENÝ'), ('NEURÈENÝ'), ('NEURÈENÝ') ) ;
#332 = LINE ( 'NONE', #3, #126 ) ;
#333 = CC_DESIGN_DATE_AND_TIME_ASSIGNMENT ( #102, #347, ( #269 ) ) ;
#334 = FACE_OUTER_BOUND ( 'NONE', #79, .T. ) ;
#335 = AXIS2_PLACEMENT_3D ( 'NONE', #214, #300, #94 ) ;
#336 = CLOSED_SHELL ( 'NONE', ( #78, #85, #190, #226, #158, #60, #177, #43, #234, #12, #82 ) ) ;
#337 = PERSON_AND_ORGANIZATION_ROLE ( 'design_supplier' ) ;
#338 = FACE_OUTER_BOUND ( 'NONE', #259, .T. ) ;
#339 = ORIENTED_EDGE ( 'NONE', *, *, #184, .T. ) ;
#340 = CARTESIAN_POINT ( 'NONE',  ( -6.500000000000000888, 7.960204194457796463E-16, 7.000000000000002665 ) ) ;
#341 = EDGE_CURVE ( 'NONE', #351, #13, #349, .T. ) ;
#342 = CC_DESIGN_APPROVAL ( #278, ( #238 ) ) ;
#343 = DATE_AND_TIME ( #24, #119 ) ;
#344 = ORIENTED_EDGE ( 'NONE', *, *, #375, .F. ) ;
#345 = PERSON_AND_ORGANIZATION_ROLE ( 'design_owner' ) ;
#346 = ORIENTED_EDGE ( 'NONE', *, *, #153, .F. ) ;
#347 = DATE_TIME_ROLE ( 'creation_date' ) ;
#348 = EDGE_LOOP ( 'NONE', ( #140, #138, #314, #290 ) ) ;
#349 = CIRCLE ( 'NONE', #179, 2.750000000000000000 ) ;
#350 = AXIS2_PLACEMENT_3D ( 'NONE', #213, #156, #59 ) ;
#351 = VERTEX_POINT ( 'NONE', #367 ) ;
#352 = CALENDAR_DATE ( 2022, 8, 7 ) ;
#353 = APPROVAL ( #73, 'NEURÈENÝ' ) ;
#354 = ORIENTED_EDGE ( 'NONE', *, *, #150, .T. ) ;
#355 = CARTESIAN_POINT ( 'NONE',  ( -10.00000000000000000, 0.000000000000000000, 0.000000000000000000 ) ) ;
#356 = DIRECTION ( 'NONE',  ( 1.000000000000000000, 0.000000000000000000, 0.000000000000000000 ) ) ;
#357 = LINE ( 'NONE', #364, #244 ) ;
#358 = AXIS2_PLACEMENT_3D ( 'NONE', #301, #359, #217 ) ;
#359 = DIRECTION ( 'NONE',  ( -0.000000000000000000, -0.000000000000000000, -1.000000000000000000 ) ) ;
#360 = CARTESIAN_POINT ( 'NONE',  ( 10.00000000000000000, 1.224646799147353256E-15, 7.000000000000000000 ) ) ;
#361 = LINE ( 'NONE', #273, #30 ) ;
#362 = CIRCLE ( 'NONE', #369, 10.00000000000000000 ) ;
#363 = AXIS2_PLACEMENT_3D ( 'NONE', #157, #124, #246 ) ;
#364 = CARTESIAN_POINT ( 'NONE',  ( 10.00000000000000000, 1.224646799147353256E-15, 7.000000000000000000 ) ) ;
#365 = ORIENTED_EDGE ( 'NONE', *, *, #127, .T. ) ;
#366 = ORIENTED_EDGE ( 'NONE', *, *, #7, .F. ) ;
#367 = CARTESIAN_POINT ( 'NONE',  ( 2.750000000000000000, 3.367778697655221012E-16, 0.000000000000000000 ) ) ;
#368 = ORIENTED_EDGE ( 'NONE', *, *, #182, .F. ) ;
#369 = AXIS2_PLACEMENT_3D ( 'NONE', #210, #381, #325 ) ;
#370 = PERSON_AND_ORGANIZATION ( #331, #326 ) ;
#371 = ORIENTED_EDGE ( 'NONE', *, *, #184, .F. ) ;
#372 = PERSON_AND_ORGANIZATION ( #331, #326 ) ;
#373 = ORIENTED_EDGE ( 'NONE', *, *, #7, .T. ) ;
#374 = ORIENTED_EDGE ( 'NONE', *, *, #247, .T. ) ;
#375 = EDGE_CURVE ( 'NONE', #283, #13, #288, .T. ) ;
#376 = ORIENTED_EDGE ( 'NONE', *, *, #14, .F. ) ;
#377 = DIRECTION ( 'NONE',  ( 0.000000000000000000, 0.000000000000000000, 1.000000000000000000 ) ) ;
#378 = DIRECTION ( 'NONE',  ( -1.000000000000000000, 0.000000000000000000, 0.000000000000000000 ) ) ;
#379 =( GEOMETRIC_REPRESENTATION_CONTEXT ( 3 ) GLOBAL_UNCERTAINTY_ASSIGNED_CONTEXT ( ( #63 ) ) GLOBAL_UNIT_ASSIGNED_CONTEXT ( ( #219, #137, #255 ) ) REPRESENTATION_CONTEXT ( 'NONE', 'WORKASPACE' ) );
#380 = CYLINDRICAL_SURFACE ( 'NONE', #296, 2.750000000000000000 ) ;
#381 = DIRECTION ( 'NONE',  ( 0.000000000000000000, 0.000000000000000000, 1.000000000000000000 ) ) ;
ENDSEC;
END-ISO-10303-21;
