ISO-10303-21;
HEADER;
FILE_DESCRIPTION (( 'STEP AP203' ),
    '1' );
FILE_NAME ('d492.STEP',
    '2022-07-08T15:22:53',
    ( '' ),
    ( '' ),
    'SwSTEP 2.0',
    'SolidWorks 2019',
    '' );
FILE_SCHEMA (( 'CONFIG_CONTROL_DESIGN' ));
ENDSEC;

DATA;
#1 = APPROVAL_STATUS ( 'not_yet_approved' ) ;
#2 = AXIS2_PLACEMENT_3D ( 'NONE', #362, #355, #215 ) ;
#3 = VERTEX_POINT ( 'NONE', #174 ) ;
#4 = PERSON_AND_ORGANIZATION ( #352, #202 ) ;
#5 = FACE_OUTER_BOUND ( 'NONE', #305, .T. ) ;
#6 = DATE_AND_TIME ( #293, #194 ) ;
#7 = DIRECTION ( 'NONE',  ( 0.000000000000000000, 0.000000000000000000, 1.000000000000000000 ) ) ;
#8 = APPROVAL ( #1, 'NEURÈENÝ' ) ;
#9 = PERSON_AND_ORGANIZATION ( #352, #202 ) ;
#10 = CARTESIAN_POINT ( 'NONE',  ( 4.000000000000000000, 4.898587196589412829E-16, 505.0000000000000000 ) ) ;
#11 = CIRCLE ( 'NONE', #45, 4.000000000000000000 ) ;
#12 = PLANE ( 'NONE',  #90 ) ;
#13 = CC_DESIGN_DATE_AND_TIME_ASSIGNMENT ( #6, #114, ( #104 ) ) ;
#14 = EDGE_CURVE ( 'NONE', #132, #3, #102, .T. ) ;
#15 = CARTESIAN_POINT ( 'NONE',  ( 0.000000000000000000, 0.000000000000000000, 5.000000000000000000 ) ) ;
#16 = DIRECTION ( 'NONE',  ( -0.000000000000000000, -0.000000000000000000, -1.000000000000000000 ) ) ;
#17 = AXIS2_PLACEMENT_3D ( 'NONE', #126, #101, #39 ) ;
#18 = ORIENTED_EDGE ( 'NONE', *, *, #53, .T. ) ;
#19 = PRODUCT_DEFINITION ( 'NEZNÁMÝ', '', #133, #73 ) ;
#20 = VECTOR ( 'NONE', #310, 1000.000000000000000 ) ;
#21 = APPROVAL_PERSON_ORGANIZATION ( #178, #335, #286 ) ;
#22 = CARTESIAN_POINT ( 'NONE',  ( -4.000000000000000000, 0.000000000000000000, 505.0000000000000000 ) ) ;
#23 = DIRECTION ( 'NONE',  ( -1.000000000000000000, 0.000000000000000000, 0.000000000000000000 ) ) ;
#24 = ORIENTED_EDGE ( 'NONE', *, *, #53, .F. ) ;
#25 = DIRECTION ( 'NONE',  ( -0.000000000000000000, -0.000000000000000000, -1.000000000000000000 ) ) ;
#26 = ORIENTED_EDGE ( 'NONE', *, *, #41, .F. ) ;
#27 = DIRECTION ( 'NONE',  ( -1.000000000000000000, 0.000000000000000000, 0.000000000000000000 ) ) ;
#28 = ORIENTED_EDGE ( 'NONE', *, *, #145, .T. ) ;
#29 = VERTEX_POINT ( 'NONE', #224 ) ;
#30 = EDGE_CURVE ( 'NONE', #316, #32, #139, .T. ) ;
#31 =( NAMED_UNIT ( * ) PLANE_ANGLE_UNIT ( ) SI_UNIT ( $, .RADIAN. ) );
#32 = VERTEX_POINT ( 'NONE', #196 ) ;
#33 =( NAMED_UNIT ( * ) SI_UNIT ( $, .STERADIAN. ) SOLID_ANGLE_UNIT ( ) );
#34 = TOROIDAL_SURFACE ( 'NONE', #214, 4.500000000000000888, 0.5000000000000000000 ) ;
#35 = DIRECTION ( 'NONE',  ( -1.000000000000000000, 1.224646799147351482E-16, 0.000000000000000000 ) ) ;
#36 = DIRECTION ( 'NONE',  ( 1.000000000000000000, 0.000000000000000000, 0.000000000000000000 ) ) ;
#37 = APPLICATION_PROTOCOL_DEFINITION ( 'international standard', 'config_control_design', 1994, #322 ) ;
#38 = DIRECTION ( 'NONE',  ( 0.000000000000000000, 0.000000000000000000, -1.000000000000000000 ) ) ;
#39 = DIRECTION ( 'NONE',  ( -1.000000000000000000, 0.000000000000000000, 0.000000000000000000 ) ) ;
#40 = CARTESIAN_POINT ( 'NONE',  ( 0.000000000000000000, 0.000000000000000000, 505.0000000000000000 ) ) ;
#41 = EDGE_CURVE ( 'NONE', #32, #252, #311, .T. ) ;
#42 = CYLINDRICAL_SURFACE ( 'NONE', #49, 7.000000000000000000 ) ;
#43 = ADVANCED_FACE ( 'NONE', ( #165 ), #34, .F. ) ;
#44 = ORIENTED_EDGE ( 'NONE', *, *, #179, .F. ) ;
#45 = AXIS2_PLACEMENT_3D ( 'NONE', #312, #241, #134 ) ;
#46 = ORIENTED_EDGE ( 'NONE', *, *, #356, .T. ) ;
#47 = CARTESIAN_POINT ( 'NONE',  ( 7.000000000000000000, 8.572527594031473190E-16, 5.000000000000000000 ) ) ;
#48 = PRODUCT_RELATED_PRODUCT_CATEGORY ( 'detail', '', ( #74 ) ) ;
#49 = AXIS2_PLACEMENT_3D ( 'NONE', #106, #16, #278 ) ;
#50 = DIRECTION ( 'NONE',  ( -0.000000000000000000, -0.000000000000000000, -1.000000000000000000 ) ) ;
#51 = ORIENTED_EDGE ( 'NONE', *, *, #91, .T. ) ;
#52 = CARTESIAN_POINT ( 'NONE',  ( 0.000000000000000000, 0.000000000000000000, 505.0000000000000000 ) ) ;
#53 = EDGE_CURVE ( 'NONE', #309, #148, #116, .T. ) ;
#54 = DIRECTION ( 'NONE',  ( 0.000000000000000000, 0.000000000000000000, -1.000000000000000000 ) ) ;
#55 = MANIFOLD_SOLID_BREP ( 'Odebrat vysunutím3', #302 ) ;
#56 = DIRECTION ( 'NONE',  ( 0.000000000000000000, 0.000000000000000000, 1.000000000000000000 ) ) ;
#57 = CARTESIAN_POINT ( 'NONE',  ( -2.250000000000000000, 0.000000000000000000, 505.0000000000000000 ) ) ;
#58 = DATE_AND_TIME ( #323, #326 ) ;
#59 = AXIS2_PLACEMENT_3D ( 'NONE', #111, #251, #377 ) ;
#60 = EDGE_LOOP ( 'NONE', ( #351, #105 ) ) ;
#61 = CARTESIAN_POINT ( 'NONE',  ( 0.000000000000000000, 0.000000000000000000, 0.000000000000000000 ) ) ;
#62 = ORIENTED_EDGE ( 'NONE', *, *, #263, .F. ) ;
#63 = MECHANICAL_CONTEXT ( 'NONE', #322, 'mechanical' ) ;
#64 = ORIENTED_EDGE ( 'NONE', *, *, #319, .T. ) ;
#65 = CC_DESIGN_PERSON_AND_ORGANIZATION_ASSIGNMENT ( #66, #267, ( #133 ) ) ;
#66 = PERSON_AND_ORGANIZATION ( #352, #202 ) ;
#67 = AXIS2_PLACEMENT_3D ( 'NONE', #187, #271, #38 ) ;
#68 = CC_DESIGN_APPROVAL ( #335, ( #19 ) ) ;
#69 = DIRECTION ( 'NONE',  ( 1.000000000000000000, 0.000000000000000000, 0.000000000000000000 ) ) ;
#70 =( LENGTH_UNIT ( ) NAMED_UNIT ( * ) SI_UNIT ( .MILLI., .METRE. ) );
#71 = FACE_OUTER_BOUND ( 'NONE', #242, .T. ) ;
#72 = CARTESIAN_POINT ( 'NONE',  ( 0.000000000000000000, 0.000000000000000000, 505.0000000000000000 ) ) ;
#73 = DESIGN_CONTEXT ( 'detailed design', #186, 'design' ) ;
#74 = PRODUCT ( 'd492', 'd492', '', ( #63 ) ) ;
#75 = AXIS2_PLACEMENT_3D ( 'NONE', #153, #98, #265 ) ;
#76 = DIRECTION ( 'NONE',  ( 1.000000000000000000, 0.000000000000000000, -0.000000000000000000 ) ) ;
#77 = DIRECTION ( 'NONE',  ( 1.000000000000000000, 0.000000000000000000, 0.000000000000000000 ) ) ;
#78 = CARTESIAN_POINT ( 'NONE',  ( 0.000000000000000000, 0.000000000000000000, 0.000000000000000000 ) ) ;
#79 = CIRCLE ( 'NONE', #325, 2.250000000000000000 ) ;
#80 = FACE_OUTER_BOUND ( 'NONE', #231, .T. ) ;
#81 = ORIENTED_EDGE ( 'NONE', *, *, #207, .F. ) ;
#82 = CIRCLE ( 'NONE', #343, 2.250000000000000000 ) ;
#83 = DIRECTION ( 'NONE',  ( -0.000000000000000000, -0.000000000000000000, -1.000000000000000000 ) ) ;
#84 = DIRECTION ( 'NONE',  ( 0.000000000000000000, 0.000000000000000000, 1.000000000000000000 ) ) ;
#85 = LINE ( 'NONE', #246, #209 ) ;
#86 = ORIENTED_EDGE ( 'NONE', *, *, #110, .T. ) ;
#87 = CARTESIAN_POINT ( 'NONE',  ( -7.000000000000000000, 0.000000000000000000, 5.000000000000000000 ) ) ;
#88 = ORIENTED_EDGE ( 'NONE', *, *, #147, .F. ) ;
#89 = AXIS2_PLACEMENT_3D ( 'NONE', #366, #164, #141 ) ;
#90 = AXIS2_PLACEMENT_3D ( 'NONE', #103, #296, #76 ) ;
#91 = EDGE_CURVE ( 'NONE', #112, #3, #128, .T. ) ;
#92 = ORIENTED_EDGE ( 'NONE', *, *, #345, .F. ) ;
#93 = ORIENTED_EDGE ( 'NONE', *, *, #237, .F. ) ;
#94 = EDGE_CURVE ( 'NONE', #130, #112, #240, .T. ) ;
#95 = COORDINATED_UNIVERSAL_TIME_OFFSET ( 1, 0, .AHEAD. ) ;
#96 = DIRECTION ( 'NONE',  ( 1.000000000000000000, 0.000000000000000000, -0.000000000000000000 ) ) ;
#97 = CALENDAR_DATE ( 2022, 8, 7 ) ;
#98 = DIRECTION ( 'NONE',  ( 0.000000000000000000, 0.000000000000000000, 1.000000000000000000 ) ) ;
#99 = APPROVAL_STATUS ( 'not_yet_approved' ) ;
#100 = DIRECTION ( 'NONE',  ( 0.000000000000000000, 0.000000000000000000, -1.000000000000000000 ) ) ;
#101 = DIRECTION ( 'NONE',  ( 0.000000000000000000, 0.000000000000000000, -1.000000000000000000 ) ) ;
#102 = CIRCLE ( 'NONE', #223, 0.5000000000000004441 ) ;
#103 = CARTESIAN_POINT ( 'NONE',  ( 0.000000000000000000, 0.000000000000000000, 0.000000000000000000 ) ) ;
#104 = SECURITY_CLASSIFICATION ( '', '', #264 ) ;
#105 = ORIENTED_EDGE ( 'NONE', *, *, #30, .F. ) ;
#106 = CARTESIAN_POINT ( 'NONE',  ( 0.000000000000000000, 0.000000000000000000, 5.000000000000000000 ) ) ;
#107 = CARTESIAN_POINT ( 'NONE',  ( -7.000000000000000000, 0.000000000000000000, 5.000000000000000000 ) ) ;
#108 = ORIENTED_EDGE ( 'NONE', *, *, #328, .T. ) ;
#109 = AXIS2_PLACEMENT_3D ( 'NONE', #282, #56, #369 ) ;
#110 = EDGE_CURVE ( 'NONE', #32, #316, #274, .T. ) ;
#111 = CARTESIAN_POINT ( 'NONE',  ( 0.000000000000000000, 0.000000000000000000, 0.000000000000000000 ) ) ;
#112 = VERTEX_POINT ( 'NONE', #177 ) ;
#113 = ORIENTED_EDGE ( 'NONE', *, *, #30, .T. ) ;
#114 = DATE_TIME_ROLE ( 'classification_date' ) ;
#115 = ORIENTED_EDGE ( 'NONE', *, *, #261, .T. ) ;
#116 = CIRCLE ( 'NONE', #159, 4.000000000000000000 ) ;
#117 = ORIENTED_EDGE ( 'NONE', *, *, #270, .T. ) ;
#118 = PERSON_AND_ORGANIZATION_ROLE ( 'creator' ) ;
#119 = CARTESIAN_POINT ( 'NONE',  ( 0.000000000000000000, 0.000000000000000000, 505.0000000000000000 ) ) ;
#120 = APPROVAL_ROLE ( '' ) ;
#121 = CARTESIAN_POINT ( 'NONE',  ( 0.000000000000000000, 0.000000000000000000, 5.500000000000005329 ) ) ;
#122 = APPROVAL_STATUS ( 'not_yet_approved' ) ;
#123 = AXIS2_PLACEMENT_3D ( 'NONE', #15, #213, #334 ) ;
#124 = CARTESIAN_POINT ( 'NONE',  ( 0.000000000000000000, 0.000000000000000000, 5.000000000000000000 ) ) ;
#125 = FACE_OUTER_BOUND ( 'NONE', #228, .T. ) ;
#126 = CARTESIAN_POINT ( 'NONE',  ( 0.000000000000000000, 0.000000000000000000, 505.0000000000000000 ) ) ;
#127 = CC_DESIGN_PERSON_AND_ORGANIZATION_ASSIGNMENT ( #354, #154, ( #133 ) ) ;
#128 = CIRCLE ( 'NONE', #175, 4.500000000000000888 ) ;
#129 = DIRECTION ( 'NONE',  ( 1.000000000000000000, 0.000000000000000000, 0.000000000000000000 ) ) ;
#130 = VERTEX_POINT ( 'NONE', #300 ) ;
#131 = AXIS2_PLACEMENT_3D ( 'NONE', #232, #100, #155 ) ;
#132 = VERTEX_POINT ( 'NONE', #360 ) ;
#133 = PRODUCT_DEFINITION_FORMATION_WITH_SPECIFIED_SOURCE ( 'LIBOVOLNÝ', '', #74, .NOT_KNOWN. ) ;
#134 = DIRECTION ( 'NONE',  ( 1.000000000000000000, 0.000000000000000000, 0.000000000000000000 ) ) ;
#135 = CARTESIAN_POINT ( 'NONE',  ( 2.250000000000000000, 2.755455298081544285E-16, 505.0000000000000000 ) ) ;
#136 = DIRECTION ( 'NONE',  ( -0.000000000000000000, -0.000000000000000000, -1.000000000000000000 ) ) ;
#137 = CARTESIAN_POINT ( 'NONE',  ( -4.500000000000000888, 5.510910596163089556E-16, 5.500000000000005329 ) ) ;
#138 = ADVANCED_FACE ( 'NONE', ( #330 ), #180, .F. ) ;
#139 = CIRCLE ( 'NONE', #257, 2.250000000000000000 ) ;
#140 = CC_DESIGN_APPROVAL ( #8, ( #133 ) ) ;
#141 = DIRECTION ( 'NONE',  ( 1.000000000000000000, 0.000000000000000000, 0.000000000000000000 ) ) ;
#142 = ORIENTED_EDGE ( 'NONE', *, *, #94, .F. ) ;
#143 = DATE_AND_TIME ( #320, #304 ) ;
#144 = VERTEX_POINT ( 'NONE', #182 ) ;
#145 = EDGE_CURVE ( 'NONE', #3, #112, #375, .T. ) ;
#146 = PERSON_AND_ORGANIZATION_ROLE ( 'design_owner' ) ;
#147 = EDGE_CURVE ( 'NONE', #349, #344, #284, .T. ) ;
#148 = VERTEX_POINT ( 'NONE', #10 ) ;
#149 = AXIS2_PLACEMENT_3D ( 'NONE', #222, #306, #23 ) ;
#150 = CC_DESIGN_APPROVAL ( #298, ( #104 ) ) ;
#151 = DIRECTION ( 'NONE',  ( 0.000000000000000000, 0.000000000000000000, 1.000000000000000000 ) ) ;
#152 = PERSON_AND_ORGANIZATION ( #352, #202 ) ;
#153 = CARTESIAN_POINT ( 'NONE',  ( 0.000000000000000000, 0.000000000000000000, 5.000000000000000000 ) ) ;
#154 = PERSON_AND_ORGANIZATION_ROLE ( 'creator' ) ;
#155 = DIRECTION ( 'NONE',  ( -1.000000000000000000, 0.000000000000000000, 0.000000000000000000 ) ) ;
#156 = DIRECTION ( 'NONE',  ( 0.000000000000000000, 0.000000000000000000, 1.000000000000000000 ) ) ;
#157 = DIRECTION ( 'NONE',  ( 1.000000000000000000, 0.000000000000000000, 0.000000000000000000 ) ) ;
#158 = FACE_OUTER_BOUND ( 'NONE', #256, .T. ) ;
#159 = AXIS2_PLACEMENT_3D ( 'NONE', #119, #238, #157 ) ;
#160 = ORIENTED_EDGE ( 'NONE', *, *, #328, .F. ) ;
#161 = FACE_OUTER_BOUND ( 'NONE', #370, .T. ) ;
#162 = AXIS2_PLACEMENT_3D ( 'NONE', #72, #7, #69 ) ;
#163 = LINE ( 'NONE', #135, #168 ) ;
#164 = DIRECTION ( 'NONE',  ( 0.000000000000000000, 0.000000000000000000, 1.000000000000000000 ) ) ;
#165 = FACE_OUTER_BOUND ( 'NONE', #338, .T. ) ;
#166 = DIRECTION ( 'NONE',  ( 0.000000000000000000, 0.000000000000000000, -1.000000000000000000 ) ) ;
#167 = ORIENTED_EDGE ( 'NONE', *, *, #94, .T. ) ;
#168 = VECTOR ( 'NONE', #166, 1000.000000000000000 ) ;
#169 = EDGE_LOOP ( 'NONE', ( #93, #92 ) ) ;
#170 = ADVANCED_FACE ( 'NONE', ( #71 ), #297, .F. ) ;
#171 = COORDINATED_UNIVERSAL_TIME_OFFSET ( 1, 0, .AHEAD. ) ;
#172 = ORIENTED_EDGE ( 'NONE', *, *, #91, .F. ) ;
#173 = PERSON_AND_ORGANIZATION ( #352, #202 ) ;
#174 = CARTESIAN_POINT ( 'NONE',  ( -4.500000000000000888, 5.510910596163088569E-16, 5.000000000000002665 ) ) ;
#175 = AXIS2_PLACEMENT_3D ( 'NONE', #124, #212, #77 ) ;
#176 = PERSON_AND_ORGANIZATION_ROLE ( 'classification_officer' ) ;
#177 = CARTESIAN_POINT ( 'NONE',  ( 4.500000000000000888, 0.000000000000000000, 5.000000000000002665 ) ) ;
#178 = PERSON_AND_ORGANIZATION ( #352, #202 ) ;
#179 = EDGE_CURVE ( 'NONE', #148, #309, #358, .T. ) ;
#180 = CYLINDRICAL_SURFACE ( 'NONE', #131, 2.250000000000000000 ) ;
#181 = EDGE_CURVE ( 'NONE', #29, #229, #234, .T. ) ;
#182 = CARTESIAN_POINT ( 'NONE',  ( 2.250000000000000000, 2.755455298081544285E-16, 0.000000000000000000 ) ) ;
#183 = AXIS2_PLACEMENT_3D ( 'NONE', #52, #342, #27 ) ;
#184 = FACE_BOUND ( 'NONE', #60, .T. ) ;
#185 = ADVANCED_FACE ( 'NONE', ( #357, #269 ), #12, .F. ) ;
#186 = APPLICATION_CONTEXT ( 'configuration controlled 3d designs of mechanical parts and assemblies' ) ;
#187 = CARTESIAN_POINT ( 'NONE',  ( 4.500000000000000888, 0.000000000000000000, 5.500000000000005329 ) ) ;
#188 = SHAPE_DEFINITION_REPRESENTATION ( #239, #290 ) ;
#189 = EDGE_LOOP ( 'NONE', ( #51, #28 ) ) ;
#190 = TOROIDAL_SURFACE ( 'NONE', #109, 4.500000000000000888, 0.5000000000000000000 ) ;
#191 = DIRECTION ( 'NONE',  ( -0.000000000000000000, -0.000000000000000000, -1.000000000000000000 ) ) ;
#192 = FACE_OUTER_BOUND ( 'NONE', #201, .T. ) ;
#193 = CIRCLE ( 'NONE', #292, 7.000000000000000000 ) ;
#194 = LOCAL_TIME ( 17, 22, 53.00000000000000000, #314 ) ;
#195 = CARTESIAN_POINT ( 'NONE',  ( 0.000000000000000000, 0.000000000000000000, 5.000000000000000000 ) ) ;
#196 = CARTESIAN_POINT ( 'NONE',  ( -2.250000000000000000, 0.000000000000000000, 505.0000000000000000 ) ) ;
#197 = CARTESIAN_POINT ( 'NONE',  ( 2.250000000000000000, 2.755455298081544285E-16, 505.0000000000000000 ) ) ;
#198 = ADVANCED_FACE ( 'NONE', ( #184, #125 ), #299, .T. ) ;
#199 = ORIENTED_EDGE ( 'NONE', *, *, #319, .F. ) ;
#200 = LINE ( 'NONE', #107, #20 ) ;
#201 = EDGE_LOOP ( 'NONE', ( #62, #276, #64, #46 ) ) ;
#202 = ORGANIZATION ( 'NEURÈENÝ', 'NEURÈENÝ', '' ) ;
#203 = ORIENTED_EDGE ( 'NONE', *, *, #237, .T. ) ;
#204 = ADVANCED_FACE ( 'NONE', ( #262, #5 ), #208, .T. ) ;
#205 = COORDINATED_UNIVERSAL_TIME_OFFSET ( 1, 0, .AHEAD. ) ;
#206 = ORIENTED_EDGE ( 'NONE', *, *, #216, .F. ) ;
#207 = EDGE_CURVE ( 'NONE', #309, #132, #329, .T. ) ;
#208 = PLANE ( 'NONE',  #75 ) ;
#209 = VECTOR ( 'NONE', #83, 1000.000000000000000 ) ;
#210 = COORDINATED_UNIVERSAL_TIME_OFFSET ( 1, 0, .AHEAD. ) ;
#211 = CARTESIAN_POINT ( 'NONE',  ( -4.000000000000000000, 0.000000000000000000, 505.0000000000000000 ) ) ;
#212 = DIRECTION ( 'NONE',  ( -0.000000000000000000, -0.000000000000000000, -1.000000000000000000 ) ) ;
#213 = DIRECTION ( 'NONE',  ( -0.000000000000000000, -0.000000000000000000, -1.000000000000000000 ) ) ;
#214 = AXIS2_PLACEMENT_3D ( 'NONE', #121, #295, #236 ) ;
#215 = DIRECTION ( 'NONE',  ( 1.000000000000000000, 0.000000000000000000, 0.000000000000000000 ) ) ;
#216 = EDGE_CURVE ( 'NONE', #316, #144, #163, .T. ) ;
#217 = CARTESIAN_POINT ( 'NONE',  ( 0.000000000000000000, 0.000000000000000000, 5.000000000000000000 ) ) ;
#218 = ORIENTED_EDGE ( 'NONE', *, *, #181, .T. ) ;
#219 = ADVANCED_FACE ( 'NONE', ( #346 ), #283, .T. ) ;
#220 = ORIENTED_EDGE ( 'NONE', *, *, #207, .T. ) ;
#221 = DIRECTION ( 'NONE',  ( 0.000000000000000000, 0.000000000000000000, 1.000000000000000000 ) ) ;
#222 = CARTESIAN_POINT ( 'NONE',  ( 0.000000000000000000, 0.000000000000000000, 505.0000000000000000 ) ) ;
#223 = AXIS2_PLACEMENT_3D ( 'NONE', #137, #291, #35 ) ;
#224 = CARTESIAN_POINT ( 'NONE',  ( 7.000000000000000000, 8.572527594031473190E-16, 5.000000000000000000 ) ) ;
#225 = CARTESIAN_POINT ( 'NONE',  ( 0.000000000000000000, 0.000000000000000000, 0.000000000000000000 ) ) ;
#226 = ORIENTED_EDGE ( 'NONE', *, *, #270, .F. ) ;
#227 = CYLINDRICAL_SURFACE ( 'NONE', #149, 4.000000000000000000 ) ;
#228 = EDGE_LOOP ( 'NONE', ( #18, #347 ) ) ;
#229 = VERTEX_POINT ( 'NONE', #87 ) ;
#230 = AXIS2_PLACEMENT_3D ( 'NONE', #324, #156, #268 ) ;
#231 = EDGE_LOOP ( 'NONE', ( #226, #24, #220, #115 ) ) ;
#232 = CARTESIAN_POINT ( 'NONE',  ( 0.000000000000000000, 0.000000000000000000, 505.0000000000000000 ) ) ;
#233 = CARTESIAN_POINT ( 'NONE',  ( 0.000000000000000000, 0.000000000000000000, 505.0000000000000000 ) ) ;
#234 = CIRCLE ( 'NONE', #230, 7.000000000000000000 ) ;
#235 = APPROVAL_ROLE ( '' ) ;
#236 = DIRECTION ( 'NONE',  ( 1.000000000000000000, 0.000000000000000000, 0.000000000000000000 ) ) ;
#237 = EDGE_CURVE ( 'NONE', #252, #144, #82, .T. ) ;
#238 = DIRECTION ( 'NONE',  ( 0.000000000000000000, 0.000000000000000000, 1.000000000000000000 ) ) ;
#239 = PRODUCT_DEFINITION_SHAPE ( 'NONE', 'NONE',  #19 ) ;
#240 = CIRCLE ( 'NONE', #67, 0.5000000000000004441 ) ;
#241 = DIRECTION ( 'NONE',  ( 0.000000000000000000, 0.000000000000000000, 1.000000000000000000 ) ) ;
#242 = EDGE_LOOP ( 'NONE', ( #86, #301, #280, #26 ) ) ;
#243 = VECTOR ( 'NONE', #54, 1000.000000000000000 ) ;
#244 = LINE ( 'NONE', #47, #333 ) ;
#245 = ORIENTED_EDGE ( 'NONE', *, *, #263, .T. ) ;
#246 = CARTESIAN_POINT ( 'NONE',  ( 4.000000000000000000, 4.898587196589412829E-16, 505.0000000000000000 ) ) ;
#247 = ORIENTED_EDGE ( 'NONE', *, *, #14, .T. ) ;
#248 = DIRECTION ( 'NONE',  ( 1.000000000000000000, 0.000000000000000000, 0.000000000000000000 ) ) ;
#249 = CIRCLE ( 'NONE', #59, 7.000000000000000000 ) ;
#250 = DIRECTION ( 'NONE',  ( 1.000000000000000000, 0.000000000000000000, 0.000000000000000000 ) ) ;
#251 = DIRECTION ( 'NONE',  ( 0.000000000000000000, 0.000000000000000000, 1.000000000000000000 ) ) ;
#252 = VERTEX_POINT ( 'NONE', #281 ) ;
#253 = DATE_TIME_ROLE ( 'creation_date' ) ;
#254 = ORIENTED_EDGE ( 'NONE', *, *, #340, .T. ) ;
#255 = APPROVAL_DATE_TIME ( #58, #335 ) ;
#256 = EDGE_LOOP ( 'NONE', ( #376, #245, #318, #199 ) ) ;
#257 = AXIS2_PLACEMENT_3D ( 'NONE', #313, #84, #250 ) ;
#258 = LOCAL_TIME ( 17, 22, 53.00000000000000000, #171 ) ;
#259 = DIRECTION ( 'NONE',  ( 0.000000000000000000, 0.000000000000000000, 1.000000000000000000 ) ) ;
#260 = CC_DESIGN_DATE_AND_TIME_ASSIGNMENT ( #143, #253, ( #19 ) ) ;
#261 = EDGE_CURVE ( 'NONE', #132, #130, #303, .T. ) ;
#262 = FACE_BOUND ( 'NONE', #189, .T. ) ;
#263 = EDGE_CURVE ( 'NONE', #29, #349, #244, .T. ) ;
#264 = SECURITY_CLASSIFICATION_LEVEL ( 'unclassified' ) ;
#265 = DIRECTION ( 'NONE',  ( 1.000000000000000000, 0.000000000000000000, -0.000000000000000000 ) ) ;
#266 = ADVANCED_FACE ( 'NONE', ( #80 ), #227, .T. ) ;
#267 = PERSON_AND_ORGANIZATION_ROLE ( 'design_supplier' ) ;
#268 = DIRECTION ( 'NONE',  ( 1.000000000000000000, 0.000000000000000000, 0.000000000000000000 ) ) ;
#269 = FACE_OUTER_BOUND ( 'NONE', #321, .T. ) ;
#270 = EDGE_CURVE ( 'NONE', #148, #130, #85, .T. ) ;
#271 = DIRECTION ( 'NONE',  ( 0.000000000000000000, -1.000000000000000000, 0.000000000000000000 ) ) ;
#272 = DATE_AND_TIME ( #361, #275 ) ;
#273 = DIRECTION ( 'NONE',  ( -0.000000000000000000, -0.000000000000000000, -1.000000000000000000 ) ) ;
#274 = CIRCLE ( 'NONE', #162, 2.250000000000000000 ) ;
#275 = LOCAL_TIME ( 17, 22, 53.00000000000000000, #210 ) ;
#276 = ORIENTED_EDGE ( 'NONE', *, *, #340, .F. ) ;
#277 = CC_DESIGN_PERSON_AND_ORGANIZATION_ASSIGNMENT ( #4, #146, ( #74 ) ) ;
#278 = DIRECTION ( 'NONE',  ( -1.000000000000000000, 0.000000000000000000, 0.000000000000000000 ) ) ;
#279 = AXIS2_PLACEMENT_3D ( 'NONE', #40, #151, #96 ) ;
#280 = ORIENTED_EDGE ( 'NONE', *, *, #345, .T. ) ;
#281 = CARTESIAN_POINT ( 'NONE',  ( -2.250000000000000000, 0.000000000000000000, 0.000000000000000000 ) ) ;
#282 = CARTESIAN_POINT ( 'NONE',  ( 0.000000000000000000, 0.000000000000000000, 5.500000000000005329 ) ) ;
#283 = CYLINDRICAL_SURFACE ( 'NONE', #183, 4.000000000000000000 ) ;
#284 = CIRCLE ( 'NONE', #2, 7.000000000000000000 ) ;
#285 = ORIENTED_EDGE ( 'NONE', *, *, #261, .F. ) ;
#286 = APPROVAL_ROLE ( '' ) ;
#287 = ORIENTED_EDGE ( 'NONE', *, *, #41, .T. ) ;
#288 = DATE_AND_TIME ( #97, #258 ) ;
#289 = ORIENTED_EDGE ( 'NONE', *, *, #145, .F. ) ;
#290 = ADVANCED_BREP_SHAPE_REPRESENTATION ( 'd492', ( #55, #368 ), #315 ) ;
#291 = DIRECTION ( 'NONE',  ( 1.224646799147353207E-16, 1.000000000000000000, -0.000000000000000000 ) ) ;
#292 = AXIS2_PLACEMENT_3D ( 'NONE', #217, #221, #337 ) ;
#293 = CALENDAR_DATE ( 2022, 8, 7 ) ;
#294 = ADVANCED_FACE ( 'NONE', ( #192 ), #348, .T. ) ;
#295 = DIRECTION ( 'NONE',  ( 0.000000000000000000, 0.000000000000000000, 1.000000000000000000 ) ) ;
#296 = DIRECTION ( 'NONE',  ( 0.000000000000000000, 0.000000000000000000, 1.000000000000000000 ) ) ;
#297 = CYLINDRICAL_SURFACE ( 'NONE', #17, 2.250000000000000000 ) ;
#298 = APPROVAL ( #122, 'NEURÈENÝ' ) ;
#299 = PLANE ( 'NONE',  #279 ) ;
#300 = CARTESIAN_POINT ( 'NONE',  ( 4.000000000000000000, 4.898587196589412829E-16, 5.500000000000005329 ) ) ;
#301 = ORIENTED_EDGE ( 'NONE', *, *, #216, .T. ) ;
#302 = CLOSED_SHELL ( 'NONE', ( #170, #331, #219, #336, #294, #204, #185, #266, #198, #43, #138 ) ) ;
#303 = CIRCLE ( 'NONE', #89, 4.000000000000000000 ) ;
#304 = LOCAL_TIME ( 17, 22, 53.00000000000000000, #205 ) ;
#305 = EDGE_LOOP ( 'NONE', ( #254, #218 ) ) ;
#306 = DIRECTION ( 'NONE',  ( -0.000000000000000000, -0.000000000000000000, -1.000000000000000000 ) ) ;
#307 = AXIS2_PLACEMENT_3D ( 'NONE', #233, #363, #36 ) ;
#308 = APPROVAL_PERSON_ORGANIZATION ( #9, #298, #120 ) ;
#309 = VERTEX_POINT ( 'NONE', #22 ) ;
#310 = DIRECTION ( 'NONE',  ( -0.000000000000000000, -0.000000000000000000, -1.000000000000000000 ) ) ;
#311 = LINE ( 'NONE', #57, #243 ) ;
#312 = CARTESIAN_POINT ( 'NONE',  ( 0.000000000000000000, 0.000000000000000000, 5.500000000000005329 ) ) ;
#313 = CARTESIAN_POINT ( 'NONE',  ( 0.000000000000000000, 0.000000000000000000, 505.0000000000000000 ) ) ;
#314 = COORDINATED_UNIVERSAL_TIME_OFFSET ( 1, 0, .AHEAD. ) ;
#315 =( GEOMETRIC_REPRESENTATION_CONTEXT ( 3 ) GLOBAL_UNCERTAINTY_ASSIGNED_CONTEXT ( ( #332 ) ) GLOBAL_UNIT_ASSIGNED_CONTEXT ( ( #70, #31, #33 ) ) REPRESENTATION_CONTEXT ( 'NONE', 'WORKASPACE' ) );
#316 = VERTEX_POINT ( 'NONE', #197 ) ;
#317 = APPROVAL_PERSON_ORGANIZATION ( #380, #8, #235 ) ;
#318 = ORIENTED_EDGE ( 'NONE', *, *, #147, .T. ) ;
#319 = EDGE_CURVE ( 'NONE', #229, #344, #200, .T. ) ;
#320 = CALENDAR_DATE ( 2022, 8, 7 ) ;
#321 = EDGE_LOOP ( 'NONE', ( #381, #88 ) ) ;
#322 = APPLICATION_CONTEXT ( 'configuration controlled 3d designs of mechanical parts and assemblies' ) ;
#323 = CALENDAR_DATE ( 2022, 8, 7 ) ;
#324 = CARTESIAN_POINT ( 'NONE',  ( 0.000000000000000000, 0.000000000000000000, 5.000000000000000000 ) ) ;
#325 = AXIS2_PLACEMENT_3D ( 'NONE', #78, #25, #248 ) ;
#326 = LOCAL_TIME ( 17, 22, 53.00000000000000000, #95 ) ;
#327 = APPROVAL_DATE_TIME ( #288, #8 ) ;
#328 = EDGE_CURVE ( 'NONE', #130, #132, #11, .T. ) ;
#329 = LINE ( 'NONE', #211, #339 ) ;
#330 = FACE_OUTER_BOUND ( 'NONE', #353, .T. ) ;
#331 = ADVANCED_FACE ( 'NONE', ( #161 ), #190, .F. ) ;
#332 = UNCERTAINTY_MEASURE_WITH_UNIT (LENGTH_MEASURE( 1.000000000000000082E-05 ), #70, 'distance_accuracy_value', 'NONE');
#333 = VECTOR ( 'NONE', #191, 1000.000000000000000 ) ;
#334 = DIRECTION ( 'NONE',  ( 1.000000000000000000, 0.000000000000000000, 0.000000000000000000 ) ) ;
#335 = APPROVAL ( #99, 'NEURÈENÝ' ) ;
#336 = ADVANCED_FACE ( 'NONE', ( #158 ), #42, .T. ) ;
#337 = DIRECTION ( 'NONE',  ( 1.000000000000000000, 0.000000000000000000, 0.000000000000000000 ) ) ;
#338 = EDGE_LOOP ( 'NONE', ( #378, #160, #167, #289 ) ) ;
#339 = VECTOR ( 'NONE', #273, 1000.000000000000000 ) ;
#340 = EDGE_CURVE ( 'NONE', #229, #29, #193, .T. ) ;
#341 = CARTESIAN_POINT ( 'NONE',  ( -7.000000000000000000, 0.000000000000000000, 0.000000000000000000 ) ) ;
#342 = DIRECTION ( 'NONE',  ( -0.000000000000000000, -0.000000000000000000, -1.000000000000000000 ) ) ;
#343 = AXIS2_PLACEMENT_3D ( 'NONE', #225, #136, #129 ) ;
#344 = VERTEX_POINT ( 'NONE', #341 ) ;
#345 = EDGE_CURVE ( 'NONE', #144, #252, #79, .T. ) ;
#346 = FACE_OUTER_BOUND ( 'NONE', #373, .T. ) ;
#347 = ORIENTED_EDGE ( 'NONE', *, *, #179, .T. ) ;
#348 = CYLINDRICAL_SURFACE ( 'NONE', #364, 7.000000000000000000 ) ;
#349 = VERTEX_POINT ( 'NONE', #374 ) ;
#350 = APPLICATION_PROTOCOL_DEFINITION ( 'international standard', 'config_control_design', 1994, #186 ) ;
#351 = ORIENTED_EDGE ( 'NONE', *, *, #110, .F. ) ;
#352 = PERSON ( 'NEURÈENÝ', 'NEURÈENÝ', 'NEURÈENÝ', ('NEURÈENÝ'), ('NEURÈENÝ'), ('NEURÈENÝ') ) ;
#353 = EDGE_LOOP ( 'NONE', ( #206, #113, #287, #203 ) ) ;
#354 = PERSON_AND_ORGANIZATION ( #352, #202 ) ;
#355 = DIRECTION ( 'NONE',  ( 0.000000000000000000, 0.000000000000000000, 1.000000000000000000 ) ) ;
#356 = EDGE_CURVE ( 'NONE', #344, #349, #249, .T. ) ;
#357 = FACE_BOUND ( 'NONE', #169, .T. ) ;
#358 = CIRCLE ( 'NONE', #307, 4.000000000000000000 ) ;
#359 = DIRECTION ( 'NONE',  ( 1.000000000000000000, 0.000000000000000000, 0.000000000000000000 ) ) ;
#360 = CARTESIAN_POINT ( 'NONE',  ( -4.000000000000000000, 0.000000000000000000, 5.500000000000005329 ) ) ;
#361 = CALENDAR_DATE ( 2022, 8, 7 ) ;
#362 = CARTESIAN_POINT ( 'NONE',  ( 0.000000000000000000, 0.000000000000000000, 0.000000000000000000 ) ) ;
#363 = DIRECTION ( 'NONE',  ( 0.000000000000000000, 0.000000000000000000, 1.000000000000000000 ) ) ;
#364 = AXIS2_PLACEMENT_3D ( 'NONE', #195, #50, #371 ) ;
#365 = CC_DESIGN_SECURITY_CLASSIFICATION ( #104, ( #133 ) ) ;
#366 = CARTESIAN_POINT ( 'NONE',  ( 0.000000000000000000, 0.000000000000000000, 5.500000000000005329 ) ) ;
#367 = APPROVAL_DATE_TIME ( #272, #298 ) ;
#368 = AXIS2_PLACEMENT_3D ( 'NONE', #61, #259, #359 ) ;
#369 = DIRECTION ( 'NONE',  ( 1.000000000000000000, 0.000000000000000000, 0.000000000000000000 ) ) ;
#370 = EDGE_LOOP ( 'NONE', ( #285, #247, #172, #142 ) ) ;
#371 = DIRECTION ( 'NONE',  ( -1.000000000000000000, 0.000000000000000000, 0.000000000000000000 ) ) ;
#372 = CC_DESIGN_PERSON_AND_ORGANIZATION_ASSIGNMENT ( #173, #118, ( #19 ) ) ;
#373 = EDGE_LOOP ( 'NONE', ( #44, #117, #108, #81 ) ) ;
#374 = CARTESIAN_POINT ( 'NONE',  ( 7.000000000000000000, 8.572527594031473190E-16, 0.000000000000000000 ) ) ;
#375 = CIRCLE ( 'NONE', #123, 4.500000000000000888 ) ;
#376 = ORIENTED_EDGE ( 'NONE', *, *, #181, .F. ) ;
#377 = DIRECTION ( 'NONE',  ( 1.000000000000000000, 0.000000000000000000, 0.000000000000000000 ) ) ;
#378 = ORIENTED_EDGE ( 'NONE', *, *, #14, .F. ) ;
#379 = CC_DESIGN_PERSON_AND_ORGANIZATION_ASSIGNMENT ( #152, #176, ( #104 ) ) ;
#380 = PERSON_AND_ORGANIZATION ( #352, #202 ) ;
#381 = ORIENTED_EDGE ( 'NONE', *, *, #356, .F. ) ;
ENDSEC;
END-ISO-10303-21;
