ISO-10303-21;
HEADER;
FILE_DESCRIPTION (( 'STEP AP203' ),
    '1' );
FILE_NAME ('7c49.STEP',
    '2022-07-08T15:55:47',
    ( '' ),
    ( '' ),
    'SwSTEP 2.0',
    'SolidWorks 2019',
    '' );
FILE_SCHEMA (( 'CONFIG_CONTROL_DESIGN' ));
ENDSEC;

DATA;
#1 = CARTESIAN_POINT ( 'NONE',  ( 0.000000000000000000, 0.000000000000000000, 0.000000000000000000 ) ) ;
#2 = LINE ( 'NONE', #334, #127 ) ;
#3 = DIRECTION ( 'NONE',  ( -1.000000000000000000, 0.000000000000000000, 0.000000000000000000 ) ) ;
#4 = AXIS2_PLACEMENT_3D ( 'NONE', #246, #301, #153 ) ;
#5 = EDGE_CURVE ( 'NONE', #338, #169, #51, .T. ) ;
#6 = DIRECTION ( 'NONE',  ( -0.000000000000000000, -0.000000000000000000, -1.000000000000000000 ) ) ;
#7 = COORDINATED_UNIVERSAL_TIME_OFFSET ( 1, 0, .AHEAD. ) ;
#8 = ORIENTED_EDGE ( 'NONE', *, *, #312, .F. ) ;
#9 = APPROVAL_DATE_TIME ( #231, #323 ) ;
#10 = CYLINDRICAL_SURFACE ( 'NONE', #64, 2.000000000000000000 ) ;
#11 = ADVANCED_FACE ( 'NONE', ( #139 ), #261, .T. ) ;
#12 = EDGE_LOOP ( 'NONE', ( #343, #219 ) ) ;
#13 = ORIENTED_EDGE ( 'NONE', *, *, #20, .T. ) ;
#14 = AXIS2_PLACEMENT_3D ( 'NONE', #367, #370, #233 ) ;
#15 = EDGE_CURVE ( 'NONE', #46, #76, #242, .T. ) ;
#16 = EDGE_LOOP ( 'NONE', ( #251, #202, #309, #253 ) ) ;
#17 = CARTESIAN_POINT ( 'NONE',  ( -2.299999999999999822, 2.816687638038912056E-16, 2.999999999999998668 ) ) ;
#18 = CARTESIAN_POINT ( 'NONE',  ( 0.000000000000000000, 0.000000000000000000, 78.00000000000000000 ) ) ;
#19 = DIRECTION ( 'NONE',  ( 0.000000000000000000, 0.000000000000000000, 1.000000000000000000 ) ) ;
#20 = EDGE_CURVE ( 'NONE', #338, #101, #103, .T. ) ;
#21 = CIRCLE ( 'NONE', #79, 4.000000000000000000 ) ;
#22 = DIRECTION ( 'NONE',  ( 0.000000000000000000, 0.000000000000000000, 1.000000000000000000 ) ) ;
#23 = CARTESIAN_POINT ( 'NONE',  ( -4.000000000000000000, 0.000000000000000000, 3.000000000000000000 ) ) ;
#24 = CC_DESIGN_DATE_AND_TIME_ASSIGNMENT ( #188, #344, ( #368 ) ) ;
#25 = FACE_OUTER_BOUND ( 'NONE', #16, .T. ) ;
#26 = ORIENTED_EDGE ( 'NONE', *, *, #20, .F. ) ;
#27 = CARTESIAN_POINT ( 'NONE',  ( 1.000000000000000000, 1.224646799147353207E-16, 78.00000000000000000 ) ) ;
#28 = VERTEX_POINT ( 'NONE', #192 ) ;
#29 = DIRECTION ( 'NONE',  ( 1.000000000000000000, 0.000000000000000000, 0.000000000000000000 ) ) ;
#30 = ORIENTED_EDGE ( 'NONE', *, *, #224, .T. ) ;
#31 = CYLINDRICAL_SURFACE ( 'NONE', #328, 4.000000000000000000 ) ;
#32 = EDGE_LOOP ( 'NONE', ( #227, #60, #314, #105 ) ) ;
#33 = FACE_BOUND ( 'NONE', #374, .T. ) ;
#34 = ORIENTED_EDGE ( 'NONE', *, *, #176, .F. ) ;
#35 = PRODUCT_DEFINITION_FORMATION_WITH_SPECIFIED_SOURCE ( 'LIBOVOLNÝ', '', #193, .NOT_KNOWN. ) ;
#36 = APPLICATION_PROTOCOL_DEFINITION ( 'international standard', 'config_control_design', 1994, #306 ) ;
#37 = CARTESIAN_POINT ( 'NONE',  ( 2.000000000000000000, 2.449293598294706414E-16, 78.00000000000000000 ) ) ;
#38 = APPROVAL_STATUS ( 'not_yet_approved' ) ;
#39 = ORIENTED_EDGE ( 'NONE', *, *, #203, .F. ) ;
#40 = PERSON_AND_ORGANIZATION ( #209, #212 ) ;
#41 = VERTEX_POINT ( 'NONE', #315 ) ;
#42 = COORDINATED_UNIVERSAL_TIME_OFFSET ( 1, 0, .AHEAD. ) ;
#43 = ORIENTED_EDGE ( 'NONE', *, *, #5, .F. ) ;
#44 = ADVANCED_FACE ( 'NONE', ( #163 ), #10, .T. ) ;
#45 = CALENDAR_DATE ( 2022, 8, 7 ) ;
#46 = VERTEX_POINT ( 'NONE', #118 ) ;
#47 = DIRECTION ( 'NONE',  ( 1.000000000000000000, 0.000000000000000000, 0.000000000000000000 ) ) ;
#48 = CARTESIAN_POINT ( 'NONE',  ( -2.000000000000000000, 0.000000000000000000, 78.00000000000000000 ) ) ;
#49 = CARTESIAN_POINT ( 'NONE',  ( 0.000000000000000000, 0.000000000000000000, 3.299999999999997158 ) ) ;
#50 = PRODUCT_RELATED_PRODUCT_CATEGORY ( 'detail', '', ( #193 ) ) ;
#51 = CIRCLE ( 'NONE', #14, 2.000000000000000000 ) ;
#52 = DIRECTION ( 'NONE',  ( -0.000000000000000000, -0.000000000000000000, -1.000000000000000000 ) ) ;
#53 = CIRCLE ( 'NONE', #292, 4.000000000000000000 ) ;
#54 = DIRECTION ( 'NONE',  ( -1.000000000000000000, 0.000000000000000000, 0.000000000000000000 ) ) ;
#55 = EDGE_CURVE ( 'NONE', #169, #338, #119, .T. ) ;
#56 = DIRECTION ( 'NONE',  ( -0.000000000000000000, -0.000000000000000000, -1.000000000000000000 ) ) ;
#57 = CIRCLE ( 'NONE', #280, 2.299999999999999822 ) ;
#58 = DIRECTION ( 'NONE',  ( 0.000000000000000000, 0.000000000000000000, 1.000000000000000000 ) ) ;
#59 = DIRECTION ( 'NONE',  ( -0.000000000000000000, -0.000000000000000000, -1.000000000000000000 ) ) ;
#60 = ORIENTED_EDGE ( 'NONE', *, *, #117, .F. ) ;
#61 = APPROVAL_PERSON_ORGANIZATION ( #313, #254, #136 ) ;
#62 = CARTESIAN_POINT ( 'NONE',  ( -1.000000000000000000, 0.000000000000000000, 0.000000000000000000 ) ) ;
#63 = ADVANCED_FACE ( 'NONE', ( #120, #325 ), #83, .T. ) ;
#64 = AXIS2_PLACEMENT_3D ( 'NONE', #239, #52, #54 ) ;
#65 = CARTESIAN_POINT ( 'NONE',  ( -4.000000000000000000, 0.000000000000000000, 3.000000000000000000 ) ) ;
#66 = AXIS2_PLACEMENT_3D ( 'NONE', #90, #114, #88 ) ;
#67 = UNCERTAINTY_MEASURE_WITH_UNIT (LENGTH_MEASURE( 1.000000000000000082E-05 ), #100, 'distance_accuracy_value', 'NONE');
#68 = MECHANICAL_CONTEXT ( 'NONE', #306, 'mechanical' ) ;
#69 = ORIENTED_EDGE ( 'NONE', *, *, #130, .F. ) ;
#70 = CIRCLE ( 'NONE', #4, 2.299999999999999822 ) ;
#71 = CC_DESIGN_SECURITY_CLASSIFICATION ( #189, ( #35 ) ) ;
#72 = ADVANCED_FACE ( 'NONE', ( #210, #349 ), #143, .T. ) ;
#73 = CALENDAR_DATE ( 2022, 8, 7 ) ;
#74 = ORIENTED_EDGE ( 'NONE', *, *, #265, .F. ) ;
#75 = APPLICATION_PROTOCOL_DEFINITION ( 'international standard', 'config_control_design', 1994, #85 ) ;
#76 = VERTEX_POINT ( 'NONE', #23 ) ;
#77 = PERSON_AND_ORGANIZATION_ROLE ( 'classification_officer' ) ;
#78 = ORIENTED_EDGE ( 'NONE', *, *, #214, .F. ) ;
#79 = AXIS2_PLACEMENT_3D ( 'NONE', #299, #181, #155 ) ;
#80 = APPROVAL_ROLE ( '' ) ;
#81 = ORIENTED_EDGE ( 'NONE', *, *, #295, .F. ) ;
#82 = EDGE_CURVE ( 'NONE', #95, #165, #57, .T. ) ;
#83 = PLANE ( 'NONE',  #288 ) ;
#84 = CARTESIAN_POINT ( 'NONE',  ( 0.000000000000000000, 0.000000000000000000, 0.000000000000000000 ) ) ;
#85 = APPLICATION_CONTEXT ( 'configuration controlled 3d designs of mechanical parts and assemblies' ) ;
#86 =( GEOMETRIC_REPRESENTATION_CONTEXT ( 3 ) GLOBAL_UNCERTAINTY_ASSIGNED_CONTEXT ( ( #67 ) ) GLOBAL_UNIT_ASSIGNED_CONTEXT ( ( #100, #159, #191 ) ) REPRESENTATION_CONTEXT ( 'NONE', 'WORKASPACE' ) );
#87 = ADVANCED_FACE ( 'NONE', ( #377 ), #327, .F. ) ;
#88 = DIRECTION ( 'NONE',  ( -1.000000000000000000, 0.000000000000000000, 0.000000000000000000 ) ) ;
#89 = CARTESIAN_POINT ( 'NONE',  ( 2.299999999999999822, 0.000000000000000000, 3.299999999999997158 ) ) ;
#90 = CARTESIAN_POINT ( 'NONE',  ( 0.000000000000000000, 0.000000000000000000, 78.00000000000000000 ) ) ;
#91 = VECTOR ( 'NONE', #238, 1000.000000000000000 ) ;
#92 = AXIS2_PLACEMENT_3D ( 'NONE', #84, #116, #112 ) ;
#93 = CARTESIAN_POINT ( 'NONE',  ( 1.000000000000000000, 1.224646799147353207E-16, 0.000000000000000000 ) ) ;
#94 = FACE_OUTER_BOUND ( 'NONE', #32, .T. ) ;
#95 = VERTEX_POINT ( 'NONE', #324 ) ;
#96 = DIRECTION ( 'NONE',  ( 1.000000000000000000, 0.000000000000000000, 0.000000000000000000 ) ) ;
#97 = CARTESIAN_POINT ( 'NONE',  ( -2.000000000000000000, 0.000000000000000000, 78.00000000000000000 ) ) ;
#98 = EDGE_LOOP ( 'NONE', ( #287, #365 ) ) ;
#99 = LOCAL_TIME ( 17, 55, 47.00000000000000000, #42 ) ;
#100 =( LENGTH_UNIT ( ) NAMED_UNIT ( * ) SI_UNIT ( .MILLI., .METRE. ) );
#101 = VERTEX_POINT ( 'NONE', #241 ) ;
#102 = EDGE_CURVE ( 'NONE', #237, #101, #354, .T. ) ;
#103 = LINE ( 'NONE', #37, #111 ) ;
#104 = LOCAL_TIME ( 17, 55, 47.00000000000000000, #201 ) ;
#105 = ORIENTED_EDGE ( 'NONE', *, *, #236, .F. ) ;
#106 = SECURITY_CLASSIFICATION_LEVEL ( 'unclassified' ) ;
#107 = ORIENTED_EDGE ( 'NONE', *, *, #224, .F. ) ;
#108 = PERSON_AND_ORGANIZATION ( #209, #212 ) ;
#109 = DIRECTION ( 'NONE',  ( 0.000000000000000000, 0.000000000000000000, 1.000000000000000000 ) ) ;
#110 = DIRECTION ( 'NONE',  ( -0.000000000000000000, -0.000000000000000000, -1.000000000000000000 ) ) ;
#111 = VECTOR ( 'NONE', #230, 1000.000000000000000 ) ;
#112 = DIRECTION ( 'NONE',  ( 1.000000000000000000, 0.000000000000000000, 0.000000000000000000 ) ) ;
#113 = EDGE_CURVE ( 'NONE', #237, #165, #151, .T. ) ;
#114 = DIRECTION ( 'NONE',  ( 0.000000000000000000, 0.000000000000000000, -1.000000000000000000 ) ) ;
#115 = VECTOR ( 'NONE', #185, 1000.000000000000000 ) ;
#116 = DIRECTION ( 'NONE',  ( 0.000000000000000000, 0.000000000000000000, 1.000000000000000000 ) ) ;
#117 = EDGE_CURVE ( 'NONE', #101, #237, #182, .T. ) ;
#118 = CARTESIAN_POINT ( 'NONE',  ( 4.000000000000000000, 4.898587196589412829E-16, 3.000000000000000000 ) ) ;
#119 = CIRCLE ( 'NONE', #371, 2.000000000000000000 ) ;
#120 = FACE_BOUND ( 'NONE', #12, .T. ) ;
#121 = CARTESIAN_POINT ( 'NONE',  ( 0.000000000000000000, 0.000000000000000000, 3.000000000000000000 ) ) ;
#122 = PLANE ( 'NONE',  #381 ) ;
#123 = ORIENTED_EDGE ( 'NONE', *, *, #113, .T. ) ;
#124 = APPROVAL ( #345, 'NEURÈENÝ' ) ;
#125 = CARTESIAN_POINT ( 'NONE',  ( 0.000000000000000000, 0.000000000000000000, 78.00000000000000000 ) ) ;
#126 = CARTESIAN_POINT ( 'NONE',  ( 0.000000000000000000, 0.000000000000000000, 3.299999999999997158 ) ) ;
#127 = VECTOR ( 'NONE', #6, 1000.000000000000000 ) ;
#128 = ORIENTED_EDGE ( 'NONE', *, *, #148, .T. ) ;
#129 = CARTESIAN_POINT ( 'NONE',  ( 2.000000000000000000, 2.449293598294706414E-16, 78.00000000000000000 ) ) ;
#130 = EDGE_CURVE ( 'NONE', #167, #28, #357, .T. ) ;
#131 = ORIENTED_EDGE ( 'NONE', *, *, #55, .T. ) ;
#132 = PERSON_AND_ORGANIZATION ( #209, #212 ) ;
#133 = PRODUCT_DEFINITION_SHAPE ( 'NONE', 'NONE',  #368 ) ;
#134 = DATE_AND_TIME ( #73, #161 ) ;
#135 = CC_DESIGN_APPROVAL ( #323, ( #368 ) ) ;
#136 = APPROVAL_ROLE ( '' ) ;
#137 = EDGE_LOOP ( 'NONE', ( #157, #140, #128, #286 ) ) ;
#138 = DATE_AND_TIME ( #318, #351 ) ;
#139 = FACE_OUTER_BOUND ( 'NONE', #199, .T. ) ;
#140 = ORIENTED_EDGE ( 'NONE', *, *, #269, .T. ) ;
#141 = TOROIDAL_SURFACE ( 'NONE', #200, 2.299999999999999822, 0.2999999999999999889 ) ;
#142 = CARTESIAN_POINT ( 'NONE',  ( 0.000000000000000000, 0.000000000000000000, 78.00000000000000000 ) ) ;
#143 = PLANE ( 'NONE',  #336 ) ;
#144 = DIRECTION ( 'NONE',  ( -0.000000000000000000, -0.000000000000000000, -1.000000000000000000 ) ) ;
#145 = AXIS2_PLACEMENT_3D ( 'NONE', #49, #207, #171 ) ;
#146 = APPROVAL_DATE_TIME ( #290, #124 ) ;
#147 = DIRECTION ( 'NONE',  ( 0.000000000000000000, 0.000000000000000000, -1.000000000000000000 ) ) ;
#148 = EDGE_CURVE ( 'NONE', #321, #216, #245, .T. ) ;
#149 = CARTESIAN_POINT ( 'NONE',  ( 0.000000000000000000, 0.000000000000000000, 0.000000000000000000 ) ) ;
#150 = FACE_OUTER_BOUND ( 'NONE', #252, .T. ) ;
#151 = CIRCLE ( 'NONE', #262, 0.2999999999999999334 ) ;
#152 = APPROVAL_PERSON_ORGANIZATION ( #132, #323, #228 ) ;
#153 = DIRECTION ( 'NONE',  ( 1.000000000000000000, 0.000000000000000000, 0.000000000000000000 ) ) ;
#154 = ORIENTED_EDGE ( 'NONE', *, *, #148, .F. ) ;
#155 = DIRECTION ( 'NONE',  ( 1.000000000000000000, 0.000000000000000000, 0.000000000000000000 ) ) ;
#156 = LINE ( 'NONE', #97, #187 ) ;
#157 = ORIENTED_EDGE ( 'NONE', *, *, #363, .T. ) ;
#158 = ADVANCED_FACE ( 'NONE', ( #352 ), #361, .F. ) ;
#159 =( NAMED_UNIT ( * ) PLANE_ANGLE_UNIT ( ) SI_UNIT ( $, .RADIAN. ) );
#160 = ORIENTED_EDGE ( 'NONE', *, *, #170, .F. ) ;
#161 = LOCAL_TIME ( 17, 55, 47.00000000000000000, #282 ) ;
#162 = EDGE_LOOP ( 'NONE', ( #78, #74, #258, #256 ) ) ;
#163 = FACE_OUTER_BOUND ( 'NONE', #249, .T. ) ;
#164 = PERSON_AND_ORGANIZATION_ROLE ( 'creator' ) ;
#165 = VERTEX_POINT ( 'NONE', #17 ) ;
#166 = EDGE_CURVE ( 'NONE', #335, #216, #378, .T. ) ;
#167 = VERTEX_POINT ( 'NONE', #205 ) ;
#168 = CALENDAR_DATE ( 2022, 8, 7 ) ;
#169 = VERTEX_POINT ( 'NONE', #48 ) ;
#170 = EDGE_CURVE ( 'NONE', #41, #335, #284, .T. ) ;
#171 = DIRECTION ( 'NONE',  ( 1.000000000000000000, 0.000000000000000000, 0.000000000000000000 ) ) ;
#172 = CARTESIAN_POINT ( 'NONE',  ( 0.000000000000000000, 0.000000000000000000, 78.00000000000000000 ) ) ;
#173 = ADVANCED_BREP_SHAPE_REPRESENTATION ( '7c49', ( #222, #373 ), #86 ) ;
#174 = DIRECTION ( 'NONE',  ( -1.000000000000000000, 1.224646799147353207E-16, 0.000000000000000000 ) ) ;
#175 = CARTESIAN_POINT ( 'NONE',  ( 0.000000000000000000, 0.000000000000000000, 3.299999999999997158 ) ) ;
#176 = EDGE_CURVE ( 'NONE', #101, #95, #310, .T. ) ;
#177 = AXIS2_PLACEMENT_3D ( 'NONE', #175, #296, #326 ) ;
#178 = CARTESIAN_POINT ( 'NONE',  ( 0.000000000000000000, 0.000000000000000000, 3.000000000000000000 ) ) ;
#179 = FACE_OUTER_BOUND ( 'NONE', #223, .T. ) ;
#180 = CC_DESIGN_PERSON_AND_ORGANIZATION_ASSIGNMENT ( #232, #77, ( #189 ) ) ;
#181 = DIRECTION ( 'NONE',  ( 0.000000000000000000, 0.000000000000000000, 1.000000000000000000 ) ) ;
#182 = CIRCLE ( 'NONE', #145, 2.000000000000000000 ) ;
#183 = VECTOR ( 'NONE', #56, 1000.000000000000000 ) ;
#184 = CARTESIAN_POINT ( 'NONE',  ( -1.000000000000000000, 0.000000000000000000, 78.00000000000000000 ) ) ;
#185 = DIRECTION ( 'NONE',  ( 0.000000000000000000, 0.000000000000000000, -1.000000000000000000 ) ) ;
#186 = ORIENTED_EDGE ( 'NONE', *, *, #203, .T. ) ;
#187 = VECTOR ( 'NONE', #59, 1000.000000000000000 ) ;
#188 = DATE_AND_TIME ( #45, #99 ) ;
#189 = SECURITY_CLASSIFICATION ( '', '', #106 ) ;
#190 = DIRECTION ( 'NONE',  ( 1.000000000000000000, 0.000000000000000000, 0.000000000000000000 ) ) ;
#191 =( NAMED_UNIT ( * ) SI_UNIT ( $, .STERADIAN. ) SOLID_ANGLE_UNIT ( ) );
#192 = CARTESIAN_POINT ( 'NONE',  ( 4.000000000000000000, 4.898587196589412829E-16, 0.000000000000000000 ) ) ;
#193 = PRODUCT ( '7c49', '7c49', '', ( #68 ) ) ;
#194 = CLOSED_SHELL ( 'NONE', ( #87, #158, #289, #11, #240, #63, #305, #44, #72, #196, #339 ) ) ;
#195 = PERSON_AND_ORGANIZATION ( #209, #212 ) ;
#196 = ADVANCED_FACE ( 'NONE', ( #94 ), #141, .F. ) ;
#197 = ORIENTED_EDGE ( 'NONE', *, *, #82, .F. ) ;
#198 = COORDINATED_UNIVERSAL_TIME_OFFSET ( 1, 0, .AHEAD. ) ;
#199 = EDGE_LOOP ( 'NONE', ( #235, #341, #186, #81 ) ) ;
#200 = AXIS2_PLACEMENT_3D ( 'NONE', #126, #58, #29 ) ;
#201 = COORDINATED_UNIVERSAL_TIME_OFFSET ( 1, 0, .AHEAD. ) ;
#202 = ORIENTED_EDGE ( 'NONE', *, *, #170, .T. ) ;
#203 = EDGE_CURVE ( 'NONE', #28, #167, #21, .T. ) ;
#204 = CARTESIAN_POINT ( 'NONE',  ( -2.299999999999999822, 2.816687638038912056E-16, 3.299999999999997158 ) ) ;
#205 = CARTESIAN_POINT ( 'NONE',  ( -4.000000000000000000, 0.000000000000000000, 0.000000000000000000 ) ) ;
#206 = AXIS2_PLACEMENT_3D ( 'NONE', #359, #275, #304 ) ;
#207 = DIRECTION ( 'NONE',  ( 0.000000000000000000, 0.000000000000000000, 1.000000000000000000 ) ) ;
#208 = DIRECTION ( 'NONE',  ( 0.000000000000000000, -1.000000000000000000, 0.000000000000000000 ) ) ;
#209 = PERSON ( 'NEURÈENÝ', 'NEURÈENÝ', 'NEURÈENÝ', ('NEURÈENÝ'), ('NEURÈENÝ'), ('NEURÈENÝ') ) ;
#210 = FACE_BOUND ( 'NONE', #331, .T. ) ;
#211 = AXIS2_PLACEMENT_3D ( 'NONE', #89, #208, #147 ) ;
#212 = ORGANIZATION ( 'NEURÈENÝ', 'NEURÈENÝ', '' ) ;
#213 = CARTESIAN_POINT ( 'NONE',  ( 0.000000000000000000, 0.000000000000000000, 3.000000000000000000 ) ) ;
#214 = EDGE_CURVE ( 'NONE', #46, #28, #2, .T. ) ;
#215 = DIRECTION ( 'NONE',  ( -0.000000000000000000, -0.000000000000000000, -1.000000000000000000 ) ) ;
#216 = VERTEX_POINT ( 'NONE', #62 ) ;
#217 = AXIS2_PLACEMENT_3D ( 'NONE', #379, #293, #266 ) ;
#218 = DIRECTION ( 'NONE',  ( -0.000000000000000000, -0.000000000000000000, -1.000000000000000000 ) ) ;
#219 = ORIENTED_EDGE ( 'NONE', *, *, #236, .T. ) ;
#220 = AXIS2_PLACEMENT_3D ( 'NONE', #149, #376, #270 ) ;
#221 = CARTESIAN_POINT ( 'NONE',  ( 0.000000000000000000, 0.000000000000000000, 0.000000000000000000 ) ) ;
#222 = MANIFOLD_SOLID_BREP ( 'Odebrat vysunutím3', #194 ) ;
#223 = EDGE_LOOP ( 'NONE', ( #69, #39 ) ) ;
#224 = EDGE_CURVE ( 'NONE', #169, #237, #156, .T. ) ;
#225 = AXIS2_PLACEMENT_3D ( 'NONE', #283, #109, #190 ) ;
#226 = CALENDAR_DATE ( 2022, 8, 7 ) ;
#227 = ORIENTED_EDGE ( 'NONE', *, *, #113, .F. ) ;
#228 = APPROVAL_ROLE ( '' ) ;
#229 = AXIS2_PLACEMENT_3D ( 'NONE', #1, #215, #271 ) ;
#230 = DIRECTION ( 'NONE',  ( -0.000000000000000000, -0.000000000000000000, -1.000000000000000000 ) ) ;
#231 = DATE_AND_TIME ( #226, #303 ) ;
#232 = PERSON_AND_ORGANIZATION ( #209, #212 ) ;
#233 = DIRECTION ( 'NONE',  ( 1.000000000000000000, 0.000000000000000000, 0.000000000000000000 ) ) ;
#234 = PERSON_AND_ORGANIZATION ( #209, #212 ) ;
#235 = ORIENTED_EDGE ( 'NONE', *, *, #15, .F. ) ;
#236 = EDGE_CURVE ( 'NONE', #165, #95, #70, .T. ) ;
#237 = VERTEX_POINT ( 'NONE', #250 ) ;
#238 = DIRECTION ( 'NONE',  ( 0.000000000000000000, 0.000000000000000000, -1.000000000000000000 ) ) ;
#239 = CARTESIAN_POINT ( 'NONE',  ( 0.000000000000000000, 0.000000000000000000, 78.00000000000000000 ) ) ;
#240 = ADVANCED_FACE ( 'NONE', ( #337 ), #31, .T. ) ;
#241 = CARTESIAN_POINT ( 'NONE',  ( 2.000000000000000000, 2.449293598294706414E-16, 3.299999999999997158 ) ) ;
#242 = CIRCLE ( 'NONE', #225, 4.000000000000000000 ) ;
#243 = DIRECTION ( 'NONE',  ( 1.000000000000000000, 0.000000000000000000, -0.000000000000000000 ) ) ;
#244 = CC_DESIGN_PERSON_AND_ORGANIZATION_ASSIGNMENT ( #108, #366, ( #368 ) ) ;
#245 = CIRCLE ( 'NONE', #220, 1.000000000000000000 ) ;
#246 = CARTESIAN_POINT ( 'NONE',  ( 0.000000000000000000, 0.000000000000000000, 3.000000000000000000 ) ) ;
#247 = AXIS2_PLACEMENT_3D ( 'NONE', #260, #110, #372 ) ;
#248 = DIRECTION ( 'NONE',  ( 0.000000000000000000, 0.000000000000000000, -1.000000000000000000 ) ) ;
#249 = EDGE_LOOP ( 'NONE', ( #26, #317, #30, #302 ) ) ;
#250 = CARTESIAN_POINT ( 'NONE',  ( -2.000000000000000000, 0.000000000000000000, 3.299999999999997158 ) ) ;
#251 = ORIENTED_EDGE ( 'NONE', *, *, #269, .F. ) ;
#252 = EDGE_LOOP ( 'NONE', ( #43, #13, #300, #107 ) ) ;
#253 = ORIENTED_EDGE ( 'NONE', *, *, #312, .T. ) ;
#254 = APPROVAL ( #342, 'NEURÈENÝ' ) ;
#255 = APPROVAL_DATE_TIME ( #134, #254 ) ;
#256 = ORIENTED_EDGE ( 'NONE', *, *, #130, .T. ) ;
#257 = PERSON_AND_ORGANIZATION ( #209, #212 ) ;
#258 = ORIENTED_EDGE ( 'NONE', *, *, #295, .T. ) ;
#259 = DATE_TIME_ROLE ( 'classification_date' ) ;
#260 = CARTESIAN_POINT ( 'NONE',  ( 0.000000000000000000, 0.000000000000000000, 3.000000000000000000 ) ) ;
#261 = CYLINDRICAL_SURFACE ( 'NONE', #247, 4.000000000000000000 ) ;
#262 = AXIS2_PLACEMENT_3D ( 'NONE', #204, #322, #174 ) ;
#263 = CIRCLE ( 'NONE', #329, 1.000000000000000000 ) ;
#264 = DIRECTION ( 'NONE',  ( 0.000000000000000000, 0.000000000000000000, 1.000000000000000000 ) ) ;
#265 = EDGE_CURVE ( 'NONE', #76, #46, #53, .T. ) ;
#266 = DIRECTION ( 'NONE',  ( 1.000000000000000000, 0.000000000000000000, 0.000000000000000000 ) ) ;
#267 = AXIS2_PLACEMENT_3D ( 'NONE', #125, #248, #360 ) ;
#268 = DIRECTION ( 'NONE',  ( 1.000000000000000000, 0.000000000000000000, 0.000000000000000000 ) ) ;
#269 = EDGE_CURVE ( 'NONE', #41, #321, #356, .T. ) ;
#270 = DIRECTION ( 'NONE',  ( 1.000000000000000000, 0.000000000000000000, 0.000000000000000000 ) ) ;
#271 = DIRECTION ( 'NONE',  ( 1.000000000000000000, 0.000000000000000000, 0.000000000000000000 ) ) ;
#272 = DIRECTION ( 'NONE',  ( 0.000000000000000000, 0.000000000000000000, 1.000000000000000000 ) ) ;
#273 = CYLINDRICAL_SURFACE ( 'NONE', #267, 1.000000000000000000 ) ;
#274 = CC_DESIGN_PERSON_AND_ORGANIZATION_ASSIGNMENT ( #40, #164, ( #35 ) ) ;
#275 = DIRECTION ( 'NONE',  ( -0.000000000000000000, -0.000000000000000000, -1.000000000000000000 ) ) ;
#276 = AXIS2_PLACEMENT_3D ( 'NONE', #172, #22, #294 ) ;
#277 = APPROVAL_PERSON_ORGANIZATION ( #234, #124, #80 ) ;
#278 = CYLINDRICAL_SURFACE ( 'NONE', #206, 2.000000000000000000 ) ;
#279 = EDGE_LOOP ( 'NONE', ( #131, #291 ) ) ;
#280 = AXIS2_PLACEMENT_3D ( 'NONE', #350, #144, #47 ) ;
#281 = DESIGN_CONTEXT ( 'detailed design', #85, 'design' ) ;
#282 = COORDINATED_UNIVERSAL_TIME_OFFSET ( 1, 0, .AHEAD. ) ;
#283 = CARTESIAN_POINT ( 'NONE',  ( 0.000000000000000000, 0.000000000000000000, 3.000000000000000000 ) ) ;
#284 = CIRCLE ( 'NONE', #276, 1.000000000000000000 ) ;
#285 = DIRECTION ( 'NONE',  ( 1.000000000000000000, 0.000000000000000000, 0.000000000000000000 ) ) ;
#286 = ORIENTED_EDGE ( 'NONE', *, *, #166, .F. ) ;
#287 = ORIENTED_EDGE ( 'NONE', *, *, #265, .T. ) ;
#288 = AXIS2_PLACEMENT_3D ( 'NONE', #178, #298, #243 ) ;
#289 = ADVANCED_FACE ( 'NONE', ( #150 ), #278, .T. ) ;
#290 = DATE_AND_TIME ( #168, #104 ) ;
#291 = ORIENTED_EDGE ( 'NONE', *, *, #5, .T. ) ;
#292 = AXIS2_PLACEMENT_3D ( 'NONE', #213, #308, #96 ) ;
#293 = DIRECTION ( 'NONE',  ( 0.000000000000000000, 0.000000000000000000, 1.000000000000000000 ) ) ;
#294 = DIRECTION ( 'NONE',  ( 1.000000000000000000, 0.000000000000000000, 0.000000000000000000 ) ) ;
#295 = EDGE_CURVE ( 'NONE', #76, #167, #330, .T. ) ;
#296 = DIRECTION ( 'NONE',  ( 0.000000000000000000, 0.000000000000000000, 1.000000000000000000 ) ) ;
#297 = CARTESIAN_POINT ( 'NONE',  ( -1.000000000000000000, 0.000000000000000000, 78.00000000000000000 ) ) ;
#298 = DIRECTION ( 'NONE',  ( 0.000000000000000000, 0.000000000000000000, 1.000000000000000000 ) ) ;
#299 = CARTESIAN_POINT ( 'NONE',  ( 0.000000000000000000, 0.000000000000000000, 0.000000000000000000 ) ) ;
#300 = ORIENTED_EDGE ( 'NONE', *, *, #117, .T. ) ;
#301 = DIRECTION ( 'NONE',  ( -0.000000000000000000, -0.000000000000000000, -1.000000000000000000 ) ) ;
#302 = ORIENTED_EDGE ( 'NONE', *, *, #102, .T. ) ;
#303 = LOCAL_TIME ( 17, 55, 47.00000000000000000, #7 ) ;
#304 = DIRECTION ( 'NONE',  ( -1.000000000000000000, 0.000000000000000000, 0.000000000000000000 ) ) ;
#305 = ADVANCED_FACE ( 'NONE', ( #33, #179 ), #122, .F. ) ;
#306 = APPLICATION_CONTEXT ( 'configuration controlled 3d designs of mechanical parts and assemblies' ) ;
#307 = DIRECTION ( 'NONE',  ( 0.000000000000000000, 0.000000000000000000, 1.000000000000000000 ) ) ;
#308 = DIRECTION ( 'NONE',  ( 0.000000000000000000, 0.000000000000000000, 1.000000000000000000 ) ) ;
#309 = ORIENTED_EDGE ( 'NONE', *, *, #166, .T. ) ;
#310 = CIRCLE ( 'NONE', #211, 0.2999999999999999334 ) ;
#311 = CC_DESIGN_APPROVAL ( #254, ( #35 ) ) ;
#312 = EDGE_CURVE ( 'NONE', #216, #321, #319, .T. ) ;
#313 = PERSON_AND_ORGANIZATION ( #209, #212 ) ;
#314 = ORIENTED_EDGE ( 'NONE', *, *, #176, .T. ) ;
#315 = CARTESIAN_POINT ( 'NONE',  ( 1.000000000000000000, 1.224646799147353207E-16, 78.00000000000000000 ) ) ;
#316 = PERSON_AND_ORGANIZATION_ROLE ( 'design_owner' ) ;
#317 = ORIENTED_EDGE ( 'NONE', *, *, #55, .F. ) ;
#318 = CALENDAR_DATE ( 2022, 8, 7 ) ;
#319 = CIRCLE ( 'NONE', #229, 1.000000000000000000 ) ;
#320 = CARTESIAN_POINT ( 'NONE',  ( 0.000000000000000000, 0.000000000000000000, 0.000000000000000000 ) ) ;
#321 = VERTEX_POINT ( 'NONE', #93 ) ;
#322 = DIRECTION ( 'NONE',  ( 1.224646799147353207E-16, 1.000000000000000000, -0.000000000000000000 ) ) ;
#323 = APPROVAL ( #38, 'NEURÈENÝ' ) ;
#324 = CARTESIAN_POINT ( 'NONE',  ( 2.299999999999999822, 0.000000000000000000, 2.999999999999998668 ) ) ;
#325 = FACE_OUTER_BOUND ( 'NONE', #98, .T. ) ;
#326 = DIRECTION ( 'NONE',  ( 1.000000000000000000, 0.000000000000000000, 0.000000000000000000 ) ) ;
#327 = CYLINDRICAL_SURFACE ( 'NONE', #66, 1.000000000000000000 ) ;
#328 = AXIS2_PLACEMENT_3D ( 'NONE', #121, #218, #3 ) ;
#329 = AXIS2_PLACEMENT_3D ( 'NONE', #380, #307, #362 ) ;
#330 = LINE ( 'NONE', #65, #183 ) ;
#331 = EDGE_LOOP ( 'NONE', ( #364, #160 ) ) ;
#332 = CC_DESIGN_PERSON_AND_ORGANIZATION_ASSIGNMENT ( #257, #369, ( #35 ) ) ;
#333 = DIRECTION ( 'NONE',  ( 1.000000000000000000, 0.000000000000000000, -0.000000000000000000 ) ) ;
#334 = CARTESIAN_POINT ( 'NONE',  ( 4.000000000000000000, 4.898587196589412829E-16, 3.000000000000000000 ) ) ;
#335 = VERTEX_POINT ( 'NONE', #184 ) ;
#336 = AXIS2_PLACEMENT_3D ( 'NONE', #18, #264, #355 ) ;
#337 = FACE_OUTER_BOUND ( 'NONE', #162, .T. ) ;
#338 = VERTEX_POINT ( 'NONE', #129 ) ;
#339 = ADVANCED_FACE ( 'NONE', ( #25 ), #273, .F. ) ;
#340 = DIRECTION ( 'NONE',  ( 0.000000000000000000, 0.000000000000000000, 1.000000000000000000 ) ) ;
#341 = ORIENTED_EDGE ( 'NONE', *, *, #214, .T. ) ;
#342 = APPROVAL_STATUS ( 'not_yet_approved' ) ;
#343 = ORIENTED_EDGE ( 'NONE', *, *, #82, .T. ) ;
#344 = DATE_TIME_ROLE ( 'creation_date' ) ;
#345 = APPROVAL_STATUS ( 'not_yet_approved' ) ;
#346 = CC_DESIGN_APPROVAL ( #124, ( #189 ) ) ;
#347 = ORIENTED_EDGE ( 'NONE', *, *, #102, .F. ) ;
#348 = EDGE_LOOP ( 'NONE', ( #347, #123, #197, #34 ) ) ;
#349 = FACE_OUTER_BOUND ( 'NONE', #279, .T. ) ;
#350 = CARTESIAN_POINT ( 'NONE',  ( 0.000000000000000000, 0.000000000000000000, 3.000000000000000000 ) ) ;
#351 = LOCAL_TIME ( 17, 55, 47.00000000000000000, #198 ) ;
#352 = FACE_OUTER_BOUND ( 'NONE', #348, .T. ) ;
#353 = SHAPE_DEFINITION_REPRESENTATION ( #133, #173 ) ;
#354 = CIRCLE ( 'NONE', #217, 2.000000000000000000 ) ;
#355 = DIRECTION ( 'NONE',  ( 1.000000000000000000, 0.000000000000000000, -0.000000000000000000 ) ) ;
#356 = LINE ( 'NONE', #27, #115 ) ;
#357 = CIRCLE ( 'NONE', #92, 4.000000000000000000 ) ;
#358 = CC_DESIGN_DATE_AND_TIME_ASSIGNMENT ( #138, #259, ( #189 ) ) ;
#359 = CARTESIAN_POINT ( 'NONE',  ( 0.000000000000000000, 0.000000000000000000, 78.00000000000000000 ) ) ;
#360 = DIRECTION ( 'NONE',  ( -1.000000000000000000, 0.000000000000000000, 0.000000000000000000 ) ) ;
#361 = TOROIDAL_SURFACE ( 'NONE', #177, 2.299999999999999822, 0.2999999999999999889 ) ;
#362 = DIRECTION ( 'NONE',  ( 1.000000000000000000, 0.000000000000000000, 0.000000000000000000 ) ) ;
#363 = EDGE_CURVE ( 'NONE', #335, #41, #263, .T. ) ;
#364 = ORIENTED_EDGE ( 'NONE', *, *, #363, .F. ) ;
#365 = ORIENTED_EDGE ( 'NONE', *, *, #15, .T. ) ;
#366 = PERSON_AND_ORGANIZATION_ROLE ( 'creator' ) ;
#367 = CARTESIAN_POINT ( 'NONE',  ( 0.000000000000000000, 0.000000000000000000, 78.00000000000000000 ) ) ;
#368 = PRODUCT_DEFINITION ( 'NEZNÁMÝ', '', #35, #281 ) ;
#369 = PERSON_AND_ORGANIZATION_ROLE ( 'design_supplier' ) ;
#370 = DIRECTION ( 'NONE',  ( 0.000000000000000000, 0.000000000000000000, 1.000000000000000000 ) ) ;
#371 = AXIS2_PLACEMENT_3D ( 'NONE', #142, #19, #268 ) ;
#372 = DIRECTION ( 'NONE',  ( -1.000000000000000000, 0.000000000000000000, 0.000000000000000000 ) ) ;
#373 = AXIS2_PLACEMENT_3D ( 'NONE', #320, #340, #285 ) ;
#374 = EDGE_LOOP ( 'NONE', ( #8, #154 ) ) ;
#375 = CC_DESIGN_PERSON_AND_ORGANIZATION_ASSIGNMENT ( #195, #316, ( #193 ) ) ;
#376 = DIRECTION ( 'NONE',  ( -0.000000000000000000, -0.000000000000000000, -1.000000000000000000 ) ) ;
#377 = FACE_OUTER_BOUND ( 'NONE', #137, .T. ) ;
#378 = LINE ( 'NONE', #297, #91 ) ;
#379 = CARTESIAN_POINT ( 'NONE',  ( 0.000000000000000000, 0.000000000000000000, 3.299999999999997158 ) ) ;
#380 = CARTESIAN_POINT ( 'NONE',  ( 0.000000000000000000, 0.000000000000000000, 78.00000000000000000 ) ) ;
#381 = AXIS2_PLACEMENT_3D ( 'NONE', #221, #272, #333 ) ;
ENDSEC;
END-ISO-10303-21;
