ISO-10303-21;
HEADER;
FILE_DESCRIPTION (( 'STEP AP203' ),
    '1' );
FILE_NAME ('48d3.STEP',
    '2022-07-08T14:48:39',
    ( '' ),
    ( '' ),
    'SwSTEP 2.0',
    'SolidWorks 2019',
    '' );
FILE_SCHEMA (( 'CONFIG_CONTROL_DESIGN' ));
ENDSEC;

DATA;
#1 = PRODUCT_DEFINITION_SHAPE ( 'NONE', 'NONE',  #314 ) ;
#2 = EDGE_CURVE ( 'NONE', #138, #348, #119, .T. ) ;
#3 = AXIS2_PLACEMENT_3D ( 'NONE', #226, #286, #25 ) ;
#4 = EDGE_CURVE ( 'NONE', #36, #42, #235, .T. ) ;
#5 = VERTEX_POINT ( 'NONE', #121 ) ;
#6 = CARTESIAN_POINT ( 'NONE',  ( 0.000000000000000000, 0.000000000000000000, 5.000000000000000000 ) ) ;
#7 = EDGE_CURVE ( 'NONE', #283, #86, #377, .T. ) ;
#8 = CYLINDRICAL_SURFACE ( 'NONE', #246, 8.000000000000000000 ) ;
#9 = ORIENTED_EDGE ( 'NONE', *, *, #2, .F. ) ;
#10 = CARTESIAN_POINT ( 'NONE',  ( 0.000000000000000000, 0.000000000000000000, 0.000000000000000000 ) ) ;
#11 = PERSON_AND_ORGANIZATION ( #272, #120 ) ;
#12 = CARTESIAN_POINT ( 'NONE',  ( 0.000000000000000000, 0.000000000000000000, 5.000000000000000000 ) ) ;
#13 = FACE_OUTER_BOUND ( 'NONE', #158, .T. ) ;
#14 = VERTEX_POINT ( 'NONE', #70 ) ;
#15 = DIRECTION ( 'NONE',  ( -0.000000000000000000, -0.000000000000000000, -1.000000000000000000 ) ) ;
#16 = CALENDAR_DATE ( 2022, 8, 7 ) ;
#17 = VERTEX_POINT ( 'NONE', #278 ) ;
#18 = CARTESIAN_POINT ( 'NONE',  ( 5.500000000000000000, 0.000000000000000000, 4.999999999999975131 ) ) ;
#19 = CARTESIAN_POINT ( 'NONE',  ( 0.000000000000000000, 0.000000000000000000, 655.0000000000000000 ) ) ;
#20 = PERSON_AND_ORGANIZATION ( #272, #120 ) ;
#21 = ORIENTED_EDGE ( 'NONE', *, *, #50, .F. ) ;
#22 = CARTESIAN_POINT ( 'NONE',  ( 0.000000000000000000, 0.000000000000000000, 655.0000000000000000 ) ) ;
#23 = PERSON_AND_ORGANIZATION_ROLE ( 'design_supplier' ) ;
#24 = ORIENTED_EDGE ( 'NONE', *, *, #29, .F. ) ;
#25 = DIRECTION ( 'NONE',  ( 1.000000000000000000, 0.000000000000000000, 0.000000000000000000 ) ) ;
#26 = DIRECTION ( 'NONE',  ( 0.000000000000000000, -1.000000000000000000, 0.000000000000000000 ) ) ;
#27 = AXIS2_PLACEMENT_3D ( 'NONE', #362, #100, #305 ) ;
#28 = DIRECTION ( 'NONE',  ( 0.000000000000000000, 0.000000000000000000, -1.000000000000000000 ) ) ;
#29 = EDGE_CURVE ( 'NONE', #36, #130, #274, .T. ) ;
#30 = EDGE_CURVE ( 'NONE', #304, #14, #181, .T. ) ;
#31 = AXIS2_PLACEMENT_3D ( 'NONE', #71, #279, #137 ) ;
#32 = CC_DESIGN_APPROVAL ( #206, ( #267 ) ) ;
#33 = AXIS2_PLACEMENT_3D ( 'NONE', #37, #205, #47 ) ;
#34 = APPROVAL_PERSON_ORGANIZATION ( #173, #206, #88 ) ;
#35 = EDGE_CURVE ( 'NONE', #379, #179, #66, .T. ) ;
#36 = VERTEX_POINT ( 'NONE', #303 ) ;
#37 = CARTESIAN_POINT ( 'NONE',  ( 0.000000000000000000, 0.000000000000000000, 0.000000000000000000 ) ) ;
#38 = AXIS2_PLACEMENT_3D ( 'NONE', #111, #352, #374 ) ;
#39 = DIRECTION ( 'NONE',  ( 1.000000000000000000, 0.000000000000000000, 0.000000000000000000 ) ) ;
#40 = DIRECTION ( 'NONE',  ( -1.000000000000000000, 0.000000000000000000, 0.000000000000000000 ) ) ;
#41 = CARTESIAN_POINT ( 'NONE',  ( 3.100000000000000089, 3.796405077356794918E-16, 0.000000000000000000 ) ) ;
#42 = VERTEX_POINT ( 'NONE', #367 ) ;
#43 = DIRECTION ( 'NONE',  ( -1.000000000000000000, 0.000000000000000000, 0.000000000000000000 ) ) ;
#44 = APPLICATION_CONTEXT ( 'configuration controlled 3d designs of mechanical parts and assemblies' ) ;
#45 = LINE ( 'NONE', #139, #135 ) ;
#46 = EDGE_LOOP ( 'NONE', ( #343, #188, #318, #113 ) ) ;
#47 = DIRECTION ( 'NONE',  ( 1.000000000000000000, 0.000000000000000000, 0.000000000000000000 ) ) ;
#48 = CARTESIAN_POINT ( 'NONE',  ( -5.500000000000000000, 6.735557395310442023E-16, 4.999999999999975131 ) ) ;
#49 = APPROVAL_STATUS ( 'not_yet_approved' ) ;
#50 = EDGE_CURVE ( 'NONE', #17, #197, #358, .T. ) ;
#51 = FACE_OUTER_BOUND ( 'NONE', #77, .T. ) ;
#52 = COORDINATED_UNIVERSAL_TIME_OFFSET ( 1, 0, .AHEAD. ) ;
#53 = ORIENTED_EDGE ( 'NONE', *, *, #331, .T. ) ;
#54 = DIRECTION ( 'NONE',  ( 1.000000000000000000, 0.000000000000000000, -0.000000000000000000 ) ) ;
#55 = MECHANICAL_CONTEXT ( 'NONE', #376, 'mechanical' ) ;
#56 = CC_DESIGN_PERSON_AND_ORGANIZATION_ASSIGNMENT ( #289, #23, ( #172 ) ) ;
#57 = DIRECTION ( 'NONE',  ( 1.000000000000000000, 0.000000000000000000, 0.000000000000000000 ) ) ;
#58 = DATE_AND_TIME ( #296, #60 ) ;
#59 = AXIS2_PLACEMENT_3D ( 'NONE', #122, #360, #40 ) ;
#60 = LOCAL_TIME ( 16, 48, 39.00000000000000000, #265 ) ;
#61 = PRODUCT ( '48d3', '48d3', '', ( #55 ) ) ;
#62 = DATE_AND_TIME ( #350, #93 ) ;
#63 = SHAPE_DEFINITION_REPRESENTATION ( #1, #67 ) ;
#64 = APPROVAL_DATE_TIME ( #58, #206 ) ;
#65 = CIRCLE ( 'NONE', #151, 5.000000000000000000 ) ;
#66 = CIRCLE ( 'NONE', #33, 3.100000000000000089 ) ;
#67 = ADVANCED_BREP_SHAPE_REPRESENTATION ( '48d3', ( #234, #368 ), #96 ) ;
#68 = ORIENTED_EDGE ( 'NONE', *, *, #4, .T. ) ;
#69 = CARTESIAN_POINT ( 'NONE',  ( 0.000000000000000000, 0.000000000000000000, 5.000000000000000000 ) ) ;
#70 = CARTESIAN_POINT ( 'NONE',  ( 3.100000000000000089, 3.796405077356794918E-16, 655.0000000000000000 ) ) ;
#71 = CARTESIAN_POINT ( 'NONE',  ( 0.000000000000000000, 0.000000000000000000, 5.000000000000000000 ) ) ;
#72 =( NAMED_UNIT ( * ) SI_UNIT ( $, .STERADIAN. ) SOLID_ANGLE_UNIT ( ) );
#73 = ORIENTED_EDGE ( 'NONE', *, *, #7, .F. ) ;
#74 = FACE_BOUND ( 'NONE', #361, .T. ) ;
#75 = ORIENTED_EDGE ( 'NONE', *, *, #146, .F. ) ;
#76 = DIRECTION ( 'NONE',  ( -0.000000000000000000, -0.000000000000000000, -1.000000000000000000 ) ) ;
#77 = EDGE_LOOP ( 'NONE', ( #302, #219, #252, #155 ) ) ;
#78 = LINE ( 'NONE', #106, #123 ) ;
#79 = DATE_TIME_ROLE ( 'creation_date' ) ;
#80 = DIRECTION ( 'NONE',  ( 0.000000000000000000, 0.000000000000000000, 1.000000000000000000 ) ) ;
#81 = AXIS2_PLACEMENT_3D ( 'NONE', #145, #264, #253 ) ;
#82 = ADVANCED_FACE ( 'NONE', ( #13 ), #8, .T. ) ;
#83 = ORIENTED_EDGE ( 'NONE', *, *, #2, .T. ) ;
#84 = CARTESIAN_POINT ( 'NONE',  ( 0.000000000000000000, 0.000000000000000000, 5.000000000000000000 ) ) ;
#85 = COORDINATED_UNIVERSAL_TIME_OFFSET ( 1, 0, .AHEAD. ) ;
#86 = VERTEX_POINT ( 'NONE', #18 ) ;
#87 = DIRECTION ( 'NONE',  ( 0.000000000000000000, 0.000000000000000000, -1.000000000000000000 ) ) ;
#88 = APPROVAL_ROLE ( '' ) ;
#89 = ADVANCED_FACE ( 'NONE', ( #184 ), #156, .T. ) ;
#90 = TOROIDAL_SURFACE ( 'NONE', #326, 5.500000000000000000, 0.5000000000000000000 ) ;
#91 = APPROVAL_STATUS ( 'not_yet_approved' ) ;
#92 = CLOSED_SHELL ( 'NONE', ( #233, #117, #243, #89, #82, #254, #175, #325, #223, #297, #201 ) ) ;
#93 = LOCAL_TIME ( 16, 48, 39.00000000000000000, #227 ) ;
#94 = PRODUCT_RELATED_PRODUCT_CATEGORY ( 'detail', '', ( #61 ) ) ;
#95 = CIRCLE ( 'NONE', #81, 3.100000000000000089 ) ;
#96 =( GEOMETRIC_REPRESENTATION_CONTEXT ( 3 ) GLOBAL_UNCERTAINTY_ASSIGNED_CONTEXT ( ( #373 ) ) GLOBAL_UNIT_ASSIGNED_CONTEXT ( ( #213, #157, #72 ) ) REPRESENTATION_CONTEXT ( 'NONE', 'WORKASPACE' ) );
#97 = EDGE_LOOP ( 'NONE', ( #9, #161, #101, #176 ) ) ;
#98 = CARTESIAN_POINT ( 'NONE',  ( 0.000000000000000000, 0.000000000000000000, 655.0000000000000000 ) ) ;
#99 = ORIENTED_EDGE ( 'NONE', *, *, #30, .F. ) ;
#100 = DIRECTION ( 'NONE',  ( 0.000000000000000000, 0.000000000000000000, 1.000000000000000000 ) ) ;
#101 = ORIENTED_EDGE ( 'NONE', *, *, #50, .T. ) ;
#102 = CARTESIAN_POINT ( 'NONE',  ( 0.000000000000000000, 0.000000000000000000, 5.499999999999949374 ) ) ;
#103 = DIRECTION ( 'NONE',  ( 1.000000000000000000, 0.000000000000000000, 0.000000000000000000 ) ) ;
#104 = LINE ( 'NONE', #150, #116 ) ;
#105 = EDGE_LOOP ( 'NONE', ( #259, #21, #109, #73 ) ) ;
#106 = CARTESIAN_POINT ( 'NONE',  ( 5.000000000000000000, 6.123233995736766282E-16, 655.0000000000000000 ) ) ;
#107 = EDGE_CURVE ( 'NONE', #14, #379, #251, .T. ) ;
#108 = FACE_OUTER_BOUND ( 'NONE', #46, .T. ) ;
#109 = ORIENTED_EDGE ( 'NONE', *, *, #338, .T. ) ;
#110 = CARTESIAN_POINT ( 'NONE',  ( 0.000000000000000000, 0.000000000000000000, 655.0000000000000000 ) ) ;
#111 = CARTESIAN_POINT ( 'NONE',  ( 0.000000000000000000, 0.000000000000000000, 5.499999999999949374 ) ) ;
#112 = PERSON_AND_ORGANIZATION_ROLE ( 'classification_officer' ) ;
#113 = ORIENTED_EDGE ( 'NONE', *, *, #258, .T. ) ;
#114 = CYLINDRICAL_SURFACE ( 'NONE', #299, 5.000000000000000000 ) ;
#115 = CARTESIAN_POINT ( 'NONE',  ( -5.000000000000000000, 0.000000000000000000, 655.0000000000000000 ) ) ;
#116 = VECTOR ( 'NONE', #76, 1000.000000000000000 ) ;
#117 = ADVANCED_FACE ( 'NONE', ( #216 ), #90, .F. ) ;
#118 = EDGE_CURVE ( 'NONE', #14, #304, #328, .T. ) ;
#119 = CIRCLE ( 'NONE', #300, 5.000000000000000000 ) ;
#120 = ORGANIZATION ( 'NEURÈENÝ', 'NEURÈENÝ', '' ) ;
#121 = CARTESIAN_POINT ( 'NONE',  ( 8.000000000000000000, 9.797174393178825657E-16, 0.000000000000000000 ) ) ;
#122 = CARTESIAN_POINT ( 'NONE',  ( 0.000000000000000000, 0.000000000000000000, 655.0000000000000000 ) ) ;
#123 = VECTOR ( 'NONE', #170, 1000.000000000000000 ) ;
#124 = DIRECTION ( 'NONE',  ( -0.000000000000000000, -0.000000000000000000, -1.000000000000000000 ) ) ;
#125 = DIRECTION ( 'NONE',  ( -1.000000000000000000, 1.224646799147351482E-16, 0.000000000000000000 ) ) ;
#126 = EDGE_CURVE ( 'NONE', #348, #197, #104, .T. ) ;
#127 = CARTESIAN_POINT ( 'NONE',  ( -8.000000000000000000, 0.000000000000000000, 5.000000000000000000 ) ) ;
#128 = DIRECTION ( 'NONE',  ( 0.000000000000000000, 0.000000000000000000, 1.000000000000000000 ) ) ;
#129 = CARTESIAN_POINT ( 'NONE',  ( 0.000000000000000000, 0.000000000000000000, 0.000000000000000000 ) ) ;
#130 = VERTEX_POINT ( 'NONE', #210 ) ;
#131 = CARTESIAN_POINT ( 'NONE',  ( 3.100000000000000089, 3.796405077356794918E-16, 655.0000000000000000 ) ) ;
#132 = AXIS2_PLACEMENT_3D ( 'NONE', #198, #380, #261 ) ;
#133 = DIRECTION ( 'NONE',  ( 0.000000000000000000, 0.000000000000000000, 1.000000000000000000 ) ) ;
#134 = DATE_AND_TIME ( #16, #263 ) ;
#135 = VECTOR ( 'NONE', #371, 1000.000000000000000 ) ;
#136 = EDGE_LOOP ( 'NONE', ( #340, #351, #321, #215 ) ) ;
#137 = DIRECTION ( 'NONE',  ( -1.000000000000000000, 0.000000000000000000, 0.000000000000000000 ) ) ;
#138 = VERTEX_POINT ( 'NONE', #208 ) ;
#139 = CARTESIAN_POINT ( 'NONE',  ( 8.000000000000000000, 9.797174393178825657E-16, 5.000000000000000000 ) ) ;
#140 = DIRECTION ( 'NONE',  ( -0.000000000000000000, -0.000000000000000000, -1.000000000000000000 ) ) ;
#141 = SECURITY_CLASSIFICATION_LEVEL ( 'unclassified' ) ;
#142 = ORIENTED_EDGE ( 'NONE', *, *, #338, .F. ) ;
#143 = DIRECTION ( 'NONE',  ( 1.000000000000000000, 0.000000000000000000, 0.000000000000000000 ) ) ;
#144 = CIRCLE ( 'NONE', #231, 8.000000000000000000 ) ;
#145 = CARTESIAN_POINT ( 'NONE',  ( 0.000000000000000000, 0.000000000000000000, 0.000000000000000000 ) ) ;
#146 = EDGE_CURVE ( 'NONE', #130, #36, #335, .T. ) ;
#147 = LOCAL_TIME ( 16, 48, 39.00000000000000000, #85 ) ;
#148 = EDGE_CURVE ( 'NONE', #197, #283, #191, .T. ) ;
#149 = ORIENTED_EDGE ( 'NONE', *, *, #258, .F. ) ;
#150 = CARTESIAN_POINT ( 'NONE',  ( -5.000000000000000000, 0.000000000000000000, 655.0000000000000000 ) ) ;
#151 = AXIS2_PLACEMENT_3D ( 'NONE', #349, #80, #163 ) ;
#152 = CARTESIAN_POINT ( 'NONE',  ( 0.000000000000000000, 0.000000000000000000, 655.0000000000000000 ) ) ;
#153 = CYLINDRICAL_SURFACE ( 'NONE', #59, 3.100000000000000089 ) ;
#154 = APPROVAL_STATUS ( 'not_yet_approved' ) ;
#155 = ORIENTED_EDGE ( 'NONE', *, *, #295, .T. ) ;
#156 = CYLINDRICAL_SURFACE ( 'NONE', #31, 8.000000000000000000 ) ;
#157 =( NAMED_UNIT ( * ) PLANE_ANGLE_UNIT ( ) SI_UNIT ( $, .RADIAN. ) );
#158 = EDGE_LOOP ( 'NONE', ( #228, #24, #68, #329 ) ) ;
#159 = CARTESIAN_POINT ( 'NONE',  ( -3.100000000000000089, 0.000000000000000000, 0.000000000000000000 ) ) ;
#160 = CC_DESIGN_PERSON_AND_ORGANIZATION_ASSIGNMENT ( #20, #345, ( #172 ) ) ;
#161 = ORIENTED_EDGE ( 'NONE', *, *, #266, .T. ) ;
#162 = AXIS2_PLACEMENT_3D ( 'NONE', #110, #87, #169 ) ;
#163 = DIRECTION ( 'NONE',  ( 1.000000000000000000, 0.000000000000000000, 0.000000000000000000 ) ) ;
#164 = COORDINATED_UNIVERSAL_TIME_OFFSET ( 1, 0, .AHEAD. ) ;
#165 = APPROVAL_PERSON_ORGANIZATION ( #190, #178, #196 ) ;
#166 = CYLINDRICAL_SURFACE ( 'NONE', #162, 3.100000000000000089 ) ;
#167 = CALENDAR_DATE ( 2022, 8, 7 ) ;
#168 = ORIENTED_EDGE ( 'NONE', *, *, #29, .T. ) ;
#169 = DIRECTION ( 'NONE',  ( -1.000000000000000000, 0.000000000000000000, 0.000000000000000000 ) ) ;
#170 = DIRECTION ( 'NONE',  ( -0.000000000000000000, -0.000000000000000000, -1.000000000000000000 ) ) ;
#171 = AXIS2_PLACEMENT_3D ( 'NONE', #152, #364, #103 ) ;
#172 = PRODUCT_DEFINITION_FORMATION_WITH_SPECIFIED_SOURCE ( 'LIBOVOLNÝ', '', #61, .NOT_KNOWN. ) ;
#173 = PERSON_AND_ORGANIZATION ( #272, #120 ) ;
#174 = AXIS2_PLACEMENT_3D ( 'NONE', #98, #372, #187 ) ;
#175 = ADVANCED_FACE ( 'NONE', ( #74, #240 ), #242, .F. ) ;
#176 = ORIENTED_EDGE ( 'NONE', *, *, #126, .F. ) ;
#177 = DIRECTION ( 'NONE',  ( 0.000000000000000000, 0.000000000000000000, 1.000000000000000000 ) ) ;
#178 = APPROVAL ( #49, 'NEURÈENÝ' ) ;
#179 = VERTEX_POINT ( 'NONE', #159 ) ;
#180 = DIRECTION ( 'NONE',  ( 1.000000000000000000, 0.000000000000000000, 0.000000000000000000 ) ) ;
#181 = CIRCLE ( 'NONE', #171, 3.100000000000000089 ) ;
#182 = AXIS2_PLACEMENT_3D ( 'NONE', #334, #312, #125 ) ;
#183 = ORIENTED_EDGE ( 'NONE', *, *, #7, .T. ) ;
#184 = FACE_OUTER_BOUND ( 'NONE', #280, .T. ) ;
#185 = PERSON_AND_ORGANIZATION_ROLE ( 'design_owner' ) ;
#186 = DIRECTION ( 'NONE',  ( 0.000000000000000000, 0.000000000000000000, 1.000000000000000000 ) ) ;
#187 = DIRECTION ( 'NONE',  ( 1.000000000000000000, 0.000000000000000000, 0.000000000000000000 ) ) ;
#188 = ORIENTED_EDGE ( 'NONE', *, *, #118, .T. ) ;
#189 = FACE_OUTER_BOUND ( 'NONE', #97, .T. ) ;
#190 = PERSON_AND_ORGANIZATION ( #272, #120 ) ;
#191 = CIRCLE ( 'NONE', #182, 0.5000000000000004441 ) ;
#192 = FACE_OUTER_BOUND ( 'NONE', #105, .T. ) ;
#193 = DIRECTION ( 'NONE',  ( 1.000000000000000000, 0.000000000000000000, 0.000000000000000000 ) ) ;
#194 = ORIENTED_EDGE ( 'NONE', *, *, #268, .T. ) ;
#195 = FACE_BOUND ( 'NONE', #369, .T. ) ;
#196 = APPROVAL_ROLE ( '' ) ;
#197 = VERTEX_POINT ( 'NONE', #284 ) ;
#198 = CARTESIAN_POINT ( 'NONE',  ( 0.000000000000000000, 0.000000000000000000, 655.0000000000000000 ) ) ;
#199 = AXIS2_PLACEMENT_3D ( 'NONE', #6, #124, #239 ) ;
#200 = AXIS2_PLACEMENT_3D ( 'NONE', #230, #26, #381 ) ;
#201 = ADVANCED_FACE ( 'NONE', ( #108 ), #153, .F. ) ;
#202 = CC_DESIGN_DATE_AND_TIME_ASSIGNMENT ( #134, #79, ( #314 ) ) ;
#203 = TOROIDAL_SURFACE ( 'NONE', #38, 5.500000000000000000, 0.5000000000000000000 ) ;
#204 = EDGE_LOOP ( 'NONE', ( #53, #183 ) ) ;
#205 = DIRECTION ( 'NONE',  ( -0.000000000000000000, -0.000000000000000000, -1.000000000000000000 ) ) ;
#206 = APPROVAL ( #91, 'NEURÈENÝ' ) ;
#207 = ORIENTED_EDGE ( 'NONE', *, *, #331, .F. ) ;
#208 = CARTESIAN_POINT ( 'NONE',  ( 5.000000000000000000, 6.123233995736766282E-16, 655.0000000000000000 ) ) ;
#209 = EDGE_LOOP ( 'NONE', ( #366, #248, #207, #142 ) ) ;
#210 = CARTESIAN_POINT ( 'NONE',  ( 8.000000000000000000, 9.797174393178825657E-16, 5.000000000000000000 ) ) ;
#211 = AXIS2_PLACEMENT_3D ( 'NONE', #12, #244, #39 ) ;
#212 = CIRCLE ( 'NONE', #200, 0.5000000000000004441 ) ;
#213 =( LENGTH_UNIT ( ) NAMED_UNIT ( * ) SI_UNIT ( .MILLI., .METRE. ) );
#214 = EDGE_CURVE ( 'NONE', #42, #5, #144, .T. ) ;
#215 = ORIENTED_EDGE ( 'NONE', *, *, #324, .F. ) ;
#216 = FACE_OUTER_BOUND ( 'NONE', #209, .T. ) ;
#217 = DIRECTION ( 'NONE',  ( 0.000000000000000000, 0.000000000000000000, 1.000000000000000000 ) ) ;
#218 = APPLICATION_PROTOCOL_DEFINITION ( 'international standard', 'config_control_design', 1994, #44 ) ;
#219 = ORIENTED_EDGE ( 'NONE', *, *, #268, .F. ) ;
#220 = DESIGN_CONTEXT ( 'detailed design', #44, 'design' ) ;
#221 = CARTESIAN_POINT ( 'NONE',  ( -3.100000000000000089, 0.000000000000000000, 655.0000000000000000 ) ) ;
#222 = APPLICATION_PROTOCOL_DEFINITION ( 'international standard', 'config_control_design', 1994, #376 ) ;
#223 = ADVANCED_FACE ( 'NONE', ( #195, #249 ), #370, .T. ) ;
#224 = ORIENTED_EDGE ( 'NONE', *, *, #4, .F. ) ;
#225 = AXIS2_PLACEMENT_3D ( 'NONE', #19, #217, #341 ) ;
#226 = CARTESIAN_POINT ( 'NONE',  ( 0.000000000000000000, 0.000000000000000000, 0.000000000000000000 ) ) ;
#227 = COORDINATED_UNIVERSAL_TIME_OFFSET ( 1, 0, .AHEAD. ) ;
#228 = ORIENTED_EDGE ( 'NONE', *, *, #363, .F. ) ;
#229 = FACE_OUTER_BOUND ( 'NONE', #136, .T. ) ;
#230 = CARTESIAN_POINT ( 'NONE',  ( 5.500000000000000000, 0.000000000000000000, 5.499999999999949374 ) ) ;
#231 = AXIS2_PLACEMENT_3D ( 'NONE', #10, #128, #57 ) ;
#232 = CC_DESIGN_PERSON_AND_ORGANIZATION_ASSIGNMENT ( #342, #282, ( #314 ) ) ;
#233 = ADVANCED_FACE ( 'NONE', ( #229 ), #166, .F. ) ;
#234 = MANIFOLD_SOLID_BREP ( 'Odebrat vysunutím3', #92 ) ;
#235 = LINE ( 'NONE', #127, #353 ) ;
#236 = CC_DESIGN_DATE_AND_TIME_ASSIGNMENT ( #62, #323, ( #267 ) ) ;
#237 = DIRECTION ( 'NONE',  ( 0.000000000000000000, 0.000000000000000000, 1.000000000000000000 ) ) ;
#238 = AXIS2_PLACEMENT_3D ( 'NONE', #319, #15, #344 ) ;
#239 = DIRECTION ( 'NONE',  ( 1.000000000000000000, 0.000000000000000000, 0.000000000000000000 ) ) ;
#240 = FACE_OUTER_BOUND ( 'NONE', #241, .T. ) ;
#241 = EDGE_LOOP ( 'NONE', ( #308, #333 ) ) ;
#242 = PLANE ( 'NONE',  #27 ) ;
#243 = ADVANCED_FACE ( 'NONE', ( #189 ), #281, .T. ) ;
#244 = DIRECTION ( 'NONE',  ( 0.000000000000000000, 0.000000000000000000, 1.000000000000000000 ) ) ;
#245 = DIRECTION ( 'NONE',  ( 0.000000000000000000, 0.000000000000000000, -1.000000000000000000 ) ) ;
#246 = AXIS2_PLACEMENT_3D ( 'NONE', #69, #330, #43 ) ;
#247 = CC_DESIGN_SECURITY_CLASSIFICATION ( #267, ( #172 ) ) ;
#248 = ORIENTED_EDGE ( 'NONE', *, *, #148, .T. ) ;
#249 = FACE_OUTER_BOUND ( 'NONE', #337, .T. ) ;
#250 = ORIENTED_EDGE ( 'NONE', *, *, #118, .F. ) ;
#251 = LINE ( 'NONE', #131, #285 ) ;
#252 = ORIENTED_EDGE ( 'NONE', *, *, #126, .T. ) ;
#253 = DIRECTION ( 'NONE',  ( 1.000000000000000000, 0.000000000000000000, 0.000000000000000000 ) ) ;
#254 = ADVANCED_FACE ( 'NONE', ( #322, #375 ), #313, .T. ) ;
#255 = ORIENTED_EDGE ( 'NONE', *, *, #301, .T. ) ;
#256 = DIRECTION ( 'NONE',  ( -1.000000000000000000, 0.000000000000000000, 0.000000000000000000 ) ) ;
#257 = PERSON_AND_ORGANIZATION ( #272, #120 ) ;
#258 = EDGE_CURVE ( 'NONE', #179, #379, #95, .T. ) ;
#259 = ORIENTED_EDGE ( 'NONE', *, *, #148, .F. ) ;
#260 = CIRCLE ( 'NONE', #3, 8.000000000000000000 ) ;
#261 = DIRECTION ( 'NONE',  ( 1.000000000000000000, 0.000000000000000000, -0.000000000000000000 ) ) ;
#262 = APPROVAL_DATE_TIME ( #292, #269 ) ;
#263 = LOCAL_TIME ( 16, 48, 39.00000000000000000, #52 ) ;
#264 = DIRECTION ( 'NONE',  ( -0.000000000000000000, -0.000000000000000000, -1.000000000000000000 ) ) ;
#265 = COORDINATED_UNIVERSAL_TIME_OFFSET ( 1, 0, .AHEAD. ) ;
#266 = EDGE_CURVE ( 'NONE', #138, #17, #78, .T. ) ;
#267 = SECURITY_CLASSIFICATION ( '', '', #141 ) ;
#268 = EDGE_CURVE ( 'NONE', #348, #138, #346, .T. ) ;
#269 = APPROVAL ( #154, 'NEURÈENÝ' ) ;
#270 = ORIENTED_EDGE ( 'NONE', *, *, #363, .T. ) ;
#271 = CARTESIAN_POINT ( 'NONE',  ( 0.000000000000000000, 0.000000000000000000, 655.0000000000000000 ) ) ;
#272 = PERSON ( 'NEURÈENÝ', 'NEURÈENÝ', 'NEURÈENÝ', ('NEURÈENÝ'), ('NEURÈENÝ'), ('NEURÈENÝ') ) ;
#273 = DIRECTION ( 'NONE',  ( 1.000000000000000000, 0.000000000000000000, 0.000000000000000000 ) ) ;
#274 = CIRCLE ( 'NONE', #211, 8.000000000000000000 ) ;
#275 = EDGE_LOOP ( 'NONE', ( #168, #359 ) ) ;
#276 = CARTESIAN_POINT ( 'NONE',  ( 0.000000000000000000, 0.000000000000000000, 5.499999999999949374 ) ) ;
#277 = DIRECTION ( 'NONE',  ( 0.000000000000000000, 0.000000000000000000, 1.000000000000000000 ) ) ;
#278 = CARTESIAN_POINT ( 'NONE',  ( 5.000000000000000000, 6.123233995736766282E-16, 5.499999999999949374 ) ) ;
#279 = DIRECTION ( 'NONE',  ( -0.000000000000000000, -0.000000000000000000, -1.000000000000000000 ) ) ;
#280 = EDGE_LOOP ( 'NONE', ( #75, #270, #255, #224 ) ) ;
#281 = CYLINDRICAL_SURFACE ( 'NONE', #238, 5.000000000000000000 ) ;
#282 = PERSON_AND_ORGANIZATION_ROLE ( 'creator' ) ;
#283 = VERTEX_POINT ( 'NONE', #48 ) ;
#284 = CARTESIAN_POINT ( 'NONE',  ( -5.000000000000000000, 0.000000000000000000, 5.499999999999949374 ) ) ;
#285 = VECTOR ( 'NONE', #245, 1000.000000000000000 ) ;
#286 = DIRECTION ( 'NONE',  ( 0.000000000000000000, 0.000000000000000000, 1.000000000000000000 ) ) ;
#287 = APPROVAL_DATE_TIME ( #320, #178 ) ;
#288 = CARTESIAN_POINT ( 'NONE',  ( 0.000000000000000000, 0.000000000000000000, 5.000000000000000000 ) ) ;
#289 = PERSON_AND_ORGANIZATION ( #272, #120 ) ;
#290 = CC_DESIGN_PERSON_AND_ORGANIZATION_ASSIGNMENT ( #257, #112, ( #267 ) ) ;
#291 = DIRECTION ( 'NONE',  ( -0.000000000000000000, -0.000000000000000000, -1.000000000000000000 ) ) ;
#292 = DATE_AND_TIME ( #310, #147 ) ;
#293 = CC_DESIGN_APPROVAL ( #269, ( #314 ) ) ;
#294 = CARTESIAN_POINT ( 'NONE',  ( -3.100000000000000089, 0.000000000000000000, 655.0000000000000000 ) ) ;
#295 = EDGE_CURVE ( 'NONE', #197, #17, #65, .T. ) ;
#296 = CALENDAR_DATE ( 2022, 8, 7 ) ;
#297 = ADVANCED_FACE ( 'NONE', ( #192 ), #203, .F. ) ;
#298 = AXIS2_PLACEMENT_3D ( 'NONE', #339, #237, #365 ) ;
#299 = AXIS2_PLACEMENT_3D ( 'NONE', #22, #140, #256 ) ;
#300 = AXIS2_PLACEMENT_3D ( 'NONE', #271, #186, #332 ) ;
#301 = EDGE_CURVE ( 'NONE', #5, #42, #260, .T. ) ;
#302 = ORIENTED_EDGE ( 'NONE', *, *, #266, .F. ) ;
#303 = CARTESIAN_POINT ( 'NONE',  ( -8.000000000000000000, 0.000000000000000000, 5.000000000000000000 ) ) ;
#304 = VERTEX_POINT ( 'NONE', #221 ) ;
#305 = DIRECTION ( 'NONE',  ( 1.000000000000000000, 0.000000000000000000, -0.000000000000000000 ) ) ;
#306 = AXIS2_PLACEMENT_3D ( 'NONE', #288, #133, #54 ) ;
#307 = PERSON_AND_ORGANIZATION ( #272, #120 ) ;
#308 = ORIENTED_EDGE ( 'NONE', *, *, #214, .F. ) ;
#309 = DIRECTION ( 'NONE',  ( 0.000000000000000000, 0.000000000000000000, 1.000000000000000000 ) ) ;
#310 = CALENDAR_DATE ( 2022, 8, 7 ) ;
#311 = DIRECTION ( 'NONE',  ( -0.000000000000000000, -0.000000000000000000, -1.000000000000000000 ) ) ;
#312 = DIRECTION ( 'NONE',  ( 1.224646799147353207E-16, 1.000000000000000000, -0.000000000000000000 ) ) ;
#313 = PLANE ( 'NONE',  #306 ) ;
#314 = PRODUCT_DEFINITION ( 'NEZNÁMÝ', '', #172, #220 ) ;
#315 = ORIENTED_EDGE ( 'NONE', *, *, #35, .F. ) ;
#316 = LINE ( 'NONE', #294, #357 ) ;
#317 = APPROVAL_ROLE ( '' ) ;
#318 = ORIENTED_EDGE ( 'NONE', *, *, #324, .T. ) ;
#319 = CARTESIAN_POINT ( 'NONE',  ( 0.000000000000000000, 0.000000000000000000, 655.0000000000000000 ) ) ;
#320 = DATE_AND_TIME ( #167, #354 ) ;
#321 = ORIENTED_EDGE ( 'NONE', *, *, #35, .T. ) ;
#322 = FACE_BOUND ( 'NONE', #204, .T. ) ;
#323 = DATE_TIME_ROLE ( 'classification_date' ) ;
#324 = EDGE_CURVE ( 'NONE', #304, #179, #316, .T. ) ;
#325 = ADVANCED_FACE ( 'NONE', ( #51 ), #114, .T. ) ;
#326 = AXIS2_PLACEMENT_3D ( 'NONE', #276, #177, #180 ) ;
#327 = CIRCLE ( 'NONE', #378, 5.500000000000000000 ) ;
#328 = CIRCLE ( 'NONE', #174, 3.100000000000000089 ) ;
#329 = ORIENTED_EDGE ( 'NONE', *, *, #214, .T. ) ;
#330 = DIRECTION ( 'NONE',  ( -0.000000000000000000, -0.000000000000000000, -1.000000000000000000 ) ) ;
#331 = EDGE_CURVE ( 'NONE', #86, #283, #327, .T. ) ;
#332 = DIRECTION ( 'NONE',  ( 1.000000000000000000, 0.000000000000000000, 0.000000000000000000 ) ) ;
#333 = ORIENTED_EDGE ( 'NONE', *, *, #301, .F. ) ;
#334 = CARTESIAN_POINT ( 'NONE',  ( -5.500000000000000000, 6.735557395310442023E-16, 5.499999999999949374 ) ) ;
#335 = CIRCLE ( 'NONE', #298, 8.000000000000000000 ) ;
#336 = APPROVAL_PERSON_ORGANIZATION ( #11, #269, #317 ) ;
#337 = EDGE_LOOP ( 'NONE', ( #194, #83 ) ) ;
#338 = EDGE_CURVE ( 'NONE', #17, #86, #212, .T. ) ;
#339 = CARTESIAN_POINT ( 'NONE',  ( 0.000000000000000000, 0.000000000000000000, 5.000000000000000000 ) ) ;
#340 = ORIENTED_EDGE ( 'NONE', *, *, #30, .T. ) ;
#341 = DIRECTION ( 'NONE',  ( 1.000000000000000000, 0.000000000000000000, 0.000000000000000000 ) ) ;
#342 = PERSON_AND_ORGANIZATION ( #272, #120 ) ;
#343 = ORIENTED_EDGE ( 'NONE', *, *, #107, .F. ) ;
#344 = DIRECTION ( 'NONE',  ( -1.000000000000000000, 0.000000000000000000, 0.000000000000000000 ) ) ;
#345 = PERSON_AND_ORGANIZATION_ROLE ( 'creator' ) ;
#346 = CIRCLE ( 'NONE', #225, 5.000000000000000000 ) ;
#347 = CC_DESIGN_APPROVAL ( #178, ( #172 ) ) ;
#348 = VERTEX_POINT ( 'NONE', #115 ) ;
#349 = CARTESIAN_POINT ( 'NONE',  ( 0.000000000000000000, 0.000000000000000000, 5.499999999999949374 ) ) ;
#350 = CALENDAR_DATE ( 2022, 8, 7 ) ;
#351 = ORIENTED_EDGE ( 'NONE', *, *, #107, .T. ) ;
#352 = DIRECTION ( 'NONE',  ( 0.000000000000000000, 0.000000000000000000, 1.000000000000000000 ) ) ;
#353 = VECTOR ( 'NONE', #311, 1000.000000000000000 ) ;
#354 = LOCAL_TIME ( 16, 48, 39.00000000000000000, #164 ) ;
#355 = CC_DESIGN_PERSON_AND_ORGANIZATION_ASSIGNMENT ( #307, #185, ( #61 ) ) ;
#356 = AXIS2_PLACEMENT_3D ( 'NONE', #102, #309, #273 ) ;
#357 = VECTOR ( 'NONE', #28, 1000.000000000000000 ) ;
#358 = CIRCLE ( 'NONE', #356, 5.000000000000000000 ) ;
#359 = ORIENTED_EDGE ( 'NONE', *, *, #146, .T. ) ;
#360 = DIRECTION ( 'NONE',  ( 0.000000000000000000, 0.000000000000000000, -1.000000000000000000 ) ) ;
#361 = EDGE_LOOP ( 'NONE', ( #149, #315 ) ) ;
#362 = CARTESIAN_POINT ( 'NONE',  ( 0.000000000000000000, 0.000000000000000000, 0.000000000000000000 ) ) ;
#363 = EDGE_CURVE ( 'NONE', #130, #5, #45, .T. ) ;
#364 = DIRECTION ( 'NONE',  ( 0.000000000000000000, 0.000000000000000000, 1.000000000000000000 ) ) ;
#365 = DIRECTION ( 'NONE',  ( 1.000000000000000000, 0.000000000000000000, 0.000000000000000000 ) ) ;
#366 = ORIENTED_EDGE ( 'NONE', *, *, #295, .F. ) ;
#367 = CARTESIAN_POINT ( 'NONE',  ( -8.000000000000000000, 0.000000000000000000, 0.000000000000000000 ) ) ;
#368 = AXIS2_PLACEMENT_3D ( 'NONE', #129, #277, #193 ) ;
#369 = EDGE_LOOP ( 'NONE', ( #99, #250 ) ) ;
#370 = PLANE ( 'NONE',  #132 ) ;
#371 = DIRECTION ( 'NONE',  ( -0.000000000000000000, -0.000000000000000000, -1.000000000000000000 ) ) ;
#372 = DIRECTION ( 'NONE',  ( 0.000000000000000000, 0.000000000000000000, 1.000000000000000000 ) ) ;
#373 = UNCERTAINTY_MEASURE_WITH_UNIT (LENGTH_MEASURE( 1.000000000000000082E-05 ), #213, 'distance_accuracy_value', 'NONE');
#374 = DIRECTION ( 'NONE',  ( 1.000000000000000000, 0.000000000000000000, 0.000000000000000000 ) ) ;
#375 = FACE_OUTER_BOUND ( 'NONE', #275, .T. ) ;
#376 = APPLICATION_CONTEXT ( 'configuration controlled 3d designs of mechanical parts and assemblies' ) ;
#377 = CIRCLE ( 'NONE', #199, 5.500000000000000000 ) ;
#378 = AXIS2_PLACEMENT_3D ( 'NONE', #84, #291, #143 ) ;
#379 = VERTEX_POINT ( 'NONE', #41 ) ;
#380 = DIRECTION ( 'NONE',  ( 0.000000000000000000, 0.000000000000000000, 1.000000000000000000 ) ) ;
#381 = DIRECTION ( 'NONE',  ( 0.000000000000000000, 0.000000000000000000, -1.000000000000000000 ) ) ;
ENDSEC;
END-ISO-10303-21;
