ISO-10303-21;
HEADER;
FILE_DESCRIPTION (( 'STEP AP203' ),
    '1' );
FILE_NAME ('1599.STEP',
    '2022-07-08T15:07:27',
    ( '' ),
    ( '' ),
    'SwSTEP 2.0',
    'SolidWorks 2019',
    '' );
FILE_SCHEMA (( 'CONFIG_CONTROL_DESIGN' ));
ENDSEC;

DATA;
#1 = FACE_OUTER_BOUND ( 'NONE', #221, .T. ) ;
#2 = PRODUCT_DEFINITION_SHAPE ( 'NONE', 'NONE',  #78 ) ;
#3 = DIRECTION ( 'NONE',  ( -0.000000000000000000, -0.000000000000000000, -1.000000000000000000 ) ) ;
#4 = EDGE_LOOP ( 'NONE', ( #209, #32, #113, #26 ) ) ;
#5 = EDGE_LOOP ( 'NONE', ( #82, #155, #239, #44 ) ) ;
#6 = APPROVAL ( #275, 'NEURÈENÝ' ) ;
#7 = ORIENTED_EDGE ( 'NONE', *, *, #108, .F. ) ;
#8 = CARTESIAN_POINT ( 'NONE',  ( 0.000000000000000000, 0.000000000000000000, 5.499999999999949374 ) ) ;
#9 = EDGE_LOOP ( 'NONE', ( #7, #77 ) ) ;
#10 = APPROVAL_PERSON_ORGANIZATION ( #168, #258, #289 ) ;
#11 = DIRECTION ( 'NONE',  ( 1.000000000000000000, 0.000000000000000000, 0.000000000000000000 ) ) ;
#12 = EDGE_LOOP ( 'NONE', ( #338, #245, #219, #36 ) ) ;
#13 = EDGE_CURVE ( 'NONE', #266, #107, #336, .T. ) ;
#14 = CIRCLE ( 'NONE', #165, 2.600000000000000089 ) ;
#15 = ORIENTED_EDGE ( 'NONE', *, *, #50, .T. ) ;
#16 = PERSON_AND_ORGANIZATION_ROLE ( 'creator' ) ;
#17 = CARTESIAN_POINT ( 'NONE',  ( 0.000000000000000000, 0.000000000000000000, 5.499999999999949374 ) ) ;
#18 = AXIS2_PLACEMENT_3D ( 'NONE', #43, #38, #11 ) ;
#19 = CYLINDRICAL_SURFACE ( 'NONE', #253, 4.000000000000000000 ) ;
#20 = CARTESIAN_POINT ( 'NONE',  ( -2.600000000000000089, 0.000000000000000000, 655.0000000000000000 ) ) ;
#21 = VECTOR ( 'NONE', #197, 1000.000000000000000 ) ;
#22 = APPROVAL_DATE_TIME ( #292, #258 ) ;
#23 = FACE_OUTER_BOUND ( 'NONE', #309, .T. ) ;
#24 = AXIS2_PLACEMENT_3D ( 'NONE', #162, #83, #267 ) ;
#25 = ADVANCED_FACE ( 'NONE', ( #343 ), #81, .F. ) ;
#26 = ORIENTED_EDGE ( 'NONE', *, *, #287, .F. ) ;
#27 = PLANE ( 'NONE',  #46 ) ;
#28 = PERSON ( 'NEURÈENÝ', 'NEURÈENÝ', 'NEURÈENÝ', ('NEURÈENÝ'), ('NEURÈENÝ'), ('NEURÈENÝ') ) ;
#29 = ORIENTED_EDGE ( 'NONE', *, *, #381, .F. ) ;
#30 = AXIS2_PLACEMENT_3D ( 'NONE', #218, #302, #187 ) ;
#31 = DIRECTION ( 'NONE',  ( -0.000000000000000000, -0.000000000000000000, -1.000000000000000000 ) ) ;
#32 = ORIENTED_EDGE ( 'NONE', *, *, #341, .F. ) ;
#33 = SECURITY_CLASSIFICATION ( '', '', #278 ) ;
#34 = DIRECTION ( 'NONE',  ( 0.000000000000000000, 0.000000000000000000, 1.000000000000000000 ) ) ;
#35 = ORIENTED_EDGE ( 'NONE', *, *, #360, .F. ) ;
#36 = ORIENTED_EDGE ( 'NONE', *, *, #277, .T. ) ;
#37 = UNCERTAINTY_MEASURE_WITH_UNIT (LENGTH_MEASURE( 1.000000000000000082E-05 ), #132, 'distance_accuracy_value', 'NONE');
#38 = DIRECTION ( 'NONE',  ( 0.000000000000000000, 0.000000000000000000, 1.000000000000000000 ) ) ;
#39 = CARTESIAN_POINT ( 'NONE',  ( 0.000000000000000000, 0.000000000000000000, 5.000000000000000000 ) ) ;
#40 = AXIS2_PLACEMENT_3D ( 'NONE', #53, #146, #90 ) ;
#41 = APPROVAL ( #285, 'NEURÈENÝ' ) ;
#42 = ORIENTED_EDGE ( 'NONE', *, *, #203, .T. ) ;
#43 = CARTESIAN_POINT ( 'NONE',  ( 0.000000000000000000, 0.000000000000000000, 0.000000000000000000 ) ) ;
#44 = ORIENTED_EDGE ( 'NONE', *, *, #190, .F. ) ;
#45 = DIRECTION ( 'NONE',  ( -1.000000000000000000, 0.000000000000000000, 0.000000000000000000 ) ) ;
#46 = AXIS2_PLACEMENT_3D ( 'NONE', #326, #324, #361 ) ;
#47 = ORIENTED_EDGE ( 'NONE', *, *, #50, .F. ) ;
#48 = APPLICATION_CONTEXT ( 'configuration controlled 3d designs of mechanical parts and assemblies' ) ;
#49 = PERSON_AND_ORGANIZATION ( #28, #237 ) ;
#50 = EDGE_CURVE ( 'NONE', #262, #365, #151, .T. ) ;
#51 = CYLINDRICAL_SURFACE ( 'NONE', #306, 2.600000000000000089 ) ;
#52 = CALENDAR_DATE ( 2022, 8, 7 ) ;
#53 = CARTESIAN_POINT ( 'NONE',  ( 0.000000000000000000, 0.000000000000000000, 655.0000000000000000 ) ) ;
#54 = AXIS2_PLACEMENT_3D ( 'NONE', #175, #68, #265 ) ;
#55 = CARTESIAN_POINT ( 'NONE',  ( 0.000000000000000000, 0.000000000000000000, 655.0000000000000000 ) ) ;
#56 = CARTESIAN_POINT ( 'NONE',  ( 0.000000000000000000, 0.000000000000000000, 655.0000000000000000 ) ) ;
#57 = DIRECTION ( 'NONE',  ( 1.000000000000000000, 0.000000000000000000, -0.000000000000000000 ) ) ;
#58 = SHAPE_DEFINITION_REPRESENTATION ( #2, #188 ) ;
#59 = FACE_OUTER_BOUND ( 'NONE', #100, .T. ) ;
#60 = VERTEX_POINT ( 'NONE', #189 ) ;
#61 = APPROVAL_STATUS ( 'not_yet_approved' ) ;
#62 = CARTESIAN_POINT ( 'NONE',  ( 0.000000000000000000, 0.000000000000000000, 5.000000000000000000 ) ) ;
#63 = EDGE_LOOP ( 'NONE', ( #110, #47 ) ) ;
#64 = FACE_OUTER_BOUND ( 'NONE', #4, .T. ) ;
#65 = PRODUCT_RELATED_PRODUCT_CATEGORY ( 'detail', '', ( #332 ) ) ;
#66 = ORIENTED_EDGE ( 'NONE', *, *, #364, .F. ) ;
#67 = AXIS2_PLACEMENT_3D ( 'NONE', #192, #372, #45 ) ;
#68 = DIRECTION ( 'NONE',  ( 0.000000000000000000, -1.000000000000000000, 0.000000000000000000 ) ) ;
#69 = VECTOR ( 'NONE', #104, 1000.000000000000000 ) ;
#70 = ADVANCED_FACE ( 'NONE', ( #335 ), #198, .F. ) ;
#71 = ADVANCED_FACE ( 'NONE', ( #276 ), #167, .T. ) ;
#72 = CARTESIAN_POINT ( 'NONE',  ( 4.000000000000000000, 4.898587196589412829E-16, 655.0000000000000000 ) ) ;
#73 = ORIENTED_EDGE ( 'NONE', *, *, #360, .T. ) ;
#74 = DIRECTION ( 'NONE',  ( -0.000000000000000000, -0.000000000000000000, -1.000000000000000000 ) ) ;
#75 = MANIFOLD_SOLID_BREP ( 'Odebrat vysunutím3', #224 ) ;
#76 = APPLICATION_CONTEXT ( 'configuration controlled 3d designs of mechanical parts and assemblies' ) ;
#77 = ORIENTED_EDGE ( 'NONE', *, *, #154, .F. ) ;
#78 = PRODUCT_DEFINITION ( 'NEZNÁMÝ', '', #158, #243 ) ;
#79 = DIRECTION ( 'NONE',  ( 1.000000000000000000, 0.000000000000000000, 0.000000000000000000 ) ) ;
#80 = CIRCLE ( 'NONE', #24, 7.000000000000000000 ) ;
#81 = CYLINDRICAL_SURFACE ( 'NONE', #67, 2.600000000000000089 ) ;
#82 = ORIENTED_EDGE ( 'NONE', *, *, #108, .T. ) ;
#83 = DIRECTION ( 'NONE',  ( 0.000000000000000000, 0.000000000000000000, 1.000000000000000000 ) ) ;
#84 = CARTESIAN_POINT ( 'NONE',  ( 0.000000000000000000, 0.000000000000000000, 0.000000000000000000 ) ) ;
#85 = EDGE_CURVE ( 'NONE', #260, #107, #269, .T. ) ;
#86 = VECTOR ( 'NONE', #74, 1000.000000000000000 ) ;
#87 = COORDINATED_UNIVERSAL_TIME_OFFSET ( 1, 0, .AHEAD. ) ;
#88 = DIRECTION ( 'NONE',  ( 0.000000000000000000, 0.000000000000000000, 1.000000000000000000 ) ) ;
#89 = PERSON_AND_ORGANIZATION ( #28, #237 ) ;
#90 = DIRECTION ( 'NONE',  ( 1.000000000000000000, 0.000000000000000000, 0.000000000000000000 ) ) ;
#91 = LOCAL_TIME ( 17, 7, 27.00000000000000000, #201 ) ;
#92 = LOCAL_TIME ( 17, 7, 27.00000000000000000, #87 ) ;
#93 = DIRECTION ( 'NONE',  ( 0.000000000000000000, 0.000000000000000000, 1.000000000000000000 ) ) ;
#94 = DIRECTION ( 'NONE',  ( -1.000000000000000000, 0.000000000000000000, 0.000000000000000000 ) ) ;
#95 = CC_DESIGN_PERSON_AND_ORGANIZATION_ASSIGNMENT ( #166, #16, ( #158 ) ) ;
#96 = ORIENTED_EDGE ( 'NONE', *, *, #173, .F. ) ;
#97 = AXIS2_PLACEMENT_3D ( 'NONE', #56, #279, #149 ) ;
#98 = CIRCLE ( 'NONE', #263, 4.000000000000000000 ) ;
#99 = DIRECTION ( 'NONE',  ( -0.000000000000000000, -0.000000000000000000, -1.000000000000000000 ) ) ;
#100 = EDGE_LOOP ( 'NONE', ( #323, #35, #300, #42 ) ) ;
#101 = CARTESIAN_POINT ( 'NONE',  ( 0.000000000000000000, 0.000000000000000000, 0.000000000000000000 ) ) ;
#102 = ORIENTED_EDGE ( 'NONE', *, *, #222, .F. ) ;
#103 = ORIENTED_EDGE ( 'NONE', *, *, #287, .T. ) ;
#104 = DIRECTION ( 'NONE',  ( -0.000000000000000000, -0.000000000000000000, -1.000000000000000000 ) ) ;
#105 = ORIENTED_EDGE ( 'NONE', *, *, #364, .T. ) ;
#106 = AXIS2_PLACEMENT_3D ( 'NONE', #150, #88, #378 ) ;
#107 = VERTEX_POINT ( 'NONE', #172 ) ;
#108 = EDGE_CURVE ( 'NONE', #184, #355, #230, .T. ) ;
#109 = DIRECTION ( 'NONE',  ( 1.000000000000000000, 0.000000000000000000, 0.000000000000000000 ) ) ;
#110 = ORIENTED_EDGE ( 'NONE', *, *, #203, .F. ) ;
#111 = CC_DESIGN_APPROVAL ( #6, ( #78 ) ) ;
#112 = CC_DESIGN_PERSON_AND_ORGANIZATION_ASSIGNMENT ( #145, #280, ( #158 ) ) ;
#113 = ORIENTED_EDGE ( 'NONE', *, *, #293, .T. ) ;
#114 = PERSON_AND_ORGANIZATION_ROLE ( 'classification_officer' ) ;
#115 = CARTESIAN_POINT ( 'NONE',  ( 0.000000000000000000, 0.000000000000000000, 5.000000000000000000 ) ) ;
#116 = AXIS2_PLACEMENT_3D ( 'NONE', #17, #140, #79 ) ;
#117 = DIRECTION ( 'NONE',  ( 0.000000000000000000, 0.000000000000000000, 1.000000000000000000 ) ) ;
#118 = FACE_BOUND ( 'NONE', #133, .T. ) ;
#119 = PERSON_AND_ORGANIZATION ( #28, #237 ) ;
#120 = CARTESIAN_POINT ( 'NONE',  ( -4.000000000000000000, 0.000000000000000000, 655.0000000000000000 ) ) ;
#121 = CIRCLE ( 'NONE', #308, 2.600000000000000089 ) ;
#122 = DIRECTION ( 'NONE',  ( 1.000000000000000000, 0.000000000000000000, 0.000000000000000000 ) ) ;
#123 = CARTESIAN_POINT ( 'NONE',  ( -4.000000000000000000, 0.000000000000000000, 5.499999999999949374 ) ) ;
#124 = CARTESIAN_POINT ( 'NONE',  ( 4.500000000000000888, 0.000000000000000000, 4.999999999999975131 ) ) ;
#125 = AXIS2_PLACEMENT_3D ( 'NONE', #205, #3, #176 ) ;
#126 = DIRECTION ( 'NONE',  ( -0.000000000000000000, -0.000000000000000000, -1.000000000000000000 ) ) ;
#127 = ORIENTED_EDGE ( 'NONE', *, *, #293, .F. ) ;
#128 = ADVANCED_FACE ( 'NONE', ( #286 ), #51, .F. ) ;
#129 = VERTEX_POINT ( 'NONE', #313 ) ;
#130 = COORDINATED_UNIVERSAL_TIME_OFFSET ( 1, 0, .AHEAD. ) ;
#131 = DIRECTION ( 'NONE',  ( 1.000000000000000000, 0.000000000000000000, 0.000000000000000000 ) ) ;
#132 =( LENGTH_UNIT ( ) NAMED_UNIT ( * ) SI_UNIT ( .MILLI., .METRE. ) );
#133 = EDGE_LOOP ( 'NONE', ( #301, #103 ) ) ;
#134 = AXIS2_PLACEMENT_3D ( 'NONE', #368, #251, #109 ) ;
#135 = APPLICATION_PROTOCOL_DEFINITION ( 'international standard', 'config_control_design', 1994, #48 ) ;
#136 = EDGE_LOOP ( 'NONE', ( #369, #327, #212, #105 ) ) ;
#137 = EDGE_CURVE ( 'NONE', #355, #273, #171, .T. ) ;
#138 = DIRECTION ( 'NONE',  ( 0.000000000000000000, 0.000000000000000000, 1.000000000000000000 ) ) ;
#139 = PERSON_AND_ORGANIZATION ( #28, #237 ) ;
#140 = DIRECTION ( 'NONE',  ( 0.000000000000000000, 0.000000000000000000, 1.000000000000000000 ) ) ;
#141 = CC_DESIGN_APPROVAL ( #41, ( #158 ) ) ;
#142 = ADVANCED_FACE ( 'NONE', ( #118, #229 ), #144, .T. ) ;
#143 = DIRECTION ( 'NONE',  ( 1.000000000000000000, 0.000000000000000000, 0.000000000000000000 ) ) ;
#144 = PLANE ( 'NONE',  #147 ) ;
#145 = PERSON_AND_ORGANIZATION ( #28, #237 ) ;
#146 = DIRECTION ( 'NONE',  ( 0.000000000000000000, 0.000000000000000000, 1.000000000000000000 ) ) ;
#147 = AXIS2_PLACEMENT_3D ( 'NONE', #174, #117, #57 ) ;
#148 = DATE_TIME_ROLE ( 'classification_date' ) ;
#149 = DIRECTION ( 'NONE',  ( 1.000000000000000000, 0.000000000000000000, 0.000000000000000000 ) ) ;
#150 = CARTESIAN_POINT ( 'NONE',  ( 0.000000000000000000, 0.000000000000000000, 0.000000000000000000 ) ) ;
#151 = CIRCLE ( 'NONE', #373, 7.000000000000000000 ) ;
#152 = AXIS2_PLACEMENT_3D ( 'NONE', #329, #126, #241 ) ;
#153 = CC_DESIGN_SECURITY_CLASSIFICATION ( #33, ( #158 ) ) ;
#154 = EDGE_CURVE ( 'NONE', #355, #184, #356, .T. ) ;
#155 = ORIENTED_EDGE ( 'NONE', *, *, #137, .T. ) ;
#156 = FACE_OUTER_BOUND ( 'NONE', #63, .T. ) ;
#157 = CALENDAR_DATE ( 2022, 8, 7 ) ;
#158 = PRODUCT_DEFINITION_FORMATION_WITH_SPECIFIED_SOURCE ( 'LIBOVOLNÝ', '', #332, .NOT_KNOWN. ) ;
#159 = EDGE_LOOP ( 'NONE', ( #66, #206, #362, #127 ) ) ;
#160 = TOROIDAL_SURFACE ( 'NONE', #367, 4.500000000000000888, 0.5000000000000000000 ) ;
#161 = ORIENTED_EDGE ( 'NONE', *, *, #381, .T. ) ;
#162 = CARTESIAN_POINT ( 'NONE',  ( 0.000000000000000000, 0.000000000000000000, 5.000000000000000000 ) ) ;
#163 = VERTEX_POINT ( 'NONE', #374 ) ;
#164 = EDGE_LOOP ( 'NONE', ( #177, #102 ) ) ;
#165 = AXIS2_PLACEMENT_3D ( 'NONE', #233, #354, #199 ) ;
#166 = PERSON_AND_ORGANIZATION ( #28, #237 ) ;
#167 = CYLINDRICAL_SURFACE ( 'NONE', #30, 7.000000000000000000 ) ;
#168 = PERSON_AND_ORGANIZATION ( #28, #237 ) ;
#169 = LINE ( 'NONE', #20, #250 ) ;
#170 = LOCAL_TIME ( 17, 7, 27.00000000000000000, #347 ) ;
#171 = LINE ( 'NONE', #352, #21 ) ;
#172 = CARTESIAN_POINT ( 'NONE',  ( -4.500000000000000888, 5.510910596163088569E-16, 4.999999999999975131 ) ) ;
#173 = EDGE_CURVE ( 'NONE', #268, #60, #345, .T. ) ;
#174 = CARTESIAN_POINT ( 'NONE',  ( 0.000000000000000000, 0.000000000000000000, 5.000000000000000000 ) ) ;
#175 = CARTESIAN_POINT ( 'NONE',  ( 4.500000000000000888, 0.000000000000000000, 5.499999999999949374 ) ) ;
#176 = DIRECTION ( 'NONE',  ( -1.000000000000000000, 0.000000000000000000, 0.000000000000000000 ) ) ;
#177 = ORIENTED_EDGE ( 'NONE', *, *, #277, .F. ) ;
#178 = CIRCLE ( 'NONE', #214, 4.000000000000000000 ) ;
#179 = PLANE ( 'NONE',  #328 ) ;
#180 = CC_DESIGN_PERSON_AND_ORGANIZATION_ASSIGNMENT ( #119, #193, ( #78 ) ) ;
#181 = DIRECTION ( 'NONE',  ( 0.000000000000000000, 0.000000000000000000, 1.000000000000000000 ) ) ;
#182 = EDGE_LOOP ( 'NONE', ( #73, #194 ) ) ;
#183 = MECHANICAL_CONTEXT ( 'NONE', #48, 'mechanical' ) ;
#184 = VERTEX_POINT ( 'NONE', #228 ) ;
#185 =( NAMED_UNIT ( * ) SI_UNIT ( $, .STERADIAN. ) SOLID_ANGLE_UNIT ( ) );
#186 = AXIS2_PLACEMENT_3D ( 'NONE', #8, #342, #143 ) ;
#187 = DIRECTION ( 'NONE',  ( -1.000000000000000000, 0.000000000000000000, 0.000000000000000000 ) ) ;
#188 = ADVANCED_BREP_SHAPE_REPRESENTATION ( '1599', ( #75, #18 ), #207 ) ;
#189 = CARTESIAN_POINT ( 'NONE',  ( -7.000000000000000000, 0.000000000000000000, 5.000000000000000000 ) ) ;
#190 = EDGE_CURVE ( 'NONE', #184, #244, #169, .T. ) ;
#191 = APPLICATION_PROTOCOL_DEFINITION ( 'international standard', 'config_control_design', 1994, #76 ) ;
#192 = CARTESIAN_POINT ( 'NONE',  ( 0.000000000000000000, 0.000000000000000000, 655.0000000000000000 ) ) ;
#193 = PERSON_AND_ORGANIZATION_ROLE ( 'creator' ) ;
#194 = ORIENTED_EDGE ( 'NONE', *, *, #173, .T. ) ;
#195 = CIRCLE ( 'NONE', #54, 0.5000000000000004441 ) ;
#196 = COORDINATED_UNIVERSAL_TIME_OFFSET ( 1, 0, .AHEAD. ) ;
#197 = DIRECTION ( 'NONE',  ( 0.000000000000000000, 0.000000000000000000, -1.000000000000000000 ) ) ;
#198 = TOROIDAL_SURFACE ( 'NONE', #116, 4.500000000000000888, 0.5000000000000000000 ) ;
#199 = DIRECTION ( 'NONE',  ( 1.000000000000000000, 0.000000000000000000, 0.000000000000000000 ) ) ;
#200 = APPROVAL_PERSON_ORGANIZATION ( #89, #41, #351 ) ;
#201 = COORDINATED_UNIVERSAL_TIME_OFFSET ( 1, 0, .AHEAD. ) ;
#202 = DIRECTION ( 'NONE',  ( -1.000000000000000000, 0.000000000000000000, 0.000000000000000000 ) ) ;
#203 = EDGE_CURVE ( 'NONE', #365, #262, #270, .T. ) ;
#204 = LINE ( 'NONE', #120, #298 ) ;
#205 = CARTESIAN_POINT ( 'NONE',  ( 0.000000000000000000, 0.000000000000000000, 655.0000000000000000 ) ) ;
#206 = ORIENTED_EDGE ( 'NONE', *, *, #13, .T. ) ;
#207 =( GEOMETRIC_REPRESENTATION_CONTEXT ( 3 ) GLOBAL_UNCERTAINTY_ASSIGNED_CONTEXT ( ( #37 ) ) GLOBAL_UNIT_ASSIGNED_CONTEXT ( ( #132, #333, #185 ) ) REPRESENTATION_CONTEXT ( 'NONE', 'WORKASPACE' ) );
#208 = CYLINDRICAL_SURFACE ( 'NONE', #152, 7.000000000000000000 ) ;
#209 = ORIENTED_EDGE ( 'NONE', *, *, #13, .F. ) ;
#210 = DIRECTION ( 'NONE',  ( 0.000000000000000000, 0.000000000000000000, 1.000000000000000000 ) ) ;
#211 = EDGE_LOOP ( 'NONE', ( #96, #340, #15, #272 ) ) ;
#212 = ORIENTED_EDGE ( 'NONE', *, *, #234, .T. ) ;
#213 = EDGE_CURVE ( 'NONE', #268, #262, #380, .T. ) ;
#214 = AXIS2_PLACEMENT_3D ( 'NONE', #346, #350, #122 ) ;
#215 = CARTESIAN_POINT ( 'NONE',  ( 0.000000000000000000, 0.000000000000000000, 5.499999999999949374 ) ) ;
#216 = ORIENTED_EDGE ( 'NONE', *, *, #242, .T. ) ;
#217 = EDGE_CURVE ( 'NONE', #163, #129, #178, .T. ) ;
#218 = CARTESIAN_POINT ( 'NONE',  ( 0.000000000000000000, 0.000000000000000000, 5.000000000000000000 ) ) ;
#219 = ORIENTED_EDGE ( 'NONE', *, *, #190, .T. ) ;
#220 = VECTOR ( 'NONE', #348, 1000.000000000000000 ) ;
#221 = EDGE_LOOP ( 'NONE', ( #29, #216, #294, #358 ) ) ;
#222 = EDGE_CURVE ( 'NONE', #273, #244, #14, .T. ) ;
#223 = CARTESIAN_POINT ( 'NONE',  ( -4.500000000000000888, 5.510910596163089556E-16, 5.499999999999949374 ) ) ;
#224 = CLOSED_SHELL ( 'NONE', ( #25, #70, #249, #71, #284, #142, #319, #231, #264, #334, #128 ) ) ;
#225 = DATE_AND_TIME ( #344, #92 ) ;
#226 = DIRECTION ( 'NONE',  ( 0.000000000000000000, 0.000000000000000000, -1.000000000000000000 ) ) ;
#227 = CIRCLE ( 'NONE', #186, 4.000000000000000000 ) ;
#228 = CARTESIAN_POINT ( 'NONE',  ( -2.600000000000000089, 0.000000000000000000, 655.0000000000000000 ) ) ;
#229 = FACE_OUTER_BOUND ( 'NONE', #182, .T. ) ;
#230 = CIRCLE ( 'NONE', #97, 2.600000000000000089 ) ;
#231 = ADVANCED_FACE ( 'NONE', ( #315 ), #19, .T. ) ;
#232 = APPROVAL_DATE_TIME ( #311, #6 ) ;
#233 = CARTESIAN_POINT ( 'NONE',  ( 0.000000000000000000, 0.000000000000000000, 0.000000000000000000 ) ) ;
#234 = EDGE_CURVE ( 'NONE', #163, #266, #204, .T. ) ;
#235 = FACE_BOUND ( 'NONE', #9, .T. ) ;
#236 = ORIENTED_EDGE ( 'NONE', *, *, #217, .T. ) ;
#237 = ORGANIZATION ( 'NEURÈENÝ', 'NEURÈENÝ', '' ) ;
#238 = DIRECTION ( 'NONE',  ( 1.000000000000000000, 0.000000000000000000, 0.000000000000000000 ) ) ;
#239 = ORIENTED_EDGE ( 'NONE', *, *, #222, .T. ) ;
#240 = CARTESIAN_POINT ( 'NONE',  ( 4.000000000000000000, 4.898587196589412829E-16, 5.499999999999949374 ) ) ;
#241 = DIRECTION ( 'NONE',  ( -1.000000000000000000, 0.000000000000000000, 0.000000000000000000 ) ) ;
#242 = EDGE_CURVE ( 'NONE', #129, #246, #290, .T. ) ;
#243 = DESIGN_CONTEXT ( 'detailed design', #76, 'design' ) ;
#244 = VERTEX_POINT ( 'NONE', #259 ) ;
#245 = ORIENTED_EDGE ( 'NONE', *, *, #154, .T. ) ;
#246 = VERTEX_POINT ( 'NONE', #240 ) ;
#247 = AXIS2_PLACEMENT_3D ( 'NONE', #39, #375, #377 ) ;
#248 = DIRECTION ( 'NONE',  ( 1.000000000000000000, 0.000000000000000000, 0.000000000000000000 ) ) ;
#249 = ADVANCED_FACE ( 'NONE', ( #1 ), #366, .T. ) ;
#250 = VECTOR ( 'NONE', #320, 1000.000000000000000 ) ;
#251 = DIRECTION ( 'NONE',  ( 0.000000000000000000, 0.000000000000000000, 1.000000000000000000 ) ) ;
#252 = DIRECTION ( 'NONE',  ( 1.000000000000000000, 0.000000000000000000, 0.000000000000000000 ) ) ;
#253 = AXIS2_PLACEMENT_3D ( 'NONE', #55, #255, #94 ) ;
#254 = DATE_TIME_ROLE ( 'creation_date' ) ;
#255 = DIRECTION ( 'NONE',  ( -0.000000000000000000, -0.000000000000000000, -1.000000000000000000 ) ) ;
#256 = CARTESIAN_POINT ( 'NONE',  ( 0.000000000000000000, 0.000000000000000000, 655.0000000000000000 ) ) ;
#257 = AXIS2_PLACEMENT_3D ( 'NONE', #115, #93, #252 ) ;
#258 = APPROVAL ( #61, 'NEURÈENÝ' ) ;
#259 = CARTESIAN_POINT ( 'NONE',  ( -2.600000000000000089, 0.000000000000000000, 0.000000000000000000 ) ) ;
#260 = VERTEX_POINT ( 'NONE', #124 ) ;
#261 = FACE_BOUND ( 'NONE', #164, .T. ) ;
#262 = VERTEX_POINT ( 'NONE', #295 ) ;
#263 = AXIS2_PLACEMENT_3D ( 'NONE', #299, #181, #248 ) ;
#264 = ADVANCED_FACE ( 'NONE', ( #235, #23 ), #27, .T. ) ;
#265 = DIRECTION ( 'NONE',  ( 0.000000000000000000, 0.000000000000000000, -1.000000000000000000 ) ) ;
#266 = VERTEX_POINT ( 'NONE', #123 ) ;
#267 = DIRECTION ( 'NONE',  ( 1.000000000000000000, 0.000000000000000000, 0.000000000000000000 ) ) ;
#268 = VERTEX_POINT ( 'NONE', #363 ) ;
#269 = CIRCLE ( 'NONE', #247, 4.500000000000000888 ) ;
#270 = CIRCLE ( 'NONE', #106, 7.000000000000000000 ) ;
#271 = CARTESIAN_POINT ( 'NONE',  ( -7.000000000000000000, 0.000000000000000000, 5.000000000000000000 ) ) ;
#272 = ORIENTED_EDGE ( 'NONE', *, *, #376, .F. ) ;
#273 = VERTEX_POINT ( 'NONE', #296 ) ;
#274 = CC_DESIGN_DATE_AND_TIME_ASSIGNMENT ( #349, #254, ( #78 ) ) ;
#275 = APPROVAL_STATUS ( 'not_yet_approved' ) ;
#276 = FACE_OUTER_BOUND ( 'NONE', #211, .T. ) ;
#277 = EDGE_CURVE ( 'NONE', #244, #273, #121, .T. ) ;
#278 = SECURITY_CLASSIFICATION_LEVEL ( 'unclassified' ) ;
#279 = DIRECTION ( 'NONE',  ( 0.000000000000000000, 0.000000000000000000, 1.000000000000000000 ) ) ;
#280 = PERSON_AND_ORGANIZATION_ROLE ( 'design_supplier' ) ;
#281 = CARTESIAN_POINT ( 'NONE',  ( 7.000000000000000000, 8.572527594031473190E-16, 5.000000000000000000 ) ) ;
#282 = CC_DESIGN_PERSON_AND_ORGANIZATION_ASSIGNMENT ( #49, #114, ( #33 ) ) ;
#283 = APPROVAL_PERSON_ORGANIZATION ( #304, #6, #379 ) ;
#284 = ADVANCED_FACE ( 'NONE', ( #59 ), #208, .T. ) ;
#285 = APPROVAL_STATUS ( 'not_yet_approved' ) ;
#286 = FACE_OUTER_BOUND ( 'NONE', #12, .T. ) ;
#287 = EDGE_CURVE ( 'NONE', #107, #260, #353, .T. ) ;
#288 = DATE_AND_TIME ( #52, #91 ) ;
#289 = APPROVAL_ROLE ( '' ) ;
#290 = LINE ( 'NONE', #72, #69 ) ;
#291 = CIRCLE ( 'NONE', #134, 4.000000000000000000 ) ;
#292 = DATE_AND_TIME ( #157, #310 ) ;
#293 = EDGE_CURVE ( 'NONE', #246, #260, #195, .T. ) ;
#294 = ORIENTED_EDGE ( 'NONE', *, *, #341, .T. ) ;
#295 = CARTESIAN_POINT ( 'NONE',  ( 7.000000000000000000, 8.572527594031473190E-16, 0.000000000000000000 ) ) ;
#296 = CARTESIAN_POINT ( 'NONE',  ( 2.600000000000000089, 3.184081677783118191E-16, 0.000000000000000000 ) ) ;
#297 = CC_DESIGN_DATE_AND_TIME_ASSIGNMENT ( #225, #148, ( #33 ) ) ;
#298 = VECTOR ( 'NONE', #321, 1000.000000000000000 ) ;
#299 = CARTESIAN_POINT ( 'NONE',  ( 0.000000000000000000, 0.000000000000000000, 5.499999999999949374 ) ) ;
#300 = ORIENTED_EDGE ( 'NONE', *, *, #376, .T. ) ;
#301 = ORIENTED_EDGE ( 'NONE', *, *, #85, .T. ) ;
#302 = DIRECTION ( 'NONE',  ( -0.000000000000000000, -0.000000000000000000, -1.000000000000000000 ) ) ;
#303 = AXIS2_PLACEMENT_3D ( 'NONE', #223, #331, #305 ) ;
#304 = PERSON_AND_ORGANIZATION ( #28, #237 ) ;
#305 = DIRECTION ( 'NONE',  ( -1.000000000000000000, 1.224646799147351482E-16, 0.000000000000000000 ) ) ;
#306 = AXIS2_PLACEMENT_3D ( 'NONE', #256, #226, #202 ) ;
#307 = APPROVAL_DATE_TIME ( #288, #41 ) ;
#308 = AXIS2_PLACEMENT_3D ( 'NONE', #357, #99, #322 ) ;
#309 = EDGE_LOOP ( 'NONE', ( #236, #161 ) ) ;
#310 = LOCAL_TIME ( 17, 7, 27.00000000000000000, #130 ) ;
#311 = DATE_AND_TIME ( #314, #170 ) ;
#312 = CALENDAR_DATE ( 2022, 8, 7 ) ;
#313 = CARTESIAN_POINT ( 'NONE',  ( 4.000000000000000000, 4.898587196589412829E-16, 655.0000000000000000 ) ) ;
#314 = CALENDAR_DATE ( 2022, 8, 7 ) ;
#315 = FACE_OUTER_BOUND ( 'NONE', #136, .T. ) ;
#316 = CC_DESIGN_PERSON_AND_ORGANIZATION_ASSIGNMENT ( #139, #339, ( #332 ) ) ;
#317 = LOCAL_TIME ( 17, 7, 27.00000000000000000, #196 ) ;
#318 = CC_DESIGN_APPROVAL ( #258, ( #33 ) ) ;
#319 = ADVANCED_FACE ( 'NONE', ( #261, #156 ), #179, .F. ) ;
#320 = DIRECTION ( 'NONE',  ( 0.000000000000000000, 0.000000000000000000, -1.000000000000000000 ) ) ;
#321 = DIRECTION ( 'NONE',  ( -0.000000000000000000, -0.000000000000000000, -1.000000000000000000 ) ) ;
#322 = DIRECTION ( 'NONE',  ( 1.000000000000000000, 0.000000000000000000, 0.000000000000000000 ) ) ;
#323 = ORIENTED_EDGE ( 'NONE', *, *, #213, .F. ) ;
#324 = DIRECTION ( 'NONE',  ( 0.000000000000000000, 0.000000000000000000, 1.000000000000000000 ) ) ;
#325 = DIRECTION ( 'NONE',  ( 1.000000000000000000, 0.000000000000000000, -0.000000000000000000 ) ) ;
#326 = CARTESIAN_POINT ( 'NONE',  ( 0.000000000000000000, 0.000000000000000000, 655.0000000000000000 ) ) ;
#327 = ORIENTED_EDGE ( 'NONE', *, *, #217, .F. ) ;
#328 = AXIS2_PLACEMENT_3D ( 'NONE', #101, #210, #325 ) ;
#329 = CARTESIAN_POINT ( 'NONE',  ( 0.000000000000000000, 0.000000000000000000, 5.000000000000000000 ) ) ;
#330 = LINE ( 'NONE', #271, #86 ) ;
#331 = DIRECTION ( 'NONE',  ( 1.224646799147353207E-16, 1.000000000000000000, -0.000000000000000000 ) ) ;
#332 = PRODUCT ( '1599', '1599', '', ( #183 ) ) ;
#333 =( NAMED_UNIT ( * ) PLANE_ANGLE_UNIT ( ) SI_UNIT ( $, .RADIAN. ) );
#334 = ADVANCED_FACE ( 'NONE', ( #64 ), #160, .F. ) ;
#335 = FACE_OUTER_BOUND ( 'NONE', #159, .T. ) ;
#336 = CIRCLE ( 'NONE', #303, 0.5000000000000004441 ) ;
#337 = CARTESIAN_POINT ( 'NONE',  ( -7.000000000000000000, 0.000000000000000000, 0.000000000000000000 ) ) ;
#338 = ORIENTED_EDGE ( 'NONE', *, *, #137, .F. ) ;
#339 = PERSON_AND_ORGANIZATION_ROLE ( 'design_owner' ) ;
#340 = ORIENTED_EDGE ( 'NONE', *, *, #213, .T. ) ;
#341 = EDGE_CURVE ( 'NONE', #246, #266, #98, .T. ) ;
#342 = DIRECTION ( 'NONE',  ( 0.000000000000000000, 0.000000000000000000, 1.000000000000000000 ) ) ;
#343 = FACE_OUTER_BOUND ( 'NONE', #5, .T. ) ;
#344 = CALENDAR_DATE ( 2022, 8, 7 ) ;
#345 = CIRCLE ( 'NONE', #257, 7.000000000000000000 ) ;
#346 = CARTESIAN_POINT ( 'NONE',  ( 0.000000000000000000, 0.000000000000000000, 655.0000000000000000 ) ) ;
#347 = COORDINATED_UNIVERSAL_TIME_OFFSET ( 1, 0, .AHEAD. ) ;
#348 = DIRECTION ( 'NONE',  ( -0.000000000000000000, -0.000000000000000000, -1.000000000000000000 ) ) ;
#349 = DATE_AND_TIME ( #312, #317 ) ;
#350 = DIRECTION ( 'NONE',  ( 0.000000000000000000, 0.000000000000000000, 1.000000000000000000 ) ) ;
#351 = APPROVAL_ROLE ( '' ) ;
#352 = CARTESIAN_POINT ( 'NONE',  ( 2.600000000000000089, 3.184081677783118191E-16, 655.0000000000000000 ) ) ;
#353 = CIRCLE ( 'NONE', #359, 4.500000000000000888 ) ;
#354 = DIRECTION ( 'NONE',  ( -0.000000000000000000, -0.000000000000000000, -1.000000000000000000 ) ) ;
#355 = VERTEX_POINT ( 'NONE', #371 ) ;
#356 = CIRCLE ( 'NONE', #40, 2.600000000000000089 ) ;
#357 = CARTESIAN_POINT ( 'NONE',  ( 0.000000000000000000, 0.000000000000000000, 0.000000000000000000 ) ) ;
#358 = ORIENTED_EDGE ( 'NONE', *, *, #234, .F. ) ;
#359 = AXIS2_PLACEMENT_3D ( 'NONE', #62, #31, #238 ) ;
#360 = EDGE_CURVE ( 'NONE', #60, #268, #80, .T. ) ;
#361 = DIRECTION ( 'NONE',  ( 1.000000000000000000, 0.000000000000000000, -0.000000000000000000 ) ) ;
#362 = ORIENTED_EDGE ( 'NONE', *, *, #85, .F. ) ;
#363 = CARTESIAN_POINT ( 'NONE',  ( 7.000000000000000000, 8.572527594031473190E-16, 5.000000000000000000 ) ) ;
#364 = EDGE_CURVE ( 'NONE', #266, #246, #227, .T. ) ;
#365 = VERTEX_POINT ( 'NONE', #337 ) ;
#366 = CYLINDRICAL_SURFACE ( 'NONE', #125, 4.000000000000000000 ) ;
#367 = AXIS2_PLACEMENT_3D ( 'NONE', #215, #34, #131 ) ;
#368 = CARTESIAN_POINT ( 'NONE',  ( 0.000000000000000000, 0.000000000000000000, 655.0000000000000000 ) ) ;
#369 = ORIENTED_EDGE ( 'NONE', *, *, #242, .F. ) ;
#370 = DIRECTION ( 'NONE',  ( 1.000000000000000000, 0.000000000000000000, 0.000000000000000000 ) ) ;
#371 = CARTESIAN_POINT ( 'NONE',  ( 2.600000000000000089, 3.184081677783118191E-16, 655.0000000000000000 ) ) ;
#372 = DIRECTION ( 'NONE',  ( 0.000000000000000000, 0.000000000000000000, -1.000000000000000000 ) ) ;
#373 = AXIS2_PLACEMENT_3D ( 'NONE', #84, #138, #370 ) ;
#374 = CARTESIAN_POINT ( 'NONE',  ( -4.000000000000000000, 0.000000000000000000, 655.0000000000000000 ) ) ;
#375 = DIRECTION ( 'NONE',  ( -0.000000000000000000, -0.000000000000000000, -1.000000000000000000 ) ) ;
#376 = EDGE_CURVE ( 'NONE', #60, #365, #330, .T. ) ;
#377 = DIRECTION ( 'NONE',  ( 1.000000000000000000, 0.000000000000000000, 0.000000000000000000 ) ) ;
#378 = DIRECTION ( 'NONE',  ( 1.000000000000000000, 0.000000000000000000, 0.000000000000000000 ) ) ;
#379 = APPROVAL_ROLE ( '' ) ;
#380 = LINE ( 'NONE', #281, #220 ) ;
#381 = EDGE_CURVE ( 'NONE', #129, #163, #291, .T. ) ;
ENDSEC;
END-ISO-10303-21;
