ISO-10303-21;
HEADER;
FILE_DESCRIPTION (( 'STEP AP203' ),
    '1' );
FILE_NAME ('32cd.STEP',
    '2022-07-08T14:50:55',
    ( '' ),
    ( '' ),
    'SwSTEP 2.0',
    'SolidWorks 2019',
    '' );
FILE_SCHEMA (( 'CONFIG_CONTROL_DESIGN' ));
ENDSEC;

DATA;
#1 = CLOSED_SHELL ( 'NONE', ( #302, #216, #154, #42, #181, #61, #341, #109, #248, #355, #147 ) ) ;
#2 = SECURITY_CLASSIFICATION_LEVEL ( 'unclassified' ) ;
#3 = DIRECTION ( 'NONE',  ( 0.000000000000000000, 0.000000000000000000, 1.000000000000000000 ) ) ;
#4 = EDGE_CURVE ( 'NONE', #184, #344, #357, .T. ) ;
#5 = DATE_TIME_ROLE ( 'creation_date' ) ;
#6 = VERTEX_POINT ( 'NONE', #96 ) ;
#7 = DATE_TIME_ROLE ( 'classification_date' ) ;
#8 = MANIFOLD_SOLID_BREP ( 'Odebrat vysunutím3', #1 ) ;
#9 = EDGE_LOOP ( 'NONE', ( #213, #319 ) ) ;
#10 = AXIS2_PLACEMENT_3D ( 'NONE', #256, #230, #198 ) ;
#11 = ORIENTED_EDGE ( 'NONE', *, *, #4, .F. ) ;
#12 = DIRECTION ( 'NONE',  ( 1.000000000000000000, 0.000000000000000000, 0.000000000000000000 ) ) ;
#13 = CARTESIAN_POINT ( 'NONE',  ( 5.500000000000000000, 0.000000000000000000, 5.500000000000005329 ) ) ;
#14 = AXIS2_PLACEMENT_3D ( 'NONE', #50, #339, #19 ) ;
#15 = CIRCLE ( 'NONE', #35, 0.5000000000000004441 ) ;
#16 = DIRECTION ( 'NONE',  ( -1.000000000000000000, 0.000000000000000000, 0.000000000000000000 ) ) ;
#17 = PRODUCT_RELATED_PRODUCT_CATEGORY ( 'detail', '', ( #178 ) ) ;
#18 = DIRECTION ( 'NONE',  ( 1.000000000000000000, 0.000000000000000000, -0.000000000000000000 ) ) ;
#19 = DIRECTION ( 'NONE',  ( 1.000000000000000000, 0.000000000000000000, 0.000000000000000000 ) ) ;
#20 = LINE ( 'NONE', #120, #47 ) ;
#21 = CYLINDRICAL_SURFACE ( 'NONE', #376, 3.100000000000000089 ) ;
#22 = ORIENTED_EDGE ( 'NONE', *, *, #192, .T. ) ;
#23 = DIRECTION ( 'NONE',  ( 0.000000000000000000, 0.000000000000000000, 1.000000000000000000 ) ) ;
#24 = ORIENTED_EDGE ( 'NONE', *, *, #192, .F. ) ;
#25 = PLANE ( 'NONE',  #331 ) ;
#26 = AXIS2_PLACEMENT_3D ( 'NONE', #73, #194, #16 ) ;
#27 = ORIENTED_EDGE ( 'NONE', *, *, #203, .F. ) ;
#28 = CC_DESIGN_PERSON_AND_ORGANIZATION_ASSIGNMENT ( #155, #176, ( #191 ) ) ;
#29 = DIRECTION ( 'NONE',  ( 0.000000000000000000, 0.000000000000000000, -1.000000000000000000 ) ) ;
#30 = SHAPE_DEFINITION_REPRESENTATION ( #321, #201 ) ;
#31 = ORIENTED_EDGE ( 'NONE', *, *, #203, .T. ) ;
#32 = PERSON_AND_ORGANIZATION_ROLE ( 'classification_officer' ) ;
#33 = ORIENTED_EDGE ( 'NONE', *, *, #293, .T. ) ;
#34 = CC_DESIGN_PERSON_AND_ORGANIZATION_ASSIGNMENT ( #209, #32, ( #365 ) ) ;
#35 = AXIS2_PLACEMENT_3D ( 'NONE', #168, #283, #72 ) ;
#36 = PERSON_AND_ORGANIZATION ( #255, #204 ) ;
#37 = EDGE_LOOP ( 'NONE', ( #94, #207, #39, #318 ) ) ;
#38 = COORDINATED_UNIVERSAL_TIME_OFFSET ( 1, 0, .AHEAD. ) ;
#39 = ORIENTED_EDGE ( 'NONE', *, *, #232, .T. ) ;
#40 = EDGE_LOOP ( 'NONE', ( #27, #300, #228, #362 ) ) ;
#41 = VECTOR ( 'NONE', #171, 1000.000000000000000 ) ;
#42 = ADVANCED_FACE ( 'NONE', ( #243 ), #64, .T. ) ;
#43 = ORIENTED_EDGE ( 'NONE', *, *, #137, .F. ) ;
#44 = LINE ( 'NONE', #280, #82 ) ;
#45 = DIRECTION ( 'NONE',  ( -0.000000000000000000, -0.000000000000000000, -1.000000000000000000 ) ) ;
#46 = EDGE_CURVE ( 'NONE', #6, #159, #193, .T. ) ;
#47 = VECTOR ( 'NONE', #291, 1000.000000000000000 ) ;
#48 = LOCAL_TIME ( 16, 50, 55.00000000000000000, #351 ) ;
#49 = CARTESIAN_POINT ( 'NONE',  ( 0.000000000000000000, 0.000000000000000000, 165.0000000000000000 ) ) ;
#50 = CARTESIAN_POINT ( 'NONE',  ( 0.000000000000000000, 0.000000000000000000, 5.500000000000005329 ) ) ;
#51 = CC_DESIGN_PERSON_AND_ORGANIZATION_ASSIGNMENT ( #361, #236, ( #191 ) ) ;
#52 = CARTESIAN_POINT ( 'NONE',  ( 0.000000000000000000, 0.000000000000000000, 165.0000000000000000 ) ) ;
#53 = CARTESIAN_POINT ( 'NONE',  ( 3.100000000000000089, 3.796405077356794918E-16, 165.0000000000000000 ) ) ;
#54 = AXIS2_PLACEMENT_3D ( 'NONE', #108, #134, #167 ) ;
#55 = CARTESIAN_POINT ( 'NONE',  ( 5.000000000000000000, 6.123233995736766282E-16, 165.0000000000000000 ) ) ;
#56 = CARTESIAN_POINT ( 'NONE',  ( 0.000000000000000000, 0.000000000000000000, 5.000000000000000000 ) ) ;
#57 = CARTESIAN_POINT ( 'NONE',  ( 5.000000000000000000, 6.123233995736766282E-16, 165.0000000000000000 ) ) ;
#58 = CARTESIAN_POINT ( 'NONE',  ( 3.100000000000000089, 3.796405077356794918E-16, 0.000000000000000000 ) ) ;
#59 = EDGE_LOOP ( 'NONE', ( #356, #112 ) ) ;
#60 = APPROVAL_DATE_TIME ( #268, #288 ) ;
#61 = ADVANCED_FACE ( 'NONE', ( #211, #327 ), #67, .T. ) ;
#62 = ORIENTED_EDGE ( 'NONE', *, *, #114, .F. ) ;
#63 = MECHANICAL_CONTEXT ( 'NONE', #281, 'mechanical' ) ;
#64 = CYLINDRICAL_SURFACE ( 'NONE', #245, 8.000000000000000000 ) ;
#65 = CIRCLE ( 'NONE', #279, 3.100000000000000089 ) ;
#66 = CALENDAR_DATE ( 2022, 8, 7 ) ;
#67 = PLANE ( 'NONE',  #308 ) ;
#68 = APPROVAL_ROLE ( '' ) ;
#69 = ORIENTED_EDGE ( 'NONE', *, *, #350, .T. ) ;
#70 = CALENDAR_DATE ( 2022, 8, 7 ) ;
#71 = EDGE_LOOP ( 'NONE', ( #235, #294 ) ) ;
#72 = DIRECTION ( 'NONE',  ( -1.000000000000000000, 1.224646799147351482E-16, 0.000000000000000000 ) ) ;
#73 = CARTESIAN_POINT ( 'NONE',  ( 0.000000000000000000, 0.000000000000000000, 165.0000000000000000 ) ) ;
#74 = EDGE_CURVE ( 'NONE', #159, #324, #44, .T. ) ;
#75 = DIRECTION ( 'NONE',  ( 1.000000000000000000, 0.000000000000000000, 0.000000000000000000 ) ) ;
#76 = CIRCLE ( 'NONE', #267, 8.000000000000000000 ) ;
#77 = CARTESIAN_POINT ( 'NONE',  ( 0.000000000000000000, 0.000000000000000000, 165.0000000000000000 ) ) ;
#78 = DIRECTION ( 'NONE',  ( 0.000000000000000000, 0.000000000000000000, 1.000000000000000000 ) ) ;
#79 = EDGE_CURVE ( 'NONE', #241, #150, #143, .T. ) ;
#80 = CARTESIAN_POINT ( 'NONE',  ( 0.000000000000000000, 0.000000000000000000, 0.000000000000000000 ) ) ;
#81 = ORIENTED_EDGE ( 'NONE', *, *, #166, .T. ) ;
#82 = VECTOR ( 'NONE', #162, 1000.000000000000000 ) ;
#83 = LOCAL_TIME ( 16, 50, 55.00000000000000000, #320 ) ;
#84 = DIRECTION ( 'NONE',  ( -0.000000000000000000, -0.000000000000000000, -1.000000000000000000 ) ) ;
#85 = AXIS2_PLACEMENT_3D ( 'NONE', #187, #220, #75 ) ;
#86 = ORIENTED_EDGE ( 'NONE', *, *, #166, .F. ) ;
#87 = FACE_OUTER_BOUND ( 'NONE', #129, .T. ) ;
#88 = ORIENTED_EDGE ( 'NONE', *, *, #373, .F. ) ;
#89 = CC_DESIGN_DATE_AND_TIME_ASSIGNMENT ( #272, #7, ( #365 ) ) ;
#90 = ORIENTED_EDGE ( 'NONE', *, *, #332, .F. ) ;
#91 = DIRECTION ( 'NONE',  ( 0.000000000000000000, 0.000000000000000000, 1.000000000000000000 ) ) ;
#92 = APPROVAL_PERSON_ORGANIZATION ( #98, #288, #265 ) ;
#93 = EDGE_LOOP ( 'NONE', ( #125, #274, #69, #117 ) ) ;
#94 = ORIENTED_EDGE ( 'NONE', *, *, #225, .F. ) ;
#95 =( NAMED_UNIT ( * ) SI_UNIT ( $, .STERADIAN. ) SOLID_ANGLE_UNIT ( ) );
#96 = CARTESIAN_POINT ( 'NONE',  ( -8.000000000000000000, 0.000000000000000000, 5.000000000000000000 ) ) ;
#97 = DIRECTION ( 'NONE',  ( 1.000000000000000000, 0.000000000000000000, 0.000000000000000000 ) ) ;
#98 = PERSON_AND_ORGANIZATION ( #255, #204 ) ;
#99 = VERTEX_POINT ( 'NONE', #249 ) ;
#100 = EDGE_CURVE ( 'NONE', #159, #6, #151, .T. ) ;
#101 = APPROVAL_ROLE ( '' ) ;
#102 = DIRECTION ( 'NONE',  ( 0.000000000000000000, 0.000000000000000000, 1.000000000000000000 ) ) ;
#103 = AXIS2_PLACEMENT_3D ( 'NONE', #13, #131, #333 ) ;
#104 = DIRECTION ( 'NONE',  ( 1.000000000000000000, 0.000000000000000000, 0.000000000000000000 ) ) ;
#105 = DIRECTION ( 'NONE',  ( 1.000000000000000000, 0.000000000000000000, 0.000000000000000000 ) ) ;
#106 = CYLINDRICAL_SURFACE ( 'NONE', #54, 8.000000000000000000 ) ;
#107 =( GEOMETRIC_REPRESENTATION_CONTEXT ( 3 ) GLOBAL_UNCERTAINTY_ASSIGNED_CONTEXT ( ( #238 ) ) GLOBAL_UNIT_ASSIGNED_CONTEXT ( ( #231, #329, #95 ) ) REPRESENTATION_CONTEXT ( 'NONE', 'WORKASPACE' ) );
#108 = CARTESIAN_POINT ( 'NONE',  ( 0.000000000000000000, 0.000000000000000000, 5.000000000000000000 ) ) ;
#109 = ADVANCED_FACE ( 'NONE', ( #366 ), #161, .T. ) ;
#110 = DIRECTION ( 'NONE',  ( 1.000000000000000000, 0.000000000000000000, 0.000000000000000000 ) ) ;
#111 = DIRECTION ( 'NONE',  ( 1.000000000000000000, 0.000000000000000000, -0.000000000000000000 ) ) ;
#112 = ORIENTED_EDGE ( 'NONE', *, *, #100, .T. ) ;
#113 = TOROIDAL_SURFACE ( 'NONE', #257, 5.500000000000000000, 0.5000000000000000000 ) ;
#114 = EDGE_CURVE ( 'NONE', #150, #241, #229, .T. ) ;
#115 = DIRECTION ( 'NONE',  ( -0.000000000000000000, -0.000000000000000000, -1.000000000000000000 ) ) ;
#116 = AXIS2_PLACEMENT_3D ( 'NONE', #247, #135, #222 ) ;
#117 = ORIENTED_EDGE ( 'NONE', *, *, #185, .T. ) ;
#118 = CARTESIAN_POINT ( 'NONE',  ( 0.000000000000000000, 0.000000000000000000, 165.0000000000000000 ) ) ;
#119 = ORIENTED_EDGE ( 'NONE', *, *, #121, .T. ) ;
#120 = CARTESIAN_POINT ( 'NONE',  ( -5.000000000000000000, 0.000000000000000000, 165.0000000000000000 ) ) ;
#121 = EDGE_CURVE ( 'NONE', #144, #269, #297, .T. ) ;
#122 = PERSON_AND_ORGANIZATION_ROLE ( 'design_owner' ) ;
#123 = ORIENTED_EDGE ( 'NONE', *, *, #221, .F. ) ;
#124 = APPROVAL_STATUS ( 'not_yet_approved' ) ;
#125 = ORIENTED_EDGE ( 'NONE', *, *, #74, .F. ) ;
#126 = DIRECTION ( 'NONE',  ( 1.000000000000000000, 0.000000000000000000, 0.000000000000000000 ) ) ;
#127 = CIRCLE ( 'NONE', #370, 5.500000000000000000 ) ;
#128 = APPROVAL_DATE_TIME ( #270, #160 ) ;
#129 = EDGE_LOOP ( 'NONE', ( #24, #62, #158, #88 ) ) ;
#130 = DIRECTION ( 'NONE',  ( -0.000000000000000000, -0.000000000000000000, -1.000000000000000000 ) ) ;
#131 = DIRECTION ( 'NONE',  ( 0.000000000000000000, -1.000000000000000000, 0.000000000000000000 ) ) ;
#132 = AXIS2_PLACEMENT_3D ( 'NONE', #275, #3, #12 ) ;
#133 = APPROVAL_PERSON_ORGANIZATION ( #354, #160, #68 ) ;
#134 = DIRECTION ( 'NONE',  ( -0.000000000000000000, -0.000000000000000000, -1.000000000000000000 ) ) ;
#135 = DIRECTION ( 'NONE',  ( 0.000000000000000000, 0.000000000000000000, 1.000000000000000000 ) ) ;
#136 = DIRECTION ( 'NONE',  ( 0.000000000000000000, 0.000000000000000000, -1.000000000000000000 ) ) ;
#137 = EDGE_CURVE ( 'NONE', #150, #99, #177, .T. ) ;
#138 = CARTESIAN_POINT ( 'NONE',  ( 0.000000000000000000, 0.000000000000000000, 0.000000000000000000 ) ) ;
#139 = CARTESIAN_POINT ( 'NONE',  ( 3.100000000000000089, 3.796405077356794918E-16, 165.0000000000000000 ) ) ;
#140 = EDGE_LOOP ( 'NONE', ( #153, #31 ) ) ;
#141 = EDGE_CURVE ( 'NONE', #324, #349, #76, .T. ) ;
#142 = FACE_OUTER_BOUND ( 'NONE', #140, .T. ) ;
#143 = CIRCLE ( 'NONE', #116, 5.000000000000000000 ) ;
#144 = VERTEX_POINT ( 'NONE', #278 ) ;
#145 = DIRECTION ( 'NONE',  ( -1.000000000000000000, 0.000000000000000000, 0.000000000000000000 ) ) ;
#146 = EDGE_LOOP ( 'NONE', ( #360, #22, #90, #43 ) ) ;
#147 = ADVANCED_FACE ( 'NONE', ( #309 ), #219, .F. ) ;
#148 = APPROVAL_DATE_TIME ( #292, #315 ) ;
#149 = AXIS2_PLACEMENT_3D ( 'NONE', #299, #323, #126 ) ;
#150 = VERTEX_POINT ( 'NONE', #334 ) ;
#151 = CIRCLE ( 'NONE', #345, 8.000000000000000000 ) ;
#152 = COORDINATED_UNIVERSAL_TIME_OFFSET ( 1, 0, .AHEAD. ) ;
#153 = ORIENTED_EDGE ( 'NONE', *, *, #4, .T. ) ;
#154 = ADVANCED_FACE ( 'NONE', ( #250 ), #364, .T. ) ;
#155 = PERSON_AND_ORGANIZATION ( #255, #204 ) ;
#156 = APPLICATION_PROTOCOL_DEFINITION ( 'international standard', 'config_control_design', 1994, #281 ) ;
#157 = AXIS2_PLACEMENT_3D ( 'NONE', #138, #115, #316 ) ;
#158 = ORIENTED_EDGE ( 'NONE', *, *, #137, .T. ) ;
#159 = VERTEX_POINT ( 'NONE', #307 ) ;
#160 = APPROVAL ( #381, 'NEURÈENÝ' ) ;
#161 = CYLINDRICAL_SURFACE ( 'NONE', #190, 5.000000000000000000 ) ;
#162 = DIRECTION ( 'NONE',  ( -0.000000000000000000, -0.000000000000000000, -1.000000000000000000 ) ) ;
#163 = VECTOR ( 'NONE', #286, 1000.000000000000000 ) ;
#164 = CIRCLE ( 'NONE', #246, 5.500000000000000000 ) ;
#165 = CARTESIAN_POINT ( 'NONE',  ( 0.000000000000000000, 0.000000000000000000, 5.500000000000005329 ) ) ;
#166 = EDGE_CURVE ( 'NONE', #352, #285, #218, .T. ) ;
#167 = DIRECTION ( 'NONE',  ( -1.000000000000000000, 0.000000000000000000, 0.000000000000000000 ) ) ;
#168 = CARTESIAN_POINT ( 'NONE',  ( -5.500000000000000000, 6.735557395310442023E-16, 5.500000000000005329 ) ) ;
#169 = LOCAL_TIME ( 16, 50, 55.00000000000000000, #38 ) ;
#170 = FACE_OUTER_BOUND ( 'NONE', #9, .T. ) ;
#171 = DIRECTION ( 'NONE',  ( -0.000000000000000000, -0.000000000000000000, -1.000000000000000000 ) ) ;
#172 = ORIENTED_EDGE ( 'NONE', *, *, #363, .F. ) ;
#173 = DIRECTION ( 'NONE',  ( -0.000000000000000000, -0.000000000000000000, -1.000000000000000000 ) ) ;
#174 = DIRECTION ( 'NONE',  ( 0.000000000000000000, 0.000000000000000000, 1.000000000000000000 ) ) ;
#175 = CC_DESIGN_PERSON_AND_ORGANIZATION_ASSIGNMENT ( #36, #122, ( #178 ) ) ;
#176 = PERSON_AND_ORGANIZATION_ROLE ( 'creator' ) ;
#177 = CIRCLE ( 'NONE', #103, 0.5000000000000004441 ) ;
#178 = PRODUCT ( '32cd', '32cd', '', ( #63 ) ) ;
#179 = CARTESIAN_POINT ( 'NONE',  ( 0.000000000000000000, 0.000000000000000000, 5.000000000000000000 ) ) ;
#180 = AXIS2_PLACEMENT_3D ( 'NONE', #335, #45, #368 ) ;
#181 = ADVANCED_FACE ( 'NONE', ( #336 ), #106, .T. ) ;
#182 = CARTESIAN_POINT ( 'NONE',  ( 0.000000000000000000, 0.000000000000000000, 5.000000000000000000 ) ) ;
#183 = PERSON_AND_ORGANIZATION ( #255, #204 ) ;
#184 = VERTEX_POINT ( 'NONE', #282 ) ;
#185 = EDGE_CURVE ( 'NONE', #349, #324, #343, .T. ) ;
#186 = ORIENTED_EDGE ( 'NONE', *, *, #100, .F. ) ;
#187 = CARTESIAN_POINT ( 'NONE',  ( 0.000000000000000000, 0.000000000000000000, 165.0000000000000000 ) ) ;
#188 = DIRECTION ( 'NONE',  ( 0.000000000000000000, 0.000000000000000000, 1.000000000000000000 ) ) ;
#189 = FACE_OUTER_BOUND ( 'NONE', #146, .T. ) ;
#190 = AXIS2_PLACEMENT_3D ( 'NONE', #77, #130, #244 ) ;
#191 = PRODUCT_DEFINITION_FORMATION_WITH_SPECIFIED_SOURCE ( 'LIBOVOLNÝ', '', #178, .NOT_KNOWN. ) ;
#192 = EDGE_CURVE ( 'NONE', #241, #262, #15, .T. ) ;
#193 = CIRCLE ( 'NONE', #259, 8.000000000000000000 ) ;
#194 = DIRECTION ( 'NONE',  ( -0.000000000000000000, -0.000000000000000000, -1.000000000000000000 ) ) ;
#195 = CARTESIAN_POINT ( 'NONE',  ( 0.000000000000000000, 0.000000000000000000, 5.000000000000000000 ) ) ;
#196 = PLANE ( 'NONE',  #208 ) ;
#197 = APPROVAL_PERSON_ORGANIZATION ( #183, #315, #101 ) ;
#198 = DIRECTION ( 'NONE',  ( 1.000000000000000000, 0.000000000000000000, 0.000000000000000000 ) ) ;
#199 = ORIENTED_EDGE ( 'NONE', *, *, #141, .T. ) ;
#200 = DIRECTION ( 'NONE',  ( 1.000000000000000000, 0.000000000000000000, 0.000000000000000000 ) ) ;
#201 = ADVANCED_BREP_SHAPE_REPRESENTATION ( '32cd', ( #8, #149 ), #107 ) ;
#202 = FACE_OUTER_BOUND ( 'NONE', #296, .T. ) ;
#203 = EDGE_CURVE ( 'NONE', #344, #184, #277, .T. ) ;
#204 = ORGANIZATION ( 'NEURÈENÝ', 'NEURÈENÝ', '' ) ;
#205 = CARTESIAN_POINT ( 'NONE',  ( 0.000000000000000000, 0.000000000000000000, 165.0000000000000000 ) ) ;
#206 = DIRECTION ( 'NONE',  ( -0.000000000000000000, -0.000000000000000000, -1.000000000000000000 ) ) ;
#207 = ORIENTED_EDGE ( 'NONE', *, *, #221, .T. ) ;
#208 = AXIS2_PLACEMENT_3D ( 'NONE', #118, #311, #284 ) ;
#209 = PERSON_AND_ORGANIZATION ( #255, #204 ) ;
#210 = TOROIDAL_SURFACE ( 'NONE', #10, 5.500000000000000000, 0.5000000000000000000 ) ;
#211 = FACE_BOUND ( 'NONE', #71, .T. ) ;
#212 = VECTOR ( 'NONE', #372, 1000.000000000000000 ) ;
#213 = ORIENTED_EDGE ( 'NONE', *, *, #185, .F. ) ;
#214 = CALENDAR_DATE ( 2022, 8, 7 ) ;
#215 = ORIENTED_EDGE ( 'NONE', *, *, #369, .F. ) ;
#216 = ADVANCED_FACE ( 'NONE', ( #189 ), #113, .F. ) ;
#217 = CARTESIAN_POINT ( 'NONE',  ( 0.000000000000000000, 0.000000000000000000, 165.0000000000000000 ) ) ;
#218 = CIRCLE ( 'NONE', #180, 3.100000000000000089 ) ;
#219 = CYLINDRICAL_SURFACE ( 'NONE', #325, 3.100000000000000089 ) ;
#220 = DIRECTION ( 'NONE',  ( 0.000000000000000000, 0.000000000000000000, 1.000000000000000000 ) ) ;
#221 = EDGE_CURVE ( 'NONE', #269, #144, #65, .T. ) ;
#222 = DIRECTION ( 'NONE',  ( 1.000000000000000000, 0.000000000000000000, 0.000000000000000000 ) ) ;
#223 = LOCAL_TIME ( 16, 50, 55.00000000000000000, #152 ) ;
#224 = DIRECTION ( 'NONE',  ( 1.000000000000000000, 0.000000000000000000, 0.000000000000000000 ) ) ;
#225 = EDGE_CURVE ( 'NONE', #269, #352, #253, .T. ) ;
#226 = CARTESIAN_POINT ( 'NONE',  ( -5.000000000000000000, 0.000000000000000000, 5.500000000000005329 ) ) ;
#227 = LINE ( 'NONE', #342, #312 ) ;
#228 = ORIENTED_EDGE ( 'NONE', *, *, #114, .T. ) ;
#229 = CIRCLE ( 'NONE', #14, 5.000000000000000000 ) ;
#230 = DIRECTION ( 'NONE',  ( 0.000000000000000000, 0.000000000000000000, 1.000000000000000000 ) ) ;
#231 =( LENGTH_UNIT ( ) NAMED_UNIT ( * ) SI_UNIT ( .MILLI., .METRE. ) );
#232 = EDGE_CURVE ( 'NONE', #144, #285, #375, .T. ) ;
#233 = CARTESIAN_POINT ( 'NONE',  ( 0.000000000000000000, 0.000000000000000000, 5.000000000000000000 ) ) ;
#234 = CALENDAR_DATE ( 2022, 8, 7 ) ;
#235 = ORIENTED_EDGE ( 'NONE', *, *, #332, .T. ) ;
#236 = PERSON_AND_ORGANIZATION_ROLE ( 'design_supplier' ) ;
#237 = DIRECTION ( 'NONE',  ( 0.000000000000000000, 0.000000000000000000, 1.000000000000000000 ) ) ;
#238 = UNCERTAINTY_MEASURE_WITH_UNIT (LENGTH_MEASURE( 1.000000000000000082E-05 ), #231, 'distance_accuracy_value', 'NONE');
#239 = PERSON_AND_ORGANIZATION ( #255, #204 ) ;
#240 = LOCAL_TIME ( 16, 50, 55.00000000000000000, #326 ) ;
#241 = VERTEX_POINT ( 'NONE', #226 ) ;
#242 = PERSON_AND_ORGANIZATION_ROLE ( 'creator' ) ;
#243 = FACE_OUTER_BOUND ( 'NONE', #314, .T. ) ;
#244 = DIRECTION ( 'NONE',  ( -1.000000000000000000, 0.000000000000000000, 0.000000000000000000 ) ) ;
#245 = AXIS2_PLACEMENT_3D ( 'NONE', #179, #206, #271 ) ;
#246 = AXIS2_PLACEMENT_3D ( 'NONE', #233, #380, #317 ) ;
#247 = CARTESIAN_POINT ( 'NONE',  ( 0.000000000000000000, 0.000000000000000000, 5.500000000000005329 ) ) ;
#248 = ADVANCED_FACE ( 'NONE', ( #340, #142 ), #196, .T. ) ;
#249 = CARTESIAN_POINT ( 'NONE',  ( 5.500000000000000000, 0.000000000000000000, 5.000000000000002665 ) ) ;
#250 = FACE_OUTER_BOUND ( 'NONE', #40, .T. ) ;
#251 = DIRECTION ( 'NONE',  ( 0.000000000000000000, 0.000000000000000000, 1.000000000000000000 ) ) ;
#252 = CC_DESIGN_APPROVAL ( #160, ( #328 ) ) ;
#253 = LINE ( 'NONE', #139, #212 ) ;
#254 = CARTESIAN_POINT ( 'NONE',  ( -5.500000000000000000, 6.735557395310442023E-16, 5.000000000000002665 ) ) ;
#255 = PERSON ( 'NEURÈENÝ', 'NEURÈENÝ', 'NEURÈENÝ', ('NEURÈENÝ'), ('NEURÈENÝ'), ('NEURÈENÝ') ) ;
#256 = CARTESIAN_POINT ( 'NONE',  ( 0.000000000000000000, 0.000000000000000000, 5.500000000000005329 ) ) ;
#257 = AXIS2_PLACEMENT_3D ( 'NONE', #165, #174, #200 ) ;
#258 = CC_DESIGN_SECURITY_CLASSIFICATION ( #365, ( #191 ) ) ;
#259 = AXIS2_PLACEMENT_3D ( 'NONE', #322, #237, #97 ) ;
#260 = CC_DESIGN_PERSON_AND_ORGANIZATION_ASSIGNMENT ( #239, #242, ( #328 ) ) ;
#261 = CARTESIAN_POINT ( 'NONE',  ( -3.100000000000000089, 0.000000000000000000, 0.000000000000000000 ) ) ;
#262 = VERTEX_POINT ( 'NONE', #254 ) ;
#263 = CARTESIAN_POINT ( 'NONE',  ( 8.000000000000000000, 9.797174393178825657E-16, 0.000000000000000000 ) ) ;
#264 = ORIENTED_EDGE ( 'NONE', *, *, #350, .F. ) ;
#265 = APPROVAL_ROLE ( '' ) ;
#266 = EDGE_LOOP ( 'NONE', ( #379, #123 ) ) ;
#267 = AXIS2_PLACEMENT_3D ( 'NONE', #310, #251, #224 ) ;
#268 = DATE_AND_TIME ( #234, #169 ) ;
#269 = VERTEX_POINT ( 'NONE', #53 ) ;
#270 = DATE_AND_TIME ( #214, #223 ) ;
#271 = DIRECTION ( 'NONE',  ( -1.000000000000000000, 0.000000000000000000, 0.000000000000000000 ) ) ;
#272 = DATE_AND_TIME ( #66, #240 ) ;
#273 = APPLICATION_PROTOCOL_DEFINITION ( 'international standard', 'config_control_design', 1994, #303 ) ;
#274 = ORIENTED_EDGE ( 'NONE', *, *, #46, .F. ) ;
#275 = CARTESIAN_POINT ( 'NONE',  ( 0.000000000000000000, 0.000000000000000000, 165.0000000000000000 ) ) ;
#276 = DIRECTION ( 'NONE',  ( 0.000000000000000000, 0.000000000000000000, 1.000000000000000000 ) ) ;
#277 = CIRCLE ( 'NONE', #85, 5.000000000000000000 ) ;
#278 = CARTESIAN_POINT ( 'NONE',  ( -3.100000000000000089, 0.000000000000000000, 165.0000000000000000 ) ) ;
#279 = AXIS2_PLACEMENT_3D ( 'NONE', #49, #91, #110 ) ;
#280 = CARTESIAN_POINT ( 'NONE',  ( 8.000000000000000000, 9.797174393178825657E-16, 5.000000000000000000 ) ) ;
#281 = APPLICATION_CONTEXT ( 'configuration controlled 3d designs of mechanical parts and assemblies' ) ;
#282 = CARTESIAN_POINT ( 'NONE',  ( -5.000000000000000000, 0.000000000000000000, 165.0000000000000000 ) ) ;
#283 = DIRECTION ( 'NONE',  ( 1.224646799147353207E-16, 1.000000000000000000, -0.000000000000000000 ) ) ;
#284 = DIRECTION ( 'NONE',  ( 1.000000000000000000, 0.000000000000000000, -0.000000000000000000 ) ) ;
#285 = VERTEX_POINT ( 'NONE', #261 ) ;
#286 = DIRECTION ( 'NONE',  ( 0.000000000000000000, 0.000000000000000000, -1.000000000000000000 ) ) ;
#287 = ORIENTED_EDGE ( 'NONE', *, *, #74, .T. ) ;
#288 = APPROVAL ( #124, 'NEURÈENÝ' ) ;
#289 = DIRECTION ( 'NONE',  ( 1.000000000000000000, 0.000000000000000000, 0.000000000000000000 ) ) ;
#290 = CIRCLE ( 'NONE', #157, 3.100000000000000089 ) ;
#291 = DIRECTION ( 'NONE',  ( -0.000000000000000000, -0.000000000000000000, -1.000000000000000000 ) ) ;
#292 = DATE_AND_TIME ( #70, #48 ) ;
#293 = EDGE_CURVE ( 'NONE', #184, #241, #20, .T. ) ;
#294 = ORIENTED_EDGE ( 'NONE', *, *, #373, .T. ) ;
#295 = APPROVAL_STATUS ( 'not_yet_approved' ) ;
#296 = EDGE_LOOP ( 'NONE', ( #119, #305, #81, #330 ) ) ;
#297 = CIRCLE ( 'NONE', #358, 3.100000000000000089 ) ;
#298 = CC_DESIGN_APPROVAL ( #315, ( #365 ) ) ;
#299 = CARTESIAN_POINT ( 'NONE',  ( 0.000000000000000000, 0.000000000000000000, 0.000000000000000000 ) ) ;
#300 = ORIENTED_EDGE ( 'NONE', *, *, #363, .T. ) ;
#301 = DATE_AND_TIME ( #359, #83 ) ;
#302 = ADVANCED_FACE ( 'NONE', ( #202 ), #21, .F. ) ;
#303 = APPLICATION_CONTEXT ( 'configuration controlled 3d designs of mechanical parts and assemblies' ) ;
#304 = CC_DESIGN_APPROVAL ( #288, ( #191 ) ) ;
#305 = ORIENTED_EDGE ( 'NONE', *, *, #225, .T. ) ;
#306 = DIRECTION ( 'NONE',  ( 1.000000000000000000, 0.000000000000000000, 0.000000000000000000 ) ) ;
#307 = CARTESIAN_POINT ( 'NONE',  ( 8.000000000000000000, 9.797174393178825657E-16, 5.000000000000000000 ) ) ;
#308 = AXIS2_PLACEMENT_3D ( 'NONE', #182, #276, #18 ) ;
#309 = FACE_OUTER_BOUND ( 'NONE', #37, .T. ) ;
#310 = CARTESIAN_POINT ( 'NONE',  ( 0.000000000000000000, 0.000000000000000000, 0.000000000000000000 ) ) ;
#311 = DIRECTION ( 'NONE',  ( 0.000000000000000000, 0.000000000000000000, 1.000000000000000000 ) ) ;
#312 = VECTOR ( 'NONE', #84, 1000.000000000000000 ) ;
#313 = LINE ( 'NONE', #55, #41 ) ;
#314 = EDGE_LOOP ( 'NONE', ( #186, #287, #199, #264 ) ) ;
#315 = APPROVAL ( #295, 'NEURÈENÝ' ) ;
#316 = DIRECTION ( 'NONE',  ( 1.000000000000000000, 0.000000000000000000, 0.000000000000000000 ) ) ;
#317 = DIRECTION ( 'NONE',  ( 1.000000000000000000, 0.000000000000000000, 0.000000000000000000 ) ) ;
#318 = ORIENTED_EDGE ( 'NONE', *, *, #369, .T. ) ;
#319 = ORIENTED_EDGE ( 'NONE', *, *, #141, .F. ) ;
#320 = COORDINATED_UNIVERSAL_TIME_OFFSET ( 1, 0, .AHEAD. ) ;
#321 = PRODUCT_DEFINITION_SHAPE ( 'NONE', 'NONE',  #328 ) ;
#322 = CARTESIAN_POINT ( 'NONE',  ( 0.000000000000000000, 0.000000000000000000, 5.000000000000000000 ) ) ;
#323 = DIRECTION ( 'NONE',  ( 0.000000000000000000, 0.000000000000000000, 1.000000000000000000 ) ) ;
#324 = VERTEX_POINT ( 'NONE', #263 ) ;
#325 = AXIS2_PLACEMENT_3D ( 'NONE', #52, #136, #371 ) ;
#326 = COORDINATED_UNIVERSAL_TIME_OFFSET ( 1, 0, .AHEAD. ) ;
#327 = FACE_OUTER_BOUND ( 'NONE', #59, .T. ) ;
#328 = PRODUCT_DEFINITION ( 'NEZNÁMÝ', '', #191, #337 ) ;
#329 =( NAMED_UNIT ( * ) PLANE_ANGLE_UNIT ( ) SI_UNIT ( $, .RADIAN. ) );
#330 = ORIENTED_EDGE ( 'NONE', *, *, #232, .F. ) ;
#331 = AXIS2_PLACEMENT_3D ( 'NONE', #80, #23, #111 ) ;
#332 = EDGE_CURVE ( 'NONE', #99, #262, #164, .T. ) ;
#333 = DIRECTION ( 'NONE',  ( 0.000000000000000000, 0.000000000000000000, -1.000000000000000000 ) ) ;
#334 = CARTESIAN_POINT ( 'NONE',  ( 5.000000000000000000, 6.123233995736766282E-16, 5.500000000000005329 ) ) ;
#335 = CARTESIAN_POINT ( 'NONE',  ( 0.000000000000000000, 0.000000000000000000, 0.000000000000000000 ) ) ;
#336 = FACE_OUTER_BOUND ( 'NONE', #93, .T. ) ;
#337 = DESIGN_CONTEXT ( 'detailed design', #303, 'design' ) ;
#338 = CC_DESIGN_DATE_AND_TIME_ASSIGNMENT ( #301, #5, ( #328 ) ) ;
#339 = DIRECTION ( 'NONE',  ( 0.000000000000000000, 0.000000000000000000, 1.000000000000000000 ) ) ;
#340 = FACE_BOUND ( 'NONE', #266, .T. ) ;
#341 = ADVANCED_FACE ( 'NONE', ( #374, #170 ), #25, .F. ) ;
#342 = CARTESIAN_POINT ( 'NONE',  ( -8.000000000000000000, 0.000000000000000000, 5.000000000000000000 ) ) ;
#343 = CIRCLE ( 'NONE', #378, 8.000000000000000000 ) ;
#344 = VERTEX_POINT ( 'NONE', #57 ) ;
#345 = AXIS2_PLACEMENT_3D ( 'NONE', #195, #102, #306 ) ;
#346 = CARTESIAN_POINT ( 'NONE',  ( -3.100000000000000089, 0.000000000000000000, 165.0000000000000000 ) ) ;
#347 = EDGE_LOOP ( 'NONE', ( #172, #11, #33, #353 ) ) ;
#348 = CARTESIAN_POINT ( 'NONE',  ( -8.000000000000000000, 0.000000000000000000, 0.000000000000000000 ) ) ;
#349 = VERTEX_POINT ( 'NONE', #348 ) ;
#350 = EDGE_CURVE ( 'NONE', #6, #349, #227, .T. ) ;
#351 = COORDINATED_UNIVERSAL_TIME_OFFSET ( 1, 0, .AHEAD. ) ;
#352 = VERTEX_POINT ( 'NONE', #58 ) ;
#353 = ORIENTED_EDGE ( 'NONE', *, *, #79, .T. ) ;
#354 = PERSON_AND_ORGANIZATION ( #255, #204 ) ;
#355 = ADVANCED_FACE ( 'NONE', ( #87 ), #210, .F. ) ;
#356 = ORIENTED_EDGE ( 'NONE', *, *, #46, .T. ) ;
#357 = CIRCLE ( 'NONE', #132, 5.000000000000000000 ) ;
#358 = AXIS2_PLACEMENT_3D ( 'NONE', #217, #188, #104 ) ;
#359 = CALENDAR_DATE ( 2022, 8, 7 ) ;
#360 = ORIENTED_EDGE ( 'NONE', *, *, #79, .F. ) ;
#361 = PERSON_AND_ORGANIZATION ( #255, #204 ) ;
#362 = ORIENTED_EDGE ( 'NONE', *, *, #293, .F. ) ;
#363 = EDGE_CURVE ( 'NONE', #344, #150, #313, .T. ) ;
#364 = CYLINDRICAL_SURFACE ( 'NONE', #26, 5.000000000000000000 ) ;
#365 = SECURITY_CLASSIFICATION ( '', '', #2 ) ;
#366 = FACE_OUTER_BOUND ( 'NONE', #347, .T. ) ;
#367 = CARTESIAN_POINT ( 'NONE',  ( 0.000000000000000000, 0.000000000000000000, 0.000000000000000000 ) ) ;
#368 = DIRECTION ( 'NONE',  ( 1.000000000000000000, 0.000000000000000000, 0.000000000000000000 ) ) ;
#369 = EDGE_CURVE ( 'NONE', #285, #352, #290, .T. ) ;
#370 = AXIS2_PLACEMENT_3D ( 'NONE', #56, #173, #289 ) ;
#371 = DIRECTION ( 'NONE',  ( -1.000000000000000000, 0.000000000000000000, 0.000000000000000000 ) ) ;
#372 = DIRECTION ( 'NONE',  ( 0.000000000000000000, 0.000000000000000000, -1.000000000000000000 ) ) ;
#373 = EDGE_CURVE ( 'NONE', #262, #99, #127, .T. ) ;
#374 = FACE_BOUND ( 'NONE', #377, .T. ) ;
#375 = LINE ( 'NONE', #346, #163 ) ;
#376 = AXIS2_PLACEMENT_3D ( 'NONE', #205, #29, #145 ) ;
#377 = EDGE_LOOP ( 'NONE', ( #215, #86 ) ) ;
#378 = AXIS2_PLACEMENT_3D ( 'NONE', #367, #78, #105 ) ;
#379 = ORIENTED_EDGE ( 'NONE', *, *, #121, .F. ) ;
#380 = DIRECTION ( 'NONE',  ( -0.000000000000000000, -0.000000000000000000, -1.000000000000000000 ) ) ;
#381 = APPROVAL_STATUS ( 'not_yet_approved' ) ;
ENDSEC;
END-ISO-10303-21;
