ISO-10303-21;
HEADER;
FILE_DESCRIPTION (( 'STEP AP203' ),
    '1' );
FILE_NAME ('2c98.STEP',
    '2022-07-08T15:40:13',
    ( '' ),
    ( '' ),
    'SwSTEP 2.0',
    'SolidWorks 2019',
    '' );
FILE_SCHEMA (( 'CONFIG_CONTROL_DESIGN' ));
ENDSEC;

DATA;
#1 = ORIENTED_EDGE ( 'NONE', *, *, #147, .F. ) ;
#2 = ADVANCED_BREP_SHAPE_REPRESENTATION ( '2c98', ( #260, #355 ), #126 ) ;
#3 = ORIENTED_EDGE ( 'NONE', *, *, #95, .T. ) ;
#4 =( LENGTH_UNIT ( ) NAMED_UNIT ( * ) SI_UNIT ( .MILLI., .METRE. ) );
#5 = ORIENTED_EDGE ( 'NONE', *, *, #346, .F. ) ;
#6 = EDGE_CURVE ( 'NONE', #215, #96, #176, .T. ) ;
#7 = DIRECTION ( 'NONE',  ( 1.000000000000000000, 0.000000000000000000, 0.000000000000000000 ) ) ;
#8 = ORIENTED_EDGE ( 'NONE', *, *, #296, .T. ) ;
#9 = DIRECTION ( 'NONE',  ( 1.000000000000000000, 0.000000000000000000, 0.000000000000000000 ) ) ;
#10 = DIRECTION ( 'NONE',  ( 0.000000000000000000, 0.000000000000000000, 1.000000000000000000 ) ) ;
#11 = AXIS2_PLACEMENT_3D ( 'NONE', #298, #261, #30 ) ;
#12 = EDGE_CURVE ( 'NONE', #96, #215, #380, .T. ) ;
#13 = DIRECTION ( 'NONE',  ( -1.000000000000000000, 0.000000000000000000, 0.000000000000000000 ) ) ;
#14 = APPROVAL_ROLE ( '' ) ;
#15 = DIRECTION ( 'NONE',  ( 0.000000000000000000, 0.000000000000000000, -1.000000000000000000 ) ) ;
#16 = SECURITY_CLASSIFICATION_LEVEL ( 'unclassified' ) ;
#17 = ADVANCED_FACE ( 'NONE', ( #358 ), #335, .T. ) ;
#18 = DATE_TIME_ROLE ( 'classification_date' ) ;
#19 = LINE ( 'NONE', #163, #155 ) ;
#20 = AXIS2_PLACEMENT_3D ( 'NONE', #28, #112, #235 ) ;
#21 = APPROVAL_PERSON_ORGANIZATION ( #259, #46, #249 ) ;
#22 = PERSON ( 'NEURÈENÝ', 'NEURÈENÝ', 'NEURÈENÝ', ('NEURÈENÝ'), ('NEURÈENÝ'), ('NEURÈENÝ') ) ;
#23 = CARTESIAN_POINT ( 'NONE',  ( 0.000000000000000000, 0.000000000000000000, 0.000000000000000000 ) ) ;
#24 = FACE_OUTER_BOUND ( 'NONE', #212, .T. ) ;
#25 = EDGE_CURVE ( 'NONE', #332, #117, #252, .T. ) ;
#26 = AXIS2_PLACEMENT_3D ( 'NONE', #227, #10, #160 ) ;
#27 = SECURITY_CLASSIFICATION ( '', '', #16 ) ;
#28 = CARTESIAN_POINT ( 'NONE',  ( 0.000000000000000000, 0.000000000000000000, 0.000000000000000000 ) ) ;
#29 = VERTEX_POINT ( 'NONE', #128 ) ;
#30 = DIRECTION ( 'NONE',  ( 1.000000000000000000, 0.000000000000000000, 0.000000000000000000 ) ) ;
#31 = CC_DESIGN_DATE_AND_TIME_ASSIGNMENT ( #291, #18, ( #27 ) ) ;
#32 = ORIENTED_EDGE ( 'NONE', *, *, #205, .F. ) ;
#33 = VERTEX_POINT ( 'NONE', #193 ) ;
#34 = ORIENTED_EDGE ( 'NONE', *, *, #334, .T. ) ;
#35 =( NAMED_UNIT ( * ) SI_UNIT ( $, .STERADIAN. ) SOLID_ANGLE_UNIT ( ) );
#36 = ORIENTED_EDGE ( 'NONE', *, *, #12, .T. ) ;
#37 = VECTOR ( 'NONE', #321, 1000.000000000000000 ) ;
#38 = DIRECTION ( 'NONE',  ( 0.000000000000000000, 0.000000000000000000, 1.000000000000000000 ) ) ;
#39 = CARTESIAN_POINT ( 'NONE',  ( 0.000000000000000000, 0.000000000000000000, 80.00000000000000000 ) ) ;
#40 = CARTESIAN_POINT ( 'NONE',  ( -3.000000000000000444, 0.000000000000000000, 80.00000000000000000 ) ) ;
#41 = ADVANCED_FACE ( 'NONE', ( #340 ), #133, .F. ) ;
#42 = PERSON_AND_ORGANIZATION ( #22, #331 ) ;
#43 = CARTESIAN_POINT ( 'NONE',  ( 3.500000000000000444, 0.000000000000000000, 5.500000000000005329 ) ) ;
#44 = DIRECTION ( 'NONE',  ( 0.000000000000000000, 0.000000000000000000, 1.000000000000000000 ) ) ;
#45 = DIRECTION ( 'NONE',  ( 1.000000000000000000, 0.000000000000000000, 0.000000000000000000 ) ) ;
#46 = APPROVAL ( #283, 'NEURÈENÝ' ) ;
#47 = DIRECTION ( 'NONE',  ( -1.000000000000000000, 0.000000000000000000, 0.000000000000000000 ) ) ;
#48 = DIRECTION ( 'NONE',  ( -1.000000000000000000, 0.000000000000000000, 0.000000000000000000 ) ) ;
#49 = AXIS2_PLACEMENT_3D ( 'NONE', #276, #207, #64 ) ;
#50 = ORIENTED_EDGE ( 'NONE', *, *, #6, .F. ) ;
#51 = CC_DESIGN_DATE_AND_TIME_ASSIGNMENT ( #164, #256, ( #225 ) ) ;
#52 = CARTESIAN_POINT ( 'NONE',  ( 0.000000000000000000, 0.000000000000000000, 80.00000000000000000 ) ) ;
#53 = ORIENTED_EDGE ( 'NONE', *, *, #91, .F. ) ;
#54 = AXIS2_PLACEMENT_3D ( 'NONE', #39, #288, #76 ) ;
#55 = CC_DESIGN_APPROVAL ( #107, ( #225 ) ) ;
#56 = DIRECTION ( 'NONE',  ( 1.224646799147353207E-16, 1.000000000000000000, -0.000000000000000000 ) ) ;
#57 = CARTESIAN_POINT ( 'NONE',  ( 3.000000000000000444, 3.673940397442060361E-16, 80.00000000000000000 ) ) ;
#58 = DIRECTION ( 'NONE',  ( 0.000000000000000000, 0.000000000000000000, 1.000000000000000000 ) ) ;
#59 = ORIENTED_EDGE ( 'NONE', *, *, #147, .T. ) ;
#60 = DIRECTION ( 'NONE',  ( -0.000000000000000000, -0.000000000000000000, -1.000000000000000000 ) ) ;
#61 = ORIENTED_EDGE ( 'NONE', *, *, #110, .F. ) ;
#62 =( NAMED_UNIT ( * ) PLANE_ANGLE_UNIT ( ) SI_UNIT ( $, .RADIAN. ) );
#63 = ORIENTED_EDGE ( 'NONE', *, *, #12, .F. ) ;
#64 = DIRECTION ( 'NONE',  ( 1.000000000000000000, 0.000000000000000000, 0.000000000000000000 ) ) ;
#65 = ORIENTED_EDGE ( 'NONE', *, *, #6, .T. ) ;
#66 = CIRCLE ( 'NONE', #90, 0.4999999999999995559 ) ;
#67 = LOCAL_TIME ( 17, 40, 13.00000000000000000, #122 ) ;
#68 = ORIENTED_EDGE ( 'NONE', *, *, #334, .F. ) ;
#69 = COORDINATED_UNIVERSAL_TIME_OFFSET ( 1, 0, .AHEAD. ) ;
#70 = DIRECTION ( 'NONE',  ( 0.000000000000000000, 0.000000000000000000, 1.000000000000000000 ) ) ;
#71 = APPLICATION_CONTEXT ( 'configuration controlled 3d designs of mechanical parts and assemblies' ) ;
#72 = CARTESIAN_POINT ( 'NONE',  ( 0.000000000000000000, 0.000000000000000000, 80.00000000000000000 ) ) ;
#73 = PERSON_AND_ORGANIZATION ( #22, #331 ) ;
#74 = VECTOR ( 'NONE', #303, 1000.000000000000000 ) ;
#75 = CARTESIAN_POINT ( 'NONE',  ( 0.000000000000000000, 0.000000000000000000, 80.00000000000000000 ) ) ;
#76 = DIRECTION ( 'NONE',  ( -1.000000000000000000, 0.000000000000000000, 0.000000000000000000 ) ) ;
#77 = DIRECTION ( 'NONE',  ( 1.000000000000000000, 0.000000000000000000, 0.000000000000000000 ) ) ;
#78 = SHAPE_DEFINITION_REPRESENTATION ( #281, #2 ) ;
#79 = DIRECTION ( 'NONE',  ( 0.000000000000000000, 0.000000000000000000, 1.000000000000000000 ) ) ;
#80 = AXIS2_PLACEMENT_3D ( 'NONE', #108, #169, #378 ) ;
#81 = ADVANCED_FACE ( 'NONE', ( #158 ), #137, .F. ) ;
#82 = CARTESIAN_POINT ( 'NONE',  ( -3.000000000000000444, 0.000000000000000000, 80.00000000000000000 ) ) ;
#83 = DIRECTION ( 'NONE',  ( -0.000000000000000000, -0.000000000000000000, -1.000000000000000000 ) ) ;
#84 = EDGE_LOOP ( 'NONE', ( #200, #114, #181, #94 ) ) ;
#85 = CYLINDRICAL_SURFACE ( 'NONE', #293, 3.000000000000000444 ) ;
#86 = CARTESIAN_POINT ( 'NONE',  ( 0.000000000000000000, 0.000000000000000000, 5.000000000000000000 ) ) ;
#87 = ORIENTED_EDGE ( 'NONE', *, *, #196, .T. ) ;
#88 = DIRECTION ( 'NONE',  ( -0.000000000000000000, -0.000000000000000000, -1.000000000000000000 ) ) ;
#89 = ORIENTED_EDGE ( 'NONE', *, *, #134, .T. ) ;
#90 = AXIS2_PLACEMENT_3D ( 'NONE', #326, #56, #349 ) ;
#91 = EDGE_CURVE ( 'NONE', #305, #310, #132, .T. ) ;
#92 = DIRECTION ( 'NONE',  ( 1.000000000000000000, 0.000000000000000000, 0.000000000000000000 ) ) ;
#93 = EDGE_LOOP ( 'NONE', ( #118, #266, #272, #59 ) ) ;
#94 = ORIENTED_EDGE ( 'NONE', *, *, #232, .F. ) ;
#95 = EDGE_CURVE ( 'NONE', #310, #363, #102, .T. ) ;
#96 = VERTEX_POINT ( 'NONE', #167 ) ;
#97 = AXIS2_PLACEMENT_3D ( 'NONE', #115, #360, #204 ) ;
#98 = FACE_OUTER_BOUND ( 'NONE', #171, .T. ) ;
#99 = DATE_AND_TIME ( #367, #210 ) ;
#100 = FACE_OUTER_BOUND ( 'NONE', #172, .T. ) ;
#101 = PERSON_AND_ORGANIZATION ( #22, #331 ) ;
#102 = LINE ( 'NONE', #222, #191 ) ;
#103 = COORDINATED_UNIVERSAL_TIME_OFFSET ( 1, 0, .AHEAD. ) ;
#104 = AXIS2_PLACEMENT_3D ( 'NONE', #153, #328, #7 ) ;
#105 = DIRECTION ( 'NONE',  ( -0.000000000000000000, -0.000000000000000000, -1.000000000000000000 ) ) ;
#106 = CYLINDRICAL_SURFACE ( 'NONE', #216, 1.750000000000000000 ) ;
#107 = APPROVAL ( #287, 'NEURÈENÝ' ) ;
#108 = CARTESIAN_POINT ( 'NONE',  ( 0.000000000000000000, 0.000000000000000000, 5.000000000000000000 ) ) ;
#109 = ORIENTED_EDGE ( 'NONE', *, *, #91, .T. ) ;
#110 = EDGE_CURVE ( 'NONE', #310, #305, #325, .T. ) ;
#111 = DIRECTION ( 'NONE',  ( 1.000000000000000000, 0.000000000000000000, 0.000000000000000000 ) ) ;
#112 = DIRECTION ( 'NONE',  ( 0.000000000000000000, 0.000000000000000000, 1.000000000000000000 ) ) ;
#113 = CIRCLE ( 'NONE', #11, 3.500000000000000444 ) ;
#114 = ORIENTED_EDGE ( 'NONE', *, *, #377, .T. ) ;
#115 = CARTESIAN_POINT ( 'NONE',  ( 0.000000000000000000, 0.000000000000000000, 5.000000000000000000 ) ) ;
#116 = EDGE_CURVE ( 'NONE', #244, #33, #277, .T. ) ;
#117 = VERTEX_POINT ( 'NONE', #369 ) ;
#118 = ORIENTED_EDGE ( 'NONE', *, *, #377, .F. ) ;
#119 = AXIS2_PLACEMENT_3D ( 'NONE', #75, #44, #343 ) ;
#120 = ORIENTED_EDGE ( 'NONE', *, *, #341, .F. ) ;
#121 = ORIENTED_EDGE ( 'NONE', *, *, #196, .F. ) ;
#122 = COORDINATED_UNIVERSAL_TIME_OFFSET ( 1, 0, .AHEAD. ) ;
#123 = DIRECTION ( 'NONE',  ( 0.000000000000000000, 0.000000000000000000, 1.000000000000000000 ) ) ;
#124 = AXIS2_PLACEMENT_3D ( 'NONE', #374, #199, #319 ) ;
#125 = APPROVAL_PERSON_ORGANIZATION ( #42, #188, #14 ) ;
#126 =( GEOMETRIC_REPRESENTATION_CONTEXT ( 3 ) GLOBAL_UNCERTAINTY_ASSIGNED_CONTEXT ( ( #141 ) ) GLOBAL_UNIT_ASSIGNED_CONTEXT ( ( #4, #62, #35 ) ) REPRESENTATION_CONTEXT ( 'NONE', 'WORKASPACE' ) );
#127 = PERSON_AND_ORGANIZATION_ROLE ( 'design_owner' ) ;
#128 = CARTESIAN_POINT ( 'NONE',  ( -3.500000000000000444, 4.286263797015737088E-16, 5.000000000000002665 ) ) ;
#129 = APPROVAL_DATE_TIME ( #315, #188 ) ;
#130 = DIRECTION ( 'NONE',  ( 0.000000000000000000, 0.000000000000000000, -1.000000000000000000 ) ) ;
#131 = CYLINDRICAL_SURFACE ( 'NONE', #251, 6.000000000000000888 ) ;
#132 = CIRCLE ( 'NONE', #119, 1.750000000000000000 ) ;
#133 = CYLINDRICAL_SURFACE ( 'NONE', #314, 1.750000000000000000 ) ;
#134 = EDGE_CURVE ( 'NONE', #240, #157, #263, .T. ) ;
#135 = CARTESIAN_POINT ( 'NONE',  ( -3.000000000000000444, 0.000000000000000000, 5.500000000000005329 ) ) ;
#136 = CARTESIAN_POINT ( 'NONE',  ( -1.750000000000000000, 0.000000000000000000, 80.00000000000000000 ) ) ;
#137 = TOROIDAL_SURFACE ( 'NONE', #26, 3.500000000000000444, 0.5000000000000000000 ) ;
#138 = LINE ( 'NONE', #82, #37 ) ;
#139 = CIRCLE ( 'NONE', #238, 3.000000000000000444 ) ;
#140 = EDGE_LOOP ( 'NONE', ( #120, #178 ) ) ;
#141 = UNCERTAINTY_MEASURE_WITH_UNIT (LENGTH_MEASURE( 1.000000000000000082E-05 ), #4, 'distance_accuracy_value', 'NONE');
#142 = CARTESIAN_POINT ( 'NONE',  ( 3.000000000000000444, 3.673940397442060361E-16, 80.00000000000000000 ) ) ;
#143 = APPROVAL_DATE_TIME ( #347, #46 ) ;
#144 = CARTESIAN_POINT ( 'NONE',  ( 0.000000000000000000, 0.000000000000000000, 80.00000000000000000 ) ) ;
#145 = ORIENTED_EDGE ( 'NONE', *, *, #25, .F. ) ;
#146 = PRODUCT_DEFINITION_FORMATION_WITH_SPECIFIED_SOURCE ( 'LIBOVOLNÝ', '', #356, .NOT_KNOWN. ) ;
#147 = EDGE_CURVE ( 'NONE', #280, #332, #348, .T. ) ;
#148 = LINE ( 'NONE', #357, #161 ) ;
#149 = ORIENTED_EDGE ( 'NONE', *, *, #381, .T. ) ;
#150 = CARTESIAN_POINT ( 'NONE',  ( 0.000000000000000000, 0.000000000000000000, 80.00000000000000000 ) ) ;
#151 = ORIENTED_EDGE ( 'NONE', *, *, #116, .F. ) ;
#152 = DIRECTION ( 'NONE',  ( -1.000000000000000000, 0.000000000000000000, 0.000000000000000000 ) ) ;
#153 = CARTESIAN_POINT ( 'NONE',  ( 0.000000000000000000, 0.000000000000000000, 5.000000000000000000 ) ) ;
#154 = CC_DESIGN_PERSON_AND_ORGANIZATION_ASSIGNMENT ( #192, #220, ( #225 ) ) ;
#155 = VECTOR ( 'NONE', #105, 1000.000000000000000 ) ;
#156 = APPROVAL_PERSON_ORGANIZATION ( #73, #107, #189 ) ;
#157 = VERTEX_POINT ( 'NONE', #40 ) ;
#158 = FACE_OUTER_BOUND ( 'NONE', #239, .T. ) ;
#159 = APPLICATION_PROTOCOL_DEFINITION ( 'international standard', 'config_control_design', 1994, #284 ) ;
#160 = DIRECTION ( 'NONE',  ( 1.000000000000000000, 0.000000000000000000, 0.000000000000000000 ) ) ;
#161 = VECTOR ( 'NONE', #60, 1000.000000000000000 ) ;
#162 = ADVANCED_FACE ( 'NONE', ( #98 ), #131, .T. ) ;
#163 = CARTESIAN_POINT ( 'NONE',  ( -6.000000000000000888, 0.000000000000000000, 5.000000000000000000 ) ) ;
#164 = DATE_AND_TIME ( #194, #67 ) ;
#165 = CARTESIAN_POINT ( 'NONE',  ( 0.000000000000000000, 0.000000000000000000, 80.00000000000000000 ) ) ;
#166 = CALENDAR_DATE ( 2022, 8, 7 ) ;
#167 = CARTESIAN_POINT ( 'NONE',  ( 6.000000000000000888, 7.347880794884120722E-16, 5.000000000000000000 ) ) ;
#168 = CIRCLE ( 'NONE', #49, 1.750000000000000000 ) ;
#169 = DIRECTION ( 'NONE',  ( 0.000000000000000000, 0.000000000000000000, 1.000000000000000000 ) ) ;
#170 = PLANE ( 'NONE',  #80 ) ;
#171 = EDGE_LOOP ( 'NONE', ( #63, #364, #34, #32 ) ) ;
#172 = EDGE_LOOP ( 'NONE', ( #209, #234, #248, #206 ) ) ;
#173 = CALENDAR_DATE ( 2022, 8, 7 ) ;
#174 = DESIGN_CONTEXT ( 'detailed design', #284, 'design' ) ;
#175 = CARTESIAN_POINT ( 'NONE',  ( 1.750000000000000000, 2.143131898507868297E-16, 80.00000000000000000 ) ) ;
#176 = CIRCLE ( 'NONE', #104, 6.000000000000000888 ) ;
#177 = CARTESIAN_POINT ( 'NONE',  ( 0.000000000000000000, 0.000000000000000000, 5.000000000000000000 ) ) ;
#178 = ORIENTED_EDGE ( 'NONE', *, *, #282, .F. ) ;
#179 = VERTEX_POINT ( 'NONE', #318 ) ;
#180 = CARTESIAN_POINT ( 'NONE',  ( 0.000000000000000000, 0.000000000000000000, 0.000000000000000000 ) ) ;
#181 = ORIENTED_EDGE ( 'NONE', *, *, #308, .T. ) ;
#182 = AXIS2_PLACEMENT_3D ( 'NONE', #253, #195, #373 ) ;
#183 = LOCAL_TIME ( 17, 40, 13.00000000000000000, #226 ) ;
#184 = PERSON_AND_ORGANIZATION ( #22, #331 ) ;
#185 = ORIENTED_EDGE ( 'NONE', *, *, #110, .T. ) ;
#186 = CALENDAR_DATE ( 2022, 8, 7 ) ;
#187 = DIRECTION ( 'NONE',  ( 1.000000000000000000, 0.000000000000000000, -0.000000000000000000 ) ) ;
#188 = APPROVAL ( #312, 'NEURÈENÝ' ) ;
#189 = APPROVAL_ROLE ( '' ) ;
#190 = DIRECTION ( 'NONE',  ( 0.000000000000000000, -1.000000000000000000, 0.000000000000000000 ) ) ;
#191 = VECTOR ( 'NONE', #130, 1000.000000000000000 ) ;
#192 = PERSON_AND_ORGANIZATION ( #22, #331 ) ;
#193 = CARTESIAN_POINT ( 'NONE',  ( 6.000000000000000888, 7.347880794884120722E-16, 0.000000000000000000 ) ) ;
#194 = CALENDAR_DATE ( 2022, 8, 7 ) ;
#195 = DIRECTION ( 'NONE',  ( 0.000000000000000000, 0.000000000000000000, 1.000000000000000000 ) ) ;
#196 = EDGE_CURVE ( 'NONE', #305, #179, #218, .T. ) ;
#197 = DIRECTION ( 'NONE',  ( 0.000000000000000000, 0.000000000000000000, -1.000000000000000000 ) ) ;
#198 = CARTESIAN_POINT ( 'NONE',  ( 0.000000000000000000, 0.000000000000000000, 0.000000000000000000 ) ) ;
#199 = DIRECTION ( 'NONE',  ( 0.000000000000000000, 0.000000000000000000, 1.000000000000000000 ) ) ;
#200 = ORIENTED_EDGE ( 'NONE', *, *, #134, .F. ) ;
#201 = TOROIDAL_SURFACE ( 'NONE', #371, 3.500000000000000444, 0.5000000000000000000 ) ;
#202 = DIRECTION ( 'NONE',  ( -1.000000000000000000, 0.000000000000000000, 0.000000000000000000 ) ) ;
#203 = ORIENTED_EDGE ( 'NONE', *, *, #95, .F. ) ;
#204 = DIRECTION ( 'NONE',  ( 1.000000000000000000, 0.000000000000000000, 0.000000000000000000 ) ) ;
#205 = EDGE_CURVE ( 'NONE', #215, #244, #19, .T. ) ;
#206 = ORIENTED_EDGE ( 'NONE', *, *, #316, .F. ) ;
#207 = DIRECTION ( 'NONE',  ( -0.000000000000000000, -0.000000000000000000, -1.000000000000000000 ) ) ;
#208 = EDGE_LOOP ( 'NONE', ( #203, #185, #87, #247 ) ) ;
#209 = ORIENTED_EDGE ( 'NONE', *, *, #296, .F. ) ;
#210 = LOCAL_TIME ( 17, 40, 13.00000000000000000, #214 ) ;
#211 = ADVANCED_FACE ( 'NONE', ( #339, #228 ), #313, .T. ) ;
#212 = EDGE_LOOP ( 'NONE', ( #151, #68 ) ) ;
#213 = DIRECTION ( 'NONE',  ( 0.000000000000000000, 0.000000000000000000, 1.000000000000000000 ) ) ;
#214 = COORDINATED_UNIVERSAL_TIME_OFFSET ( 1, 0, .AHEAD. ) ;
#215 = VERTEX_POINT ( 'NONE', #368 ) ;
#216 = AXIS2_PLACEMENT_3D ( 'NONE', #52, #229, #48 ) ;
#217 = MECHANICAL_CONTEXT ( 'NONE', #71, 'mechanical' ) ;
#218 = LINE ( 'NONE', #292, #306 ) ;
#219 = ADVANCED_FACE ( 'NONE', ( #100 ), #201, .F. ) ;
#220 = PERSON_AND_ORGANIZATION_ROLE ( 'creator' ) ;
#221 = APPROVAL_DATE_TIME ( #99, #107 ) ;
#222 = CARTESIAN_POINT ( 'NONE',  ( 1.750000000000000000, 2.143131898507868297E-16, 80.00000000000000000 ) ) ;
#223 = AXIS2_PLACEMENT_3D ( 'NONE', #345, #70, #187 ) ;
#224 = AXIS2_PLACEMENT_3D ( 'NONE', #86, #88, #152 ) ;
#225 = PRODUCT_DEFINITION ( 'NEZNÁMÝ', '', #146, #174 ) ;
#226 = COORDINATED_UNIVERSAL_TIME_OFFSET ( 1, 0, .AHEAD. ) ;
#227 = CARTESIAN_POINT ( 'NONE',  ( 0.000000000000000000, 0.000000000000000000, 5.500000000000005329 ) ) ;
#228 = FACE_OUTER_BOUND ( 'NONE', #271, .T. ) ;
#229 = DIRECTION ( 'NONE',  ( 0.000000000000000000, 0.000000000000000000, -1.000000000000000000 ) ) ;
#230 = AXIS2_PLACEMENT_3D ( 'NONE', #290, #365, #77 ) ;
#231 = DIRECTION ( 'NONE',  ( -0.000000000000000000, -0.000000000000000000, -1.000000000000000000 ) ) ;
#232 = EDGE_CURVE ( 'NONE', #157, #280, #138, .T. ) ;
#233 = DIRECTION ( 'NONE',  ( 1.000000000000000000, 0.000000000000000000, 0.000000000000000000 ) ) ;
#234 = ORIENTED_EDGE ( 'NONE', *, *, #308, .F. ) ;
#235 = DIRECTION ( 'NONE',  ( 1.000000000000000000, 0.000000000000000000, -0.000000000000000000 ) ) ;
#236 = ADVANCED_FACE ( 'NONE', ( #379, #24 ), #324, .F. ) ;
#237 = AXIS2_PLACEMENT_3D ( 'NONE', #177, #213, #241 ) ;
#238 = AXIS2_PLACEMENT_3D ( 'NONE', #150, #38, #92 ) ;
#239 = EDGE_LOOP ( 'NONE', ( #1, #8, #5, #145 ) ) ;
#240 = VERTEX_POINT ( 'NONE', #142 ) ;
#241 = DIRECTION ( 'NONE',  ( 1.000000000000000000, 0.000000000000000000, 0.000000000000000000 ) ) ;
#242 = FACE_OUTER_BOUND ( 'NONE', #376, .T. ) ;
#243 = AXIS2_PLACEMENT_3D ( 'NONE', #257, #123, #45 ) ;
#244 = VERTEX_POINT ( 'NONE', #265 ) ;
#245 = CC_DESIGN_PERSON_AND_ORGANIZATION_ASSIGNMENT ( #317, #336, ( #146 ) ) ;
#246 = APPLICATION_PROTOCOL_DEFINITION ( 'international standard', 'config_control_design', 1994, #71 ) ;
#247 = ORIENTED_EDGE ( 'NONE', *, *, #341, .T. ) ;
#248 = ORIENTED_EDGE ( 'NONE', *, *, #25, .T. ) ;
#249 = APPROVAL_ROLE ( '' ) ;
#250 = DIRECTION ( 'NONE',  ( 1.000000000000000000, 0.000000000000000000, 0.000000000000000000 ) ) ;
#251 = AXIS2_PLACEMENT_3D ( 'NONE', #370, #285, #13 ) ;
#252 = CIRCLE ( 'NONE', #359, 0.5000000000000004441 ) ;
#253 = CARTESIAN_POINT ( 'NONE',  ( 0.000000000000000000, 0.000000000000000000, 80.00000000000000000 ) ) ;
#254 = DIRECTION ( 'NONE',  ( 0.000000000000000000, 0.000000000000000000, 1.000000000000000000 ) ) ;
#255 = PRODUCT_RELATED_PRODUCT_CATEGORY ( 'detail', '', ( #356 ) ) ;
#256 = DATE_TIME_ROLE ( 'creation_date' ) ;
#257 = CARTESIAN_POINT ( 'NONE',  ( 0.000000000000000000, 0.000000000000000000, 0.000000000000000000 ) ) ;
#258 = CIRCLE ( 'NONE', #299, 1.750000000000000000 ) ;
#259 = PERSON_AND_ORGANIZATION ( #22, #331 ) ;
#260 = MANIFOLD_SOLID_BREP ( 'Odebrat vysunutím3', #344 ) ;
#261 = DIRECTION ( 'NONE',  ( -0.000000000000000000, -0.000000000000000000, -1.000000000000000000 ) ) ;
#262 = CC_DESIGN_PERSON_AND_ORGANIZATION_ASSIGNMENT ( #101, #309, ( #27 ) ) ;
#263 = CIRCLE ( 'NONE', #354, 3.000000000000000444 ) ;
#264 = LOCAL_TIME ( 17, 40, 13.00000000000000000, #103 ) ;
#265 = CARTESIAN_POINT ( 'NONE',  ( -6.000000000000000888, 0.000000000000000000, 0.000000000000000000 ) ) ;
#266 = ORIENTED_EDGE ( 'NONE', *, *, #381, .F. ) ;
#267 = FACE_OUTER_BOUND ( 'NONE', #337, .T. ) ;
#268 = ORIENTED_EDGE ( 'NONE', *, *, #116, .T. ) ;
#269 = FACE_OUTER_BOUND ( 'NONE', #208, .T. ) ;
#270 = CIRCLE ( 'NONE', #97, 3.500000000000000444 ) ;
#271 = EDGE_LOOP ( 'NONE', ( #149, #89 ) ) ;
#272 = ORIENTED_EDGE ( 'NONE', *, *, #232, .T. ) ;
#273 = LINE ( 'NONE', #57, #74 ) ;
#274 = ADVANCED_FACE ( 'NONE', ( #353, #267 ), #170, .T. ) ;
#275 = ORIENTED_EDGE ( 'NONE', *, *, #372, .F. ) ;
#276 = CARTESIAN_POINT ( 'NONE',  ( 0.000000000000000000, 0.000000000000000000, 0.000000000000000000 ) ) ;
#277 = CIRCLE ( 'NONE', #243, 6.000000000000000888 ) ;
#278 = ORIENTED_EDGE ( 'NONE', *, *, #282, .T. ) ;
#279 = CC_DESIGN_SECURITY_CLASSIFICATION ( #27, ( #146 ) ) ;
#280 = VERTEX_POINT ( 'NONE', #135 ) ;
#281 = PRODUCT_DEFINITION_SHAPE ( 'NONE', 'NONE',  #225 ) ;
#282 = EDGE_CURVE ( 'NONE', #363, #179, #258, .T. ) ;
#283 = APPROVAL_STATUS ( 'not_yet_approved' ) ;
#284 = APPLICATION_CONTEXT ( 'configuration controlled 3d designs of mechanical parts and assemblies' ) ;
#285 = DIRECTION ( 'NONE',  ( -0.000000000000000000, -0.000000000000000000, -1.000000000000000000 ) ) ;
#286 = CIRCLE ( 'NONE', #124, 3.000000000000000444 ) ;
#287 = APPROVAL_STATUS ( 'not_yet_approved' ) ;
#288 = DIRECTION ( 'NONE',  ( -0.000000000000000000, -0.000000000000000000, -1.000000000000000000 ) ) ;
#289 = ADVANCED_FACE ( 'NONE', ( #295 ), #85, .T. ) ;
#290 = CARTESIAN_POINT ( 'NONE',  ( 0.000000000000000000, 0.000000000000000000, 5.500000000000005329 ) ) ;
#291 = DATE_AND_TIME ( #166, #183 ) ;
#292 = CARTESIAN_POINT ( 'NONE',  ( -1.750000000000000000, 0.000000000000000000, 80.00000000000000000 ) ) ;
#293 = AXIS2_PLACEMENT_3D ( 'NONE', #144, #83, #202 ) ;
#294 = CARTESIAN_POINT ( 'NONE',  ( 3.000000000000000444, 3.673940397442060361E-16, 5.500000000000005329 ) ) ;
#295 = FACE_OUTER_BOUND ( 'NONE', #93, .T. ) ;
#296 = EDGE_CURVE ( 'NONE', #280, #29, #66, .T. ) ;
#297 = ORIENTED_EDGE ( 'NONE', *, *, #316, .T. ) ;
#298 = CARTESIAN_POINT ( 'NONE',  ( 0.000000000000000000, 0.000000000000000000, 5.000000000000000000 ) ) ;
#299 = AXIS2_PLACEMENT_3D ( 'NONE', #198, #231, #111 ) ;
#300 = LOCAL_TIME ( 17, 40, 13.00000000000000000, #69 ) ;
#301 = CYLINDRICAL_SURFACE ( 'NONE', #224, 6.000000000000000888 ) ;
#302 = EDGE_LOOP ( 'NONE', ( #53, #61 ) ) ;
#303 = DIRECTION ( 'NONE',  ( -0.000000000000000000, -0.000000000000000000, -1.000000000000000000 ) ) ;
#304 = ORIENTED_EDGE ( 'NONE', *, *, #205, .T. ) ;
#305 = VERTEX_POINT ( 'NONE', #136 ) ;
#306 = VECTOR ( 'NONE', #197, 1000.000000000000000 ) ;
#307 = EDGE_LOOP ( 'NONE', ( #109, #3, #278, #121 ) ) ;
#308 = EDGE_CURVE ( 'NONE', #332, #280, #286, .T. ) ;
#309 = PERSON_AND_ORGANIZATION_ROLE ( 'classification_officer' ) ;
#310 = VERTEX_POINT ( 'NONE', #175 ) ;
#311 = DIRECTION ( 'NONE',  ( 0.000000000000000000, 0.000000000000000000, -1.000000000000000000 ) ) ;
#312 = APPROVAL_STATUS ( 'not_yet_approved' ) ;
#313 = PLANE ( 'NONE',  #223 ) ;
#314 = AXIS2_PLACEMENT_3D ( 'NONE', #72, #15, #47 ) ;
#315 = DATE_AND_TIME ( #186, #264 ) ;
#316 = EDGE_CURVE ( 'NONE', #29, #117, #113, .T. ) ;
#317 = PERSON_AND_ORGANIZATION ( #22, #331 ) ;
#318 = CARTESIAN_POINT ( 'NONE',  ( -1.750000000000000000, 0.000000000000000000, 0.000000000000000000 ) ) ;
#319 = DIRECTION ( 'NONE',  ( 1.000000000000000000, 0.000000000000000000, 0.000000000000000000 ) ) ;
#320 = AXIS2_PLACEMENT_3D ( 'NONE', #23, #79, #333 ) ;
#321 = DIRECTION ( 'NONE',  ( -0.000000000000000000, -0.000000000000000000, -1.000000000000000000 ) ) ;
#322 = DIRECTION ( 'NONE',  ( 0.000000000000000000, 0.000000000000000000, 1.000000000000000000 ) ) ;
#323 = ADVANCED_FACE ( 'NONE', ( #269 ), #106, .F. ) ;
#324 = PLANE ( 'NONE',  #20 ) ;
#325 = CIRCLE ( 'NONE', #182, 1.750000000000000000 ) ;
#326 = CARTESIAN_POINT ( 'NONE',  ( -3.500000000000000444, 4.286263797015737088E-16, 5.500000000000005329 ) ) ;
#327 = CARTESIAN_POINT ( 'NONE',  ( 1.750000000000000000, 2.143131898507868297E-16, 0.000000000000000000 ) ) ;
#328 = DIRECTION ( 'NONE',  ( 0.000000000000000000, 0.000000000000000000, 1.000000000000000000 ) ) ;
#329 = CC_DESIGN_PERSON_AND_ORGANIZATION_ASSIGNMENT ( #184, #127, ( #356 ) ) ;
#330 = CIRCLE ( 'NONE', #320, 6.000000000000000888 ) ;
#331 = ORGANIZATION ( 'NEURÈENÝ', 'NEURÈENÝ', '' ) ;
#332 = VERTEX_POINT ( 'NONE', #294 ) ;
#333 = DIRECTION ( 'NONE',  ( 1.000000000000000000, 0.000000000000000000, 0.000000000000000000 ) ) ;
#334 = EDGE_CURVE ( 'NONE', #33, #244, #330, .T. ) ;
#335 = CYLINDRICAL_SURFACE ( 'NONE', #54, 3.000000000000000444 ) ;
#336 = PERSON_AND_ORGANIZATION_ROLE ( 'creator' ) ;
#337 = EDGE_LOOP ( 'NONE', ( #65, #36 ) ) ;
#338 = PERSON_AND_ORGANIZATION ( #22, #331 ) ;
#339 = FACE_BOUND ( 'NONE', #302, .T. ) ;
#340 = FACE_OUTER_BOUND ( 'NONE', #307, .T. ) ;
#341 = EDGE_CURVE ( 'NONE', #179, #363, #168, .T. ) ;
#342 = PERSON_AND_ORGANIZATION_ROLE ( 'design_supplier' ) ;
#343 = DIRECTION ( 'NONE',  ( 1.000000000000000000, 0.000000000000000000, 0.000000000000000000 ) ) ;
#344 = CLOSED_SHELL ( 'NONE', ( #41, #81, #17, #162, #362, #274, #236, #289, #211, #219, #323 ) ) ;
#345 = CARTESIAN_POINT ( 'NONE',  ( 0.000000000000000000, 0.000000000000000000, 80.00000000000000000 ) ) ;
#346 = EDGE_CURVE ( 'NONE', #117, #29, #270, .T. ) ;
#347 = DATE_AND_TIME ( #173, #300 ) ;
#348 = CIRCLE ( 'NONE', #230, 3.000000000000000444 ) ;
#349 = DIRECTION ( 'NONE',  ( -1.000000000000000000, 1.224646799147354440E-16, 0.000000000000000000 ) ) ;
#350 = CC_DESIGN_PERSON_AND_ORGANIZATION_ASSIGNMENT ( #338, #342, ( #146 ) ) ;
#351 = CARTESIAN_POINT ( 'NONE',  ( 0.000000000000000000, 0.000000000000000000, 5.500000000000005329 ) ) ;
#352 = ORIENTED_EDGE ( 'NONE', *, *, #346, .T. ) ;
#353 = FACE_BOUND ( 'NONE', #361, .T. ) ;
#354 = AXIS2_PLACEMENT_3D ( 'NONE', #165, #254, #250 ) ;
#355 = AXIS2_PLACEMENT_3D ( 'NONE', #180, #58, #9 ) ;
#356 = PRODUCT ( '2c98', '2c98', '', ( #217 ) ) ;
#357 = CARTESIAN_POINT ( 'NONE',  ( 6.000000000000000888, 7.347880794884120722E-16, 5.000000000000000000 ) ) ;
#358 = FACE_OUTER_BOUND ( 'NONE', #84, .T. ) ;
#359 = AXIS2_PLACEMENT_3D ( 'NONE', #43, #190, #311 ) ;
#360 = DIRECTION ( 'NONE',  ( -0.000000000000000000, -0.000000000000000000, -1.000000000000000000 ) ) ;
#361 = EDGE_LOOP ( 'NONE', ( #352, #297 ) ) ;
#362 = ADVANCED_FACE ( 'NONE', ( #242 ), #301, .T. ) ;
#363 = VERTEX_POINT ( 'NONE', #327 ) ;
#364 = ORIENTED_EDGE ( 'NONE', *, *, #372, .T. ) ;
#365 = DIRECTION ( 'NONE',  ( 0.000000000000000000, 0.000000000000000000, 1.000000000000000000 ) ) ;
#366 = CC_DESIGN_APPROVAL ( #46, ( #27 ) ) ;
#367 = CALENDAR_DATE ( 2022, 8, 7 ) ;
#368 = CARTESIAN_POINT ( 'NONE',  ( -6.000000000000000888, 0.000000000000000000, 5.000000000000000000 ) ) ;
#369 = CARTESIAN_POINT ( 'NONE',  ( 3.500000000000000444, 0.000000000000000000, 5.000000000000002665 ) ) ;
#370 = CARTESIAN_POINT ( 'NONE',  ( 0.000000000000000000, 0.000000000000000000, 5.000000000000000000 ) ) ;
#371 = AXIS2_PLACEMENT_3D ( 'NONE', #351, #322, #233 ) ;
#372 = EDGE_CURVE ( 'NONE', #96, #33, #148, .T. ) ;
#373 = DIRECTION ( 'NONE',  ( 1.000000000000000000, 0.000000000000000000, 0.000000000000000000 ) ) ;
#374 = CARTESIAN_POINT ( 'NONE',  ( 0.000000000000000000, 0.000000000000000000, 5.500000000000005329 ) ) ;
#375 = CC_DESIGN_APPROVAL ( #188, ( #146 ) ) ;
#376 = EDGE_LOOP ( 'NONE', ( #275, #50, #304, #268 ) ) ;
#377 = EDGE_CURVE ( 'NONE', #240, #332, #273, .T. ) ;
#378 = DIRECTION ( 'NONE',  ( 1.000000000000000000, 0.000000000000000000, -0.000000000000000000 ) ) ;
#379 = FACE_BOUND ( 'NONE', #140, .T. ) ;
#380 = CIRCLE ( 'NONE', #237, 6.000000000000000888 ) ;
#381 = EDGE_CURVE ( 'NONE', #157, #240, #139, .T. ) ;
ENDSEC;
END-ISO-10303-21;
