ISO-10303-21;
HEADER;
FILE_DESCRIPTION (( 'STEP AP203' ),
    '1' );
FILE_NAME ('5d07.STEP',
    '2022-07-08T14:45:27',
    ( '' ),
    ( '' ),
    'SwSTEP 2.0',
    'SolidWorks 2019',
    '' );
FILE_SCHEMA (( 'CONFIG_CONTROL_DESIGN' ));
ENDSEC;

DATA;
#1 = DIRECTION ( 'NONE',  ( 0.000000000000000000, 0.000000000000000000, 1.000000000000000000 ) ) ;
#2 = AXIS2_PLACEMENT_3D ( 'NONE', #43, #351, #211 ) ;
#3 = CYLINDRICAL_SURFACE ( 'NONE', #367, 5.000000000000000000 ) ;
#4 = ORIENTED_EDGE ( 'NONE', *, *, #136, .T. ) ;
#5 = CYLINDRICAL_SURFACE ( 'NONE', #322, 8.000000000000000000 ) ;
#6 = EDGE_LOOP ( 'NONE', ( #42, #246 ) ) ;
#7 = AXIS2_PLACEMENT_3D ( 'NONE', #284, #78, #87 ) ;
#8 = CARTESIAN_POINT ( 'NONE',  ( 0.000000000000000000, 0.000000000000000000, 0.000000000000000000 ) ) ;
#9 = PERSON_AND_ORGANIZATION_ROLE ( 'creator' ) ;
#10 = DIRECTION ( 'NONE',  ( -1.000000000000000000, 0.000000000000000000, 0.000000000000000000 ) ) ;
#11 = CIRCLE ( 'NONE', #135, 8.000000000000000000 ) ;
#12 = EDGE_CURVE ( 'NONE', #286, #85, #164, .T. ) ;
#13 = CYLINDRICAL_SURFACE ( 'NONE', #315, 8.000000000000000000 ) ;
#14 = VERTEX_POINT ( 'NONE', #305 ) ;
#15 = DIRECTION ( 'NONE',  ( -0.000000000000000000, -0.000000000000000000, -1.000000000000000000 ) ) ;
#16 = EDGE_CURVE ( 'NONE', #14, #141, #173, .T. ) ;
#17 = APPROVAL_ROLE ( '' ) ;
#18 = ORIENTED_EDGE ( 'NONE', *, *, #157, .T. ) ;
#19 = DIRECTION ( 'NONE',  ( 1.000000000000000000, 0.000000000000000000, 0.000000000000000000 ) ) ;
#20 = EDGE_LOOP ( 'NONE', ( #162, #125, #146, #263 ) ) ;
#21 = DATE_AND_TIME ( #46, #335 ) ;
#22 = CARTESIAN_POINT ( 'NONE',  ( 0.000000000000000000, 0.000000000000000000, 5.000000000000000000 ) ) ;
#23 = SHAPE_DEFINITION_REPRESENTATION ( #326, #267 ) ;
#24 = DIRECTION ( 'NONE',  ( 1.000000000000000000, 0.000000000000000000, 0.000000000000000000 ) ) ;
#25 = DIRECTION ( 'NONE',  ( -0.000000000000000000, -0.000000000000000000, -1.000000000000000000 ) ) ;
#26 = PRODUCT_DEFINITION_FORMATION_WITH_SPECIFIED_SOURCE ( 'LIBOVOLNÝ', '', #354, .NOT_KNOWN. ) ;
#27 = AXIS2_PLACEMENT_3D ( 'NONE', #112, #292, #147 ) ;
#28 = CIRCLE ( 'NONE', #63, 5.000000000000000000 ) ;
#29 = ADVANCED_FACE ( 'NONE', ( #40 ), #187, .T. ) ;
#30 = CARTESIAN_POINT ( 'NONE',  ( 8.000000000000000000, 9.797174393178825657E-16, 5.000000000000000000 ) ) ;
#31 = AXIS2_PLACEMENT_3D ( 'NONE', #294, #268, #123 ) ;
#32 = ORIENTED_EDGE ( 'NONE', *, *, #243, .F. ) ;
#33 = MECHANICAL_CONTEXT ( 'NONE', #256, 'mechanical' ) ;
#34 = DIRECTION ( 'NONE',  ( 0.000000000000000000, 0.000000000000000000, -1.000000000000000000 ) ) ;
#35 = APPROVAL_STATUS ( 'not_yet_approved' ) ;
#36 = DIRECTION ( 'NONE',  ( -0.000000000000000000, -0.000000000000000000, -1.000000000000000000 ) ) ;
#37 = EDGE_CURVE ( 'NONE', #111, #127, #28, .T. ) ;
#38 = ORIENTED_EDGE ( 'NONE', *, *, #100, .F. ) ;
#39 = CALENDAR_DATE ( 2022, 8, 7 ) ;
#40 = FACE_OUTER_BOUND ( 'NONE', #223, .T. ) ;
#41 = ORIENTED_EDGE ( 'NONE', *, *, #100, .T. ) ;
#42 = ORIENTED_EDGE ( 'NONE', *, *, #118, .F. ) ;
#43 = CARTESIAN_POINT ( 'NONE',  ( 0.000000000000000000, 0.000000000000000000, 5.000000000000000000 ) ) ;
#44 = AXIS2_PLACEMENT_3D ( 'NONE', #8, #273, #104 ) ;
#45 = EDGE_LOOP ( 'NONE', ( #287, #18, #99, #171 ) ) ;
#46 = CALENDAR_DATE ( 2022, 8, 7 ) ;
#47 = CYLINDRICAL_SURFACE ( 'NONE', #242, 3.250000000000000444 ) ;
#48 = AXIS2_PLACEMENT_3D ( 'NONE', #181, #25, #186 ) ;
#49 = ADVANCED_FACE ( 'NONE', ( #309 ), #205, .F. ) ;
#50 = ORIENTED_EDGE ( 'NONE', *, *, #67, .T. ) ;
#51 = CC_DESIGN_SECURITY_CLASSIFICATION ( #161, ( #26 ) ) ;
#52 = DIRECTION ( 'NONE',  ( 0.000000000000000000, 0.000000000000000000, 1.000000000000000000 ) ) ;
#53 = ORIENTED_EDGE ( 'NONE', *, *, #216, .T. ) ;
#54 = DIRECTION ( 'NONE',  ( 1.000000000000000000, 0.000000000000000000, 0.000000000000000000 ) ) ;
#55 = CC_DESIGN_PERSON_AND_ORGANIZATION_ASSIGNMENT ( #66, #363, ( #97 ) ) ;
#56 = CARTESIAN_POINT ( 'NONE',  ( 5.000000000000000000, 6.123233995736766282E-16, 455.0000000000000000 ) ) ;
#57 = FACE_BOUND ( 'NONE', #332, .T. ) ;
#58 = ADVANCED_FACE ( 'NONE', ( #195, #108 ), #65, .T. ) ;
#59 = CIRCLE ( 'NONE', #277, 5.000000000000000000 ) ;
#60 = DIRECTION ( 'NONE',  ( -1.000000000000000000, 0.000000000000000000, 0.000000000000000000 ) ) ;
#61 = FACE_OUTER_BOUND ( 'NONE', #109, .T. ) ;
#62 = AXIS2_PLACEMENT_3D ( 'NONE', #91, #298, #325 ) ;
#63 = AXIS2_PLACEMENT_3D ( 'NONE', #168, #342, #334 ) ;
#64 = CARTESIAN_POINT ( 'NONE',  ( 0.000000000000000000, 0.000000000000000000, 0.000000000000000000 ) ) ;
#65 = PLANE ( 'NONE',  #221 ) ;
#66 = PERSON_AND_ORGANIZATION ( #372, #310 ) ;
#67 = EDGE_CURVE ( 'NONE', #138, #85, #155, .T. ) ;
#68 = DIRECTION ( 'NONE',  ( 1.000000000000000000, 0.000000000000000000, 0.000000000000000000 ) ) ;
#69 = APPROVAL_ROLE ( '' ) ;
#70 = FACE_OUTER_BOUND ( 'NONE', #189, .T. ) ;
#71 = APPROVAL_DATE_TIME ( #333, #261 ) ;
#72 = CIRCLE ( 'NONE', #290, 5.000000000000000000 ) ;
#73 = CARTESIAN_POINT ( 'NONE',  ( 0.000000000000000000, 0.000000000000000000, 5.000000000000000000 ) ) ;
#74 = EDGE_LOOP ( 'NONE', ( #79, #38, #4, #191 ) ) ;
#75 = DIRECTION ( 'NONE',  ( 0.000000000000000000, 0.000000000000000000, 1.000000000000000000 ) ) ;
#76 = ADVANCED_FACE ( 'NONE', ( #70 ), #13, .T. ) ;
#77 = AXIS2_PLACEMENT_3D ( 'NONE', #64, #336, #247 ) ;
#78 = DIRECTION ( 'NONE',  ( 1.224646799147353207E-16, 1.000000000000000000, -0.000000000000000000 ) ) ;
#79 = ORIENTED_EDGE ( 'NONE', *, *, #321, .F. ) ;
#80 = ADVANCED_FACE ( 'NONE', ( #360 ), #101, .F. ) ;
#81 = DIRECTION ( 'NONE',  ( 1.000000000000000000, 0.000000000000000000, 0.000000000000000000 ) ) ;
#82 = CIRCLE ( 'NONE', #296, 5.500000000000000000 ) ;
#83 = VERTEX_POINT ( 'NONE', #160 ) ;
#84 = DIRECTION ( 'NONE',  ( -0.000000000000000000, -0.000000000000000000, -1.000000000000000000 ) ) ;
#85 = VERTEX_POINT ( 'NONE', #338 ) ;
#86 = AXIS2_PLACEMENT_3D ( 'NONE', #327, #352, #89 ) ;
#87 = DIRECTION ( 'NONE',  ( -1.000000000000000000, 1.224646799147351482E-16, 0.000000000000000000 ) ) ;
#88 = EDGE_CURVE ( 'NONE', #230, #362, #302, .T. ) ;
#89 = DIRECTION ( 'NONE',  ( 1.000000000000000000, 0.000000000000000000, 0.000000000000000000 ) ) ;
#90 = ADVANCED_FACE ( 'NONE', ( #279 ), #5, .T. ) ;
#91 = CARTESIAN_POINT ( 'NONE',  ( 0.000000000000000000, 0.000000000000000000, 455.0000000000000000 ) ) ;
#92 = APPROVAL_PERSON_ORGANIZATION ( #233, #245, #17 ) ;
#93 = CARTESIAN_POINT ( 'NONE',  ( 0.000000000000000000, 0.000000000000000000, 455.0000000000000000 ) ) ;
#94 = VECTOR ( 'NONE', #34, 1000.000000000000000 ) ;
#95 = DIRECTION ( 'NONE',  ( 1.000000000000000000, 0.000000000000000000, 0.000000000000000000 ) ) ;
#96 = CARTESIAN_POINT ( 'NONE',  ( -3.250000000000000444, 0.000000000000000000, 455.0000000000000000 ) ) ;
#97 = PRODUCT_DEFINITION ( 'NEZNÁMÝ', '', #26, #289 ) ;
#98 = PERSON_AND_ORGANIZATION ( #372, #310 ) ;
#99 = ORIENTED_EDGE ( 'NONE', *, *, #16, .F. ) ;
#100 = EDGE_CURVE ( 'NONE', #83, #235, #145, .T. ) ;
#101 = TOROIDAL_SURFACE ( 'NONE', #370, 5.500000000000000000, 0.5000000000000000000 ) ;
#102 = DIRECTION ( 'NONE',  ( -0.000000000000000000, -0.000000000000000000, -1.000000000000000000 ) ) ;
#103 = EDGE_LOOP ( 'NONE', ( #374, #343, #308, #371 ) ) ;
#104 = DIRECTION ( 'NONE',  ( 1.000000000000000000, 0.000000000000000000, 0.000000000000000000 ) ) ;
#105 = DATE_AND_TIME ( #39, #299 ) ;
#106 = DIRECTION ( 'NONE',  ( 0.000000000000000000, 0.000000000000000000, 1.000000000000000000 ) ) ;
#107 = COORDINATED_UNIVERSAL_TIME_OFFSET ( 1, 0, .AHEAD. ) ;
#108 = FACE_OUTER_BOUND ( 'NONE', #255, .T. ) ;
#109 = EDGE_LOOP ( 'NONE', ( #206, #251 ) ) ;
#110 = DIRECTION ( 'NONE',  ( -0.000000000000000000, -0.000000000000000000, -1.000000000000000000 ) ) ;
#111 = VERTEX_POINT ( 'NONE', #259 ) ;
#112 = CARTESIAN_POINT ( 'NONE',  ( 0.000000000000000000, 0.000000000000000000, 455.0000000000000000 ) ) ;
#113 = ORIENTED_EDGE ( 'NONE', *, *, #149, .T. ) ;
#114 = DATE_TIME_ROLE ( 'classification_date' ) ;
#115 = CARTESIAN_POINT ( 'NONE',  ( -5.000000000000000000, 0.000000000000000000, 5.500000000000005329 ) ) ;
#116 = CIRCLE ( 'NONE', #375, 8.000000000000000000 ) ;
#117 = EDGE_LOOP ( 'NONE', ( #365, #113 ) ) ;
#118 = EDGE_CURVE ( 'NONE', #244, #230, #124, .T. ) ;
#119 = FACE_OUTER_BOUND ( 'NONE', #20, .T. ) ;
#120 = AXIS2_PLACEMENT_3D ( 'NONE', #93, #215, #60 ) ;
#121 = CARTESIAN_POINT ( 'NONE',  ( -5.500000000000000000, 6.735557395310442023E-16, 5.000000000000002665 ) ) ;
#122 = DIRECTION ( 'NONE',  ( 1.000000000000000000, 0.000000000000000000, 0.000000000000000000 ) ) ;
#123 = DIRECTION ( 'NONE',  ( 1.000000000000000000, 0.000000000000000000, -0.000000000000000000 ) ) ;
#124 = CIRCLE ( 'NONE', #27, 3.250000000000000444 ) ;
#125 = ORIENTED_EDGE ( 'NONE', *, *, #88, .T. ) ;
#126 = APPLICATION_PROTOCOL_DEFINITION ( 'international standard', 'config_control_design', 1994, #256 ) ;
#127 = VERTEX_POINT ( 'NONE', #115 ) ;
#128 = PERSON_AND_ORGANIZATION ( #372, #310 ) ;
#129 = ORIENTED_EDGE ( 'NONE', *, *, #157, .F. ) ;
#130 = CIRCLE ( 'NONE', #7, 0.5000000000000004441 ) ;
#131 = PERSON_AND_ORGANIZATION ( #372, #310 ) ;
#132 = PERSON_AND_ORGANIZATION_ROLE ( 'design_supplier' ) ;
#133 = CARTESIAN_POINT ( 'NONE',  ( 0.000000000000000000, 0.000000000000000000, 5.000000000000000000 ) ) ;
#134 = LOCAL_TIME ( 16, 45, 27.00000000000000000, #339 ) ;
#135 = AXIS2_PLACEMENT_3D ( 'NONE', #150, #1, #122 ) ;
#136 = EDGE_CURVE ( 'NONE', #83, #127, #344, .T. ) ;
#137 = CARTESIAN_POINT ( 'NONE',  ( 0.000000000000000000, 0.000000000000000000, 5.000000000000000000 ) ) ;
#138 = VERTEX_POINT ( 'NONE', #319 ) ;
#139 = VECTOR ( 'NONE', #364, 1000.000000000000000 ) ;
#140 = DIRECTION ( 'NONE',  ( -1.000000000000000000, 0.000000000000000000, 0.000000000000000000 ) ) ;
#141 = VERTEX_POINT ( 'NONE', #121 ) ;
#142 = ORIENTED_EDGE ( 'NONE', *, *, #214, .T. ) ;
#143 = COORDINATED_UNIVERSAL_TIME_OFFSET ( 1, 0, .AHEAD. ) ;
#144 = DIRECTION ( 'NONE',  ( 0.000000000000000000, 0.000000000000000000, -1.000000000000000000 ) ) ;
#145 = CIRCLE ( 'NONE', #151, 5.000000000000000000 ) ;
#146 = ORIENTED_EDGE ( 'NONE', *, *, #295, .T. ) ;
#147 = DIRECTION ( 'NONE',  ( 1.000000000000000000, 0.000000000000000000, 0.000000000000000000 ) ) ;
#148 = APPROVAL_PERSON_ORGANIZATION ( #229, #261, #222 ) ;
#149 = EDGE_CURVE ( 'NONE', #141, #14, #82, .T. ) ;
#150 = CARTESIAN_POINT ( 'NONE',  ( 0.000000000000000000, 0.000000000000000000, 0.000000000000000000 ) ) ;
#151 = AXIS2_PLACEMENT_3D ( 'NONE', #257, #210, #81 ) ;
#152 = DIRECTION ( 'NONE',  ( -0.000000000000000000, -0.000000000000000000, -1.000000000000000000 ) ) ;
#153 = DIRECTION ( 'NONE',  ( 0.000000000000000000, 0.000000000000000000, 1.000000000000000000 ) ) ;
#154 = FACE_OUTER_BOUND ( 'NONE', #227, .T. ) ;
#155 = CIRCLE ( 'NONE', #44, 8.000000000000000000 ) ;
#156 = CALENDAR_DATE ( 2022, 8, 7 ) ;
#157 = EDGE_CURVE ( 'NONE', #127, #141, #130, .T. ) ;
#158 = ORIENTED_EDGE ( 'NONE', *, *, #207, .T. ) ;
#159 = DATE_AND_TIME ( #306, #201 ) ;
#160 = CARTESIAN_POINT ( 'NONE',  ( -5.000000000000000000, 0.000000000000000000, 455.0000000000000000 ) ) ;
#161 = SECURITY_CLASSIFICATION ( '', '', #198 ) ;
#162 = ORIENTED_EDGE ( 'NONE', *, *, #118, .T. ) ;
#163 = PERSON_AND_ORGANIZATION_ROLE ( 'design_owner' ) ;
#164 = LINE ( 'NONE', #226, #139 ) ;
#165 = EDGE_CURVE ( 'NONE', #127, #111, #59, .T. ) ;
#166 = APPROVAL_DATE_TIME ( #105, #377 ) ;
#167 = DIRECTION ( 'NONE',  ( -0.000000000000000000, -0.000000000000000000, -1.000000000000000000 ) ) ;
#168 = CARTESIAN_POINT ( 'NONE',  ( 0.000000000000000000, 0.000000000000000000, 5.500000000000005329 ) ) ;
#169 = AXIS2_PLACEMENT_3D ( 'NONE', #300, #153, #95 ) ;
#170 = DIRECTION ( 'NONE',  ( -1.000000000000000000, 0.000000000000000000, 0.000000000000000000 ) ) ;
#171 = ORIENTED_EDGE ( 'NONE', *, *, #207, .F. ) ;
#172 = UNCERTAINTY_MEASURE_WITH_UNIT (LENGTH_MEASURE( 1.000000000000000082E-05 ), #331, 'distance_accuracy_value', 'NONE');
#173 = CIRCLE ( 'NONE', #347, 5.500000000000000000 ) ;
#174 = DIRECTION ( 'NONE',  ( 0.000000000000000000, 0.000000000000000000, -1.000000000000000000 ) ) ;
#175 = EDGE_CURVE ( 'NONE', #286, #314, #116, .T. ) ;
#176 = ORIENTED_EDGE ( 'NONE', *, *, #216, .F. ) ;
#177 = ORIENTED_EDGE ( 'NONE', *, *, #175, .T. ) ;
#178 = CARTESIAN_POINT ( 'NONE',  ( 3.250000000000000444, 3.980102097228897245E-16, 455.0000000000000000 ) ) ;
#179 = CIRCLE ( 'NONE', #2, 8.000000000000000000 ) ;
#180 = ADVANCED_FACE ( 'NONE', ( #119 ), #47, .F. ) ;
#181 = CARTESIAN_POINT ( 'NONE',  ( 0.000000000000000000, 0.000000000000000000, 0.000000000000000000 ) ) ;
#182 = PRODUCT_RELATED_PRODUCT_CATEGORY ( 'detail', '', ( #354 ) ) ;
#183 = PLANE ( 'NONE',  #31 ) ;
#184 = CARTESIAN_POINT ( 'NONE',  ( 3.250000000000000444, 3.980102097228897245E-16, 0.000000000000000000 ) ) ;
#185 = FACE_BOUND ( 'NONE', #6, .T. ) ;
#186 = DIRECTION ( 'NONE',  ( 1.000000000000000000, 0.000000000000000000, 0.000000000000000000 ) ) ;
#187 = CYLINDRICAL_SURFACE ( 'NONE', #239, 5.000000000000000000 ) ;
#188 = APPLICATION_CONTEXT ( 'configuration controlled 3d designs of mechanical parts and assemblies' ) ;
#189 = EDGE_LOOP ( 'NONE', ( #345, #200, #53, #50 ) ) ;
#190 = CC_DESIGN_PERSON_AND_ORGANIZATION_ASSIGNMENT ( #252, #225, ( #161 ) ) ;
#191 = ORIENTED_EDGE ( 'NONE', *, *, #165, .T. ) ;
#192 = CARTESIAN_POINT ( 'NONE',  ( 0.000000000000000000, 0.000000000000000000, 5.000000000000000000 ) ) ;
#193 = AXIS2_PLACEMENT_3D ( 'NONE', #265, #313, #144 ) ;
#194 = COORDINATED_UNIVERSAL_TIME_OFFSET ( 1, 0, .AHEAD. ) ;
#195 = FACE_BOUND ( 'NONE', #117, .T. ) ;
#196 = ORIENTED_EDGE ( 'NONE', *, *, #214, .F. ) ;
#197 = CC_DESIGN_PERSON_AND_ORGANIZATION_ASSIGNMENT ( #98, #163, ( #354 ) ) ;
#198 = SECURITY_CLASSIFICATION_LEVEL ( 'unclassified' ) ;
#199 = CARTESIAN_POINT ( 'NONE',  ( 0.000000000000000000, 0.000000000000000000, 455.0000000000000000 ) ) ;
#200 = ORIENTED_EDGE ( 'NONE', *, *, #231, .F. ) ;
#201 = LOCAL_TIME ( 16, 45, 27.00000000000000000, #219 ) ;
#202 = CARTESIAN_POINT ( 'NONE',  ( -5.000000000000000000, 0.000000000000000000, 455.0000000000000000 ) ) ;
#203 = MANIFOLD_SOLID_BREP ( 'Odebrat vysunutím3', #356 ) ;
#204 = ORIENTED_EDGE ( 'NONE', *, *, #37, .T. ) ;
#205 = TOROIDAL_SURFACE ( 'NONE', #378, 5.500000000000000000, 0.5000000000000000000 ) ;
#206 = ORIENTED_EDGE ( 'NONE', *, *, #67, .F. ) ;
#207 = EDGE_CURVE ( 'NONE', #111, #14, #217, .T. ) ;
#208 = EDGE_LOOP ( 'NONE', ( #129, #318, #158, #288 ) ) ;
#209 = VECTOR ( 'NONE', #355, 1000.000000000000000 ) ;
#210 = DIRECTION ( 'NONE',  ( 0.000000000000000000, 0.000000000000000000, 1.000000000000000000 ) ) ;
#211 = DIRECTION ( 'NONE',  ( 1.000000000000000000, 0.000000000000000000, 0.000000000000000000 ) ) ;
#212 = CC_DESIGN_DATE_AND_TIME_ASSIGNMENT ( #159, #272, ( #97 ) ) ;
#213 = CARTESIAN_POINT ( 'NONE',  ( -8.000000000000000000, 0.000000000000000000, 5.000000000000000000 ) ) ;
#214 = EDGE_CURVE ( 'NONE', #235, #83, #72, .T. ) ;
#215 = DIRECTION ( 'NONE',  ( 0.000000000000000000, 0.000000000000000000, -1.000000000000000000 ) ) ;
#216 = EDGE_CURVE ( 'NONE', #314, #138, #348, .T. ) ;
#217 = CIRCLE ( 'NONE', #193, 0.5000000000000004441 ) ;
#218 = CARTESIAN_POINT ( 'NONE',  ( 5.000000000000000000, 6.123233995736766282E-16, 455.0000000000000000 ) ) ;
#219 = COORDINATED_UNIVERSAL_TIME_OFFSET ( 1, 0, .AHEAD. ) ;
#220 = DIRECTION ( 'NONE',  ( 0.000000000000000000, 0.000000000000000000, 1.000000000000000000 ) ) ;
#221 = AXIS2_PLACEMENT_3D ( 'NONE', #133, #220, #253 ) ;
#222 = APPROVAL_ROLE ( '' ) ;
#223 = EDGE_LOOP ( 'NONE', ( #196, #341, #204, #258 ) ) ;
#224 = CC_DESIGN_APPROVAL ( #245, ( #161 ) ) ;
#225 = PERSON_AND_ORGANIZATION_ROLE ( 'classification_officer' ) ;
#226 = CARTESIAN_POINT ( 'NONE',  ( 8.000000000000000000, 9.797174393178825657E-16, 5.000000000000000000 ) ) ;
#227 = EDGE_LOOP ( 'NONE', ( #41, #142 ) ) ;
#228 = CIRCLE ( 'NONE', #48, 3.250000000000000444 ) ;
#229 = PERSON_AND_ORGANIZATION ( #372, #310 ) ;
#230 = VERTEX_POINT ( 'NONE', #178 ) ;
#231 = EDGE_CURVE ( 'NONE', #314, #286, #179, .T. ) ;
#232 = ORIENTED_EDGE ( 'NONE', *, *, #175, .F. ) ;
#233 = PERSON_AND_ORGANIZATION ( #372, #310 ) ;
#234 = DIRECTION ( 'NONE',  ( -0.000000000000000000, -0.000000000000000000, -1.000000000000000000 ) ) ;
#235 = VERTEX_POINT ( 'NONE', #56 ) ;
#236 = APPROVAL_STATUS ( 'not_yet_approved' ) ;
#237 = CARTESIAN_POINT ( 'NONE',  ( 0.000000000000000000, 0.000000000000000000, 455.0000000000000000 ) ) ;
#238 = CARTESIAN_POINT ( 'NONE',  ( -8.000000000000000000, 0.000000000000000000, 5.000000000000000000 ) ) ;
#239 = AXIS2_PLACEMENT_3D ( 'NONE', #199, #15, #170 ) ;
#240 = CARTESIAN_POINT ( 'NONE',  ( 0.000000000000000000, 0.000000000000000000, 455.0000000000000000 ) ) ;
#241 = PLANE ( 'NONE',  #62 ) ;
#242 = AXIS2_PLACEMENT_3D ( 'NONE', #237, #174, #349 ) ;
#243 = EDGE_CURVE ( 'NONE', #276, #362, #228, .T. ) ;
#244 = VERTEX_POINT ( 'NONE', #381 ) ;
#245 = APPROVAL ( #236, 'NEURÈENÝ' ) ;
#246 = ORIENTED_EDGE ( 'NONE', *, *, #380, .F. ) ;
#247 = DIRECTION ( 'NONE',  ( 1.000000000000000000, 0.000000000000000000, 0.000000000000000000 ) ) ;
#248 = DIRECTION ( 'NONE',  ( 1.000000000000000000, 0.000000000000000000, 0.000000000000000000 ) ) ;
#249 = VECTOR ( 'NONE', #84, 1000.000000000000000 ) ;
#250 = ADVANCED_FACE ( 'NONE', ( #297 ), #3, .T. ) ;
#251 = ORIENTED_EDGE ( 'NONE', *, *, #274, .F. ) ;
#252 = PERSON_AND_ORGANIZATION ( #372, #310 ) ;
#253 = DIRECTION ( 'NONE',  ( 1.000000000000000000, 0.000000000000000000, -0.000000000000000000 ) ) ;
#254 = CARTESIAN_POINT ( 'NONE',  ( 0.000000000000000000, 0.000000000000000000, 5.500000000000005329 ) ) ;
#255 = EDGE_LOOP ( 'NONE', ( #346, #177 ) ) ;
#256 = APPLICATION_CONTEXT ( 'configuration controlled 3d designs of mechanical parts and assemblies' ) ;
#257 = CARTESIAN_POINT ( 'NONE',  ( 0.000000000000000000, 0.000000000000000000, 455.0000000000000000 ) ) ;
#258 = ORIENTED_EDGE ( 'NONE', *, *, #136, .F. ) ;
#259 = CARTESIAN_POINT ( 'NONE',  ( 5.000000000000000000, 6.123233995736766282E-16, 5.500000000000005329 ) ) ;
#260 = ORIENTED_EDGE ( 'NONE', *, *, #274, .T. ) ;
#261 = APPROVAL ( #307, 'NEURÈENÝ' ) ;
#262 = CARTESIAN_POINT ( 'NONE',  ( 0.000000000000000000, 0.000000000000000000, 455.0000000000000000 ) ) ;
#263 = ORIENTED_EDGE ( 'NONE', *, *, #324, .F. ) ;
#264 = DIRECTION ( 'NONE',  ( 1.000000000000000000, 0.000000000000000000, 0.000000000000000000 ) ) ;
#265 = CARTESIAN_POINT ( 'NONE',  ( 5.500000000000000000, 0.000000000000000000, 5.500000000000005329 ) ) ;
#266 =( GEOMETRIC_REPRESENTATION_CONTEXT ( 3 ) GLOBAL_UNCERTAINTY_ASSIGNED_CONTEXT ( ( #172 ) ) GLOBAL_UNIT_ASSIGNED_CONTEXT ( ( #331, #275, #366 ) ) REPRESENTATION_CONTEXT ( 'NONE', 'WORKASPACE' ) );
#267 = ADVANCED_BREP_SHAPE_REPRESENTATION ( '5d07', ( #203, #77 ), #266 ) ;
#268 = DIRECTION ( 'NONE',  ( 0.000000000000000000, 0.000000000000000000, 1.000000000000000000 ) ) ;
#269 = FACE_OUTER_BOUND ( 'NONE', #103, .T. ) ;
#270 = LINE ( 'NONE', #218, #209 ) ;
#271 = APPLICATION_PROTOCOL_DEFINITION ( 'international standard', 'config_control_design', 1994, #188 ) ;
#272 = DATE_TIME_ROLE ( 'creation_date' ) ;
#273 = DIRECTION ( 'NONE',  ( 0.000000000000000000, 0.000000000000000000, 1.000000000000000000 ) ) ;
#274 = EDGE_CURVE ( 'NONE', #85, #138, #11, .T. ) ;
#275 =( NAMED_UNIT ( * ) PLANE_ANGLE_UNIT ( ) SI_UNIT ( $, .RADIAN. ) );
#276 = VERTEX_POINT ( 'NONE', #357 ) ;
#277 = AXIS2_PLACEMENT_3D ( 'NONE', #317, #52, #24 ) ;
#278 = PERSON_AND_ORGANIZATION ( #372, #310 ) ;
#279 = FACE_OUTER_BOUND ( 'NONE', #311, .T. ) ;
#280 = CARTESIAN_POINT ( 'NONE',  ( 0.000000000000000000, 0.000000000000000000, 5.500000000000005329 ) ) ;
#281 = CIRCLE ( 'NONE', #169, 3.250000000000000444 ) ;
#282 = ORIENTED_EDGE ( 'NONE', *, *, #12, .T. ) ;
#283 = APPROVAL_DATE_TIME ( #21, #245 ) ;
#284 = CARTESIAN_POINT ( 'NONE',  ( -5.500000000000000000, 6.735557395310442023E-16, 5.500000000000005329 ) ) ;
#285 = CC_DESIGN_PERSON_AND_ORGANIZATION_ASSIGNMENT ( #278, #9, ( #26 ) ) ;
#286 = VERTEX_POINT ( 'NONE', #30 ) ;
#287 = ORIENTED_EDGE ( 'NONE', *, *, #165, .F. ) ;
#288 = ORIENTED_EDGE ( 'NONE', *, *, #149, .F. ) ;
#289 = DESIGN_CONTEXT ( 'detailed design', #188, 'design' ) ;
#290 = AXIS2_PLACEMENT_3D ( 'NONE', #262, #291, #54 ) ;
#291 = DIRECTION ( 'NONE',  ( 0.000000000000000000, 0.000000000000000000, 1.000000000000000000 ) ) ;
#292 = DIRECTION ( 'NONE',  ( 0.000000000000000000, 0.000000000000000000, 1.000000000000000000 ) ) ;
#293 = LOCAL_TIME ( 16, 45, 27.00000000000000000, #194 ) ;
#294 = CARTESIAN_POINT ( 'NONE',  ( 0.000000000000000000, 0.000000000000000000, 0.000000000000000000 ) ) ;
#295 = EDGE_CURVE ( 'NONE', #362, #276, #330, .T. ) ;
#296 = AXIS2_PLACEMENT_3D ( 'NONE', #22, #110, #264 ) ;
#297 = FACE_OUTER_BOUND ( 'NONE', #74, .T. ) ;
#298 = DIRECTION ( 'NONE',  ( 0.000000000000000000, 0.000000000000000000, 1.000000000000000000 ) ) ;
#299 = LOCAL_TIME ( 16, 45, 27.00000000000000000, #107 ) ;
#300 = CARTESIAN_POINT ( 'NONE',  ( 0.000000000000000000, 0.000000000000000000, 455.0000000000000000 ) ) ;
#301 = DIRECTION ( 'NONE',  ( -1.000000000000000000, 0.000000000000000000, 0.000000000000000000 ) ) ;
#302 = LINE ( 'NONE', #369, #94 ) ;
#303 = ORIENTED_EDGE ( 'NONE', *, *, #295, .F. ) ;
#304 = VECTOR ( 'NONE', #323, 1000.000000000000000 ) ;
#305 = CARTESIAN_POINT ( 'NONE',  ( 5.500000000000000000, 0.000000000000000000, 5.000000000000002665 ) ) ;
#306 = CALENDAR_DATE ( 2022, 8, 7 ) ;
#307 = APPROVAL_STATUS ( 'not_yet_approved' ) ;
#308 = ORIENTED_EDGE ( 'NONE', *, *, #324, .T. ) ;
#309 = FACE_OUTER_BOUND ( 'NONE', #208, .T. ) ;
#310 = ORGANIZATION ( 'NEURÈENÝ', 'NEURÈENÝ', '' ) ;
#311 = EDGE_LOOP ( 'NONE', ( #232, #282, #260, #176 ) ) ;
#312 = CC_DESIGN_DATE_AND_TIME_ASSIGNMENT ( #316, #114, ( #161 ) ) ;
#313 = DIRECTION ( 'NONE',  ( 0.000000000000000000, -1.000000000000000000, 0.000000000000000000 ) ) ;
#314 = VERTEX_POINT ( 'NONE', #213 ) ;
#315 = AXIS2_PLACEMENT_3D ( 'NONE', #137, #36, #140 ) ;
#316 = DATE_AND_TIME ( #156, #134 ) ;
#317 = CARTESIAN_POINT ( 'NONE',  ( 0.000000000000000000, 0.000000000000000000, 5.500000000000005329 ) ) ;
#318 = ORIENTED_EDGE ( 'NONE', *, *, #37, .F. ) ;
#319 = CARTESIAN_POINT ( 'NONE',  ( -8.000000000000000000, 0.000000000000000000, 0.000000000000000000 ) ) ;
#320 = DIRECTION ( 'NONE',  ( 0.000000000000000000, 0.000000000000000000, 1.000000000000000000 ) ) ;
#321 = EDGE_CURVE ( 'NONE', #235, #111, #270, .T. ) ;
#322 = AXIS2_PLACEMENT_3D ( 'NONE', #192, #167, #10 ) ;
#323 = DIRECTION ( 'NONE',  ( 0.000000000000000000, 0.000000000000000000, -1.000000000000000000 ) ) ;
#324 = EDGE_CURVE ( 'NONE', #244, #276, #353, .T. ) ;
#325 = DIRECTION ( 'NONE',  ( 1.000000000000000000, 0.000000000000000000, -0.000000000000000000 ) ) ;
#326 = PRODUCT_DEFINITION_SHAPE ( 'NONE', 'NONE',  #97 ) ;
#327 = CARTESIAN_POINT ( 'NONE',  ( 0.000000000000000000, 0.000000000000000000, 0.000000000000000000 ) ) ;
#328 = ADVANCED_FACE ( 'NONE', ( #57, #61 ), #183, .F. ) ;
#329 = ADVANCED_FACE ( 'NONE', ( #269 ), #379, .F. ) ;
#330 = CIRCLE ( 'NONE', #86, 3.250000000000000444 ) ;
#331 =( LENGTH_UNIT ( ) NAMED_UNIT ( * ) SI_UNIT ( .MILLI., .METRE. ) );
#332 = EDGE_LOOP ( 'NONE', ( #32, #303 ) ) ;
#333 = DATE_AND_TIME ( #368, #293 ) ;
#334 = DIRECTION ( 'NONE',  ( 1.000000000000000000, 0.000000000000000000, 0.000000000000000000 ) ) ;
#335 = LOCAL_TIME ( 16, 45, 27.00000000000000000, #143 ) ;
#336 = DIRECTION ( 'NONE',  ( 0.000000000000000000, 0.000000000000000000, 1.000000000000000000 ) ) ;
#337 = CC_DESIGN_PERSON_AND_ORGANIZATION_ASSIGNMENT ( #128, #132, ( #26 ) ) ;
#338 = CARTESIAN_POINT ( 'NONE',  ( 8.000000000000000000, 9.797174393178825657E-16, 0.000000000000000000 ) ) ;
#339 = COORDINATED_UNIVERSAL_TIME_OFFSET ( 1, 0, .AHEAD. ) ;
#340 = VECTOR ( 'NONE', #234, 1000.000000000000000 ) ;
#341 = ORIENTED_EDGE ( 'NONE', *, *, #321, .T. ) ;
#342 = DIRECTION ( 'NONE',  ( 0.000000000000000000, 0.000000000000000000, 1.000000000000000000 ) ) ;
#343 = ORIENTED_EDGE ( 'NONE', *, *, #380, .T. ) ;
#344 = LINE ( 'NONE', #202, #249 ) ;
#345 = ORIENTED_EDGE ( 'NONE', *, *, #12, .F. ) ;
#346 = ORIENTED_EDGE ( 'NONE', *, *, #231, .T. ) ;
#347 = AXIS2_PLACEMENT_3D ( 'NONE', #73, #102, #361 ) ;
#348 = LINE ( 'NONE', #238, #340 ) ;
#349 = DIRECTION ( 'NONE',  ( -1.000000000000000000, 0.000000000000000000, 0.000000000000000000 ) ) ;
#350 = ADVANCED_FACE ( 'NONE', ( #185, #154 ), #241, .T. ) ;
#351 = DIRECTION ( 'NONE',  ( 0.000000000000000000, 0.000000000000000000, 1.000000000000000000 ) ) ;
#352 = DIRECTION ( 'NONE',  ( -0.000000000000000000, -0.000000000000000000, -1.000000000000000000 ) ) ;
#353 = LINE ( 'NONE', #96, #304 ) ;
#354 = PRODUCT ( '5d07', '5d07', '', ( #33 ) ) ;
#355 = DIRECTION ( 'NONE',  ( -0.000000000000000000, -0.000000000000000000, -1.000000000000000000 ) ) ;
#356 = CLOSED_SHELL ( 'NONE', ( #180, #80, #29, #90, #76, #58, #328, #250, #350, #49, #329 ) ) ;
#357 = CARTESIAN_POINT ( 'NONE',  ( -3.250000000000000444, 0.000000000000000000, 0.000000000000000000 ) ) ;
#358 = CC_DESIGN_APPROVAL ( #377, ( #26 ) ) ;
#359 = CC_DESIGN_APPROVAL ( #261, ( #97 ) ) ;
#360 = FACE_OUTER_BOUND ( 'NONE', #45, .T. ) ;
#361 = DIRECTION ( 'NONE',  ( 1.000000000000000000, 0.000000000000000000, 0.000000000000000000 ) ) ;
#362 = VERTEX_POINT ( 'NONE', #184 ) ;
#363 = PERSON_AND_ORGANIZATION_ROLE ( 'creator' ) ;
#364 = DIRECTION ( 'NONE',  ( -0.000000000000000000, -0.000000000000000000, -1.000000000000000000 ) ) ;
#365 = ORIENTED_EDGE ( 'NONE', *, *, #16, .T. ) ;
#366 =( NAMED_UNIT ( * ) SI_UNIT ( $, .STERADIAN. ) SOLID_ANGLE_UNIT ( ) );
#367 = AXIS2_PLACEMENT_3D ( 'NONE', #240, #152, #301 ) ;
#368 = CALENDAR_DATE ( 2022, 8, 7 ) ;
#369 = CARTESIAN_POINT ( 'NONE',  ( 3.250000000000000444, 3.980102097228897245E-16, 455.0000000000000000 ) ) ;
#370 = AXIS2_PLACEMENT_3D ( 'NONE', #254, #106, #248 ) ;
#371 = ORIENTED_EDGE ( 'NONE', *, *, #243, .T. ) ;
#372 = PERSON ( 'NEURÈENÝ', 'NEURÈENÝ', 'NEURÈENÝ', ('NEURÈENÝ'), ('NEURÈENÝ'), ('NEURÈENÝ') ) ;
#373 = CARTESIAN_POINT ( 'NONE',  ( 0.000000000000000000, 0.000000000000000000, 5.000000000000000000 ) ) ;
#374 = ORIENTED_EDGE ( 'NONE', *, *, #88, .F. ) ;
#375 = AXIS2_PLACEMENT_3D ( 'NONE', #373, #320, #19 ) ;
#376 = APPROVAL_PERSON_ORGANIZATION ( #131, #377, #69 ) ;
#377 = APPROVAL ( #35, 'NEURÈENÝ' ) ;
#378 = AXIS2_PLACEMENT_3D ( 'NONE', #280, #75, #68 ) ;
#379 = CYLINDRICAL_SURFACE ( 'NONE', #120, 3.250000000000000444 ) ;
#380 = EDGE_CURVE ( 'NONE', #230, #244, #281, .T. ) ;
#381 = CARTESIAN_POINT ( 'NONE',  ( -3.250000000000000444, 0.000000000000000000, 455.0000000000000000 ) ) ;
ENDSEC;
END-ISO-10303-21;
