ISO-10303-21;
HEADER;
FILE_DESCRIPTION (( 'STEP AP203' ),
    '1' );
FILE_NAME ('da37.STEP',
    '2022-07-08T15:01:48',
    ( '' ),
    ( '' ),
    'SwSTEP 2.0',
    'SolidWorks 2019',
    '' );
FILE_SCHEMA (( 'CONFIG_CONTROL_DESIGN' ));
ENDSEC;

DATA;
#1 = EDGE_LOOP ( 'NONE', ( #9, #247 ) ) ;
#2 = AXIS2_PLACEMENT_3D ( 'NONE', #263, #112, #347 ) ;
#3 = LOCAL_TIME ( 17, 1, 48.00000000000000000, #252 ) ;
#4 = AXIS2_PLACEMENT_3D ( 'NONE', #249, #101, #258 ) ;
#5 = EDGE_LOOP ( 'NONE', ( #185, #151 ) ) ;
#6 = ADVANCED_FACE ( 'NONE', ( #128, #16 ), #47, .T. ) ;
#7 = DIRECTION ( 'NONE',  ( 1.000000000000000000, 0.000000000000000000, 0.000000000000000000 ) ) ;
#8 = VERTEX_POINT ( 'NONE', #255 ) ;
#9 = ORIENTED_EDGE ( 'NONE', *, *, #235, .F. ) ;
#10 = CARTESIAN_POINT ( 'NONE',  ( 0.000000000000000000, 0.000000000000000000, 7.500000000000007105 ) ) ;
#11 = FACE_BOUND ( 'NONE', #123, .T. ) ;
#12 = CARTESIAN_POINT ( 'NONE',  ( -6.000000000000000888, 0.000000000000000000, 7.500000000000007105 ) ) ;
#13 =( GEOMETRIC_REPRESENTATION_CONTEXT ( 3 ) GLOBAL_UNCERTAINTY_ASSIGNED_CONTEXT ( ( #121 ) ) GLOBAL_UNIT_ASSIGNED_CONTEXT ( ( #207, #127, #100 ) ) REPRESENTATION_CONTEXT ( 'NONE', 'WORKASPACE' ) );
#14 = CARTESIAN_POINT ( 'NONE',  ( 6.000000000000000888, 7.347880794884120722E-16, 182.0000000000000000 ) ) ;
#15 = APPROVAL_ROLE ( '' ) ;
#16 = FACE_OUTER_BOUND ( 'NONE', #218, .T. ) ;
#17 = PERSON_AND_ORGANIZATION ( #137, #31 ) ;
#18 = ORIENTED_EDGE ( 'NONE', *, *, #186, .F. ) ;
#19 = DATE_AND_TIME ( #131, #3 ) ;
#20 = EDGE_CURVE ( 'NONE', #359, #67, #175, .T. ) ;
#21 = CARTESIAN_POINT ( 'NONE',  ( 0.000000000000000000, 0.000000000000000000, 182.0000000000000000 ) ) ;
#22 = DATE_AND_TIME ( #226, #211 ) ;
#23 = LINE ( 'NONE', #234, #197 ) ;
#24 = DIRECTION ( 'NONE',  ( -0.000000000000000000, -0.000000000000000000, -1.000000000000000000 ) ) ;
#25 = PRODUCT_DEFINITION ( 'NEZNÁMÝ', '', #323, #356 ) ;
#26 = DIRECTION ( 'NONE',  ( 1.000000000000000000, 0.000000000000000000, 0.000000000000000000 ) ) ;
#27 = CIRCLE ( 'NONE', #153, 6.500000000000000888 ) ;
#28 = LINE ( 'NONE', #199, #215 ) ;
#29 = EDGE_CURVE ( 'NONE', #341, #310, #191, .T. ) ;
#30 = EDGE_LOOP ( 'NONE', ( #298, #253, #209, #91 ) ) ;
#31 = ORGANIZATION ( 'NEURÈENÝ', 'NEURÈENÝ', '' ) ;
#32 = ORIENTED_EDGE ( 'NONE', *, *, #48, .T. ) ;
#33 = ADVANCED_FACE ( 'NONE', ( #284 ), #138, .T. ) ;
#34 = CARTESIAN_POINT ( 'NONE',  ( 6.000000000000000888, 7.347880794884120722E-16, 7.500000000000007105 ) ) ;
#35 = ORIENTED_EDGE ( 'NONE', *, *, #212, .T. ) ;
#36 = DIRECTION ( 'NONE',  ( -0.000000000000000000, -0.000000000000000000, -1.000000000000000000 ) ) ;
#37 = CIRCLE ( 'NONE', #189, 6.500000000000000888 ) ;
#38 = CC_DESIGN_SECURITY_CLASSIFICATION ( #228, ( #323 ) ) ;
#39 = ORIENTED_EDGE ( 'NONE', *, *, #29, .F. ) ;
#40 = DIRECTION ( 'NONE',  ( 0.000000000000000000, 0.000000000000000000, 1.000000000000000000 ) ) ;
#41 = PRODUCT_RELATED_PRODUCT_CATEGORY ( 'detail', '', ( #257 ) ) ;
#42 = FACE_OUTER_BOUND ( 'NONE', #355, .T. ) ;
#43 = DIRECTION ( 'NONE',  ( -0.000000000000000000, -0.000000000000000000, -1.000000000000000000 ) ) ;
#44 = DIRECTION ( 'NONE',  ( -0.000000000000000000, -0.000000000000000000, -1.000000000000000000 ) ) ;
#45 = APPROVAL_DATE_TIME ( #102, #262 ) ;
#46 = ORIENTED_EDGE ( 'NONE', *, *, #186, .T. ) ;
#47 = PLANE ( 'NONE',  #144 ) ;
#48 = EDGE_CURVE ( 'NONE', #132, #361, #224, .T. ) ;
#49 = AXIS2_PLACEMENT_3D ( 'NONE', #237, #312, #50 ) ;
#50 = DIRECTION ( 'NONE',  ( 1.000000000000000000, 0.000000000000000000, 0.000000000000000000 ) ) ;
#51 = PERSON_AND_ORGANIZATION_ROLE ( 'creator' ) ;
#52 = CIRCLE ( 'NONE', #99, 6.000000000000000888 ) ;
#53 = DIRECTION ( 'NONE',  ( -0.000000000000000000, -0.000000000000000000, -1.000000000000000000 ) ) ;
#54 = CC_DESIGN_APPROVAL ( #262, ( #228 ) ) ;
#55 = PERSON_AND_ORGANIZATION_ROLE ( 'creator' ) ;
#56 = CC_DESIGN_DATE_AND_TIME_ASSIGNMENT ( #281, #104, ( #25 ) ) ;
#57 = DIRECTION ( 'NONE',  ( 1.000000000000000000, 0.000000000000000000, 0.000000000000000000 ) ) ;
#58 = AXIS2_PLACEMENT_3D ( 'NONE', #178, #206, #291 ) ;
#59 = CARTESIAN_POINT ( 'NONE',  ( 2.750000000000000000, 3.367778697655221012E-16, 0.000000000000000000 ) ) ;
#60 = DIRECTION ( 'NONE',  ( 0.000000000000000000, 0.000000000000000000, -1.000000000000000000 ) ) ;
#61 = CIRCLE ( 'NONE', #2, 2.750000000000000000 ) ;
#62 = ORIENTED_EDGE ( 'NONE', *, *, #29, .T. ) ;
#63 = CIRCLE ( 'NONE', #124, 10.00000000000000000 ) ;
#64 = ADVANCED_FACE ( 'NONE', ( #107, #42 ), #303, .F. ) ;
#65 = ORIENTED_EDGE ( 'NONE', *, *, #110, .F. ) ;
#66 = DIRECTION ( 'NONE',  ( 0.000000000000000000, 0.000000000000000000, 1.000000000000000000 ) ) ;
#67 = VERTEX_POINT ( 'NONE', #14 ) ;
#68 = CARTESIAN_POINT ( 'NONE',  ( -6.000000000000000888, 0.000000000000000000, 182.0000000000000000 ) ) ;
#69 = VERTEX_POINT ( 'NONE', #278 ) ;
#70 = CYLINDRICAL_SURFACE ( 'NONE', #146, 2.750000000000000000 ) ;
#71 = CARTESIAN_POINT ( 'NONE',  ( 0.000000000000000000, 0.000000000000000000, 182.0000000000000000 ) ) ;
#72 = FACE_OUTER_BOUND ( 'NONE', #119, .T. ) ;
#73 = ORIENTED_EDGE ( 'NONE', *, *, #154, .F. ) ;
#74 = CARTESIAN_POINT ( 'NONE',  ( 0.000000000000000000, 0.000000000000000000, 0.000000000000000000 ) ) ;
#75 = ADVANCED_FACE ( 'NONE', ( #11, #223 ), #377, .T. ) ;
#76 = CARTESIAN_POINT ( 'NONE',  ( 10.00000000000000000, 1.224646799147353256E-15, 7.000000000000000000 ) ) ;
#77 = PERSON_AND_ORGANIZATION ( #137, #31 ) ;
#78 = CARTESIAN_POINT ( 'NONE',  ( 0.000000000000000000, 0.000000000000000000, 182.0000000000000000 ) ) ;
#79 = LINE ( 'NONE', #200, #92 ) ;
#80 = EDGE_CURVE ( 'NONE', #181, #8, #380, .T. ) ;
#81 = COORDINATED_UNIVERSAL_TIME_OFFSET ( 1, 0, .AHEAD. ) ;
#82 = CIRCLE ( 'NONE', #295, 0.5000000000000004441 ) ;
#83 = DIRECTION ( 'NONE',  ( 0.000000000000000000, 0.000000000000000000, 1.000000000000000000 ) ) ;
#84 = CARTESIAN_POINT ( 'NONE',  ( 0.000000000000000000, 0.000000000000000000, 182.0000000000000000 ) ) ;
#85 = DIRECTION ( 'NONE',  ( 0.000000000000000000, 0.000000000000000000, 1.000000000000000000 ) ) ;
#86 = DIRECTION ( 'NONE',  ( -1.000000000000000000, 1.224646799147351482E-16, 0.000000000000000000 ) ) ;
#87 = EDGE_CURVE ( 'NONE', #163, #103, #28, .T. ) ;
#88 = CIRCLE ( 'NONE', #140, 6.000000000000000888 ) ;
#89 = CARTESIAN_POINT ( 'NONE',  ( 0.000000000000000000, 0.000000000000000000, 0.000000000000000000 ) ) ;
#90 = ORIENTED_EDGE ( 'NONE', *, *, #220, .T. ) ;
#91 = ORIENTED_EDGE ( 'NONE', *, *, #95, .F. ) ;
#92 = VECTOR ( 'NONE', #176, 1000.000000000000000 ) ;
#93 = ORIENTED_EDGE ( 'NONE', *, *, #110, .T. ) ;
#94 = CARTESIAN_POINT ( 'NONE',  ( 0.000000000000000000, 0.000000000000000000, 182.0000000000000000 ) ) ;
#95 = EDGE_CURVE ( 'NONE', #365, #69, #319, .T. ) ;
#96 = ORIENTED_EDGE ( 'NONE', *, *, #283, .F. ) ;
#97 = DIRECTION ( 'NONE',  ( 1.224646799147353207E-16, 1.000000000000000000, -0.000000000000000000 ) ) ;
#98 = ORIENTED_EDGE ( 'NONE', *, *, #87, .F. ) ;
#99 = AXIS2_PLACEMENT_3D ( 'NONE', #84, #83, #318 ) ;
#100 =( NAMED_UNIT ( * ) SI_UNIT ( $, .STERADIAN. ) SOLID_ANGLE_UNIT ( ) );
#101 = DIRECTION ( 'NONE',  ( -0.000000000000000000, -0.000000000000000000, -1.000000000000000000 ) ) ;
#102 = DATE_AND_TIME ( #173, #246 ) ;
#103 = VERTEX_POINT ( 'NONE', #117 ) ;
#104 = DATE_TIME_ROLE ( 'creation_date' ) ;
#105 = EDGE_LOOP ( 'NONE', ( #39, #242, #368, #93 ) ) ;
#106 = AXIS2_PLACEMENT_3D ( 'NONE', #78, #288, #143 ) ;
#107 = FACE_BOUND ( 'NONE', #1, .T. ) ;
#108 = APPROVAL_STATUS ( 'not_yet_approved' ) ;
#109 = DIRECTION ( 'NONE',  ( -1.000000000000000000, 0.000000000000000000, 0.000000000000000000 ) ) ;
#110 = EDGE_CURVE ( 'NONE', #103, #310, #331, .T. ) ;
#111 = PERSON_AND_ORGANIZATION ( #137, #31 ) ;
#112 = DIRECTION ( 'NONE',  ( 0.000000000000000000, 0.000000000000000000, 1.000000000000000000 ) ) ;
#113 = CYLINDRICAL_SURFACE ( 'NONE', #259, 2.750000000000000000 ) ;
#114 = CARTESIAN_POINT ( 'NONE',  ( 0.000000000000000000, 0.000000000000000000, 0.000000000000000000 ) ) ;
#115 = AXIS2_PLACEMENT_3D ( 'NONE', #305, #370, #227 ) ;
#116 = EDGE_CURVE ( 'NONE', #163, #341, #213, .T. ) ;
#117 = CARTESIAN_POINT ( 'NONE',  ( -10.00000000000000000, 0.000000000000000000, 0.000000000000000000 ) ) ;
#118 = FACE_OUTER_BOUND ( 'NONE', #30, .T. ) ;
#119 = EDGE_LOOP ( 'NONE', ( #333, #35, #90, #276 ) ) ;
#120 = EDGE_CURVE ( 'NONE', #69, #357, #27, .T. ) ;
#121 = UNCERTAINTY_MEASURE_WITH_UNIT (LENGTH_MEASURE( 1.000000000000000082E-05 ), #207, 'distance_accuracy_value', 'NONE');
#122 = ORIENTED_EDGE ( 'NONE', *, *, #212, .F. ) ;
#123 = EDGE_LOOP ( 'NONE', ( #273, #335 ) ) ;
#124 = AXIS2_PLACEMENT_3D ( 'NONE', #147, #260, #376 ) ;
#125 = LINE ( 'NONE', #217, #322 ) ;
#126 = ORIENTED_EDGE ( 'NONE', *, *, #20, .T. ) ;
#127 =( NAMED_UNIT ( * ) PLANE_ANGLE_UNIT ( ) SI_UNIT ( $, .RADIAN. ) );
#128 = FACE_BOUND ( 'NONE', #327, .T. ) ;
#129 = DIRECTION ( 'NONE',  ( 1.000000000000000000, 0.000000000000000000, 0.000000000000000000 ) ) ;
#130 = ORIENTED_EDGE ( 'NONE', *, *, #275, .F. ) ;
#131 = CALENDAR_DATE ( 2022, 8, 7 ) ;
#132 = VERTEX_POINT ( 'NONE', #59 ) ;
#133 = CC_DESIGN_PERSON_AND_ORGANIZATION_ASSIGNMENT ( #375, #314, ( #257 ) ) ;
#134 = SECURITY_CLASSIFICATION_LEVEL ( 'unclassified' ) ;
#135 = EDGE_LOOP ( 'NONE', ( #210, #62, #267, #98 ) ) ;
#136 = AXIS2_PLACEMENT_3D ( 'NONE', #141, #174, #379 ) ;
#137 = PERSON ( 'NEURÈENÝ', 'NEURÈENÝ', 'NEURÈENÝ', ('NEURÈENÝ'), ('NEURÈENÝ'), ('NEURÈENÝ') ) ;
#138 = CYLINDRICAL_SURFACE ( 'NONE', #4, 10.00000000000000000 ) ;
#139 = CIRCLE ( 'NONE', #245, 6.000000000000000888 ) ;
#140 = AXIS2_PLACEMENT_3D ( 'NONE', #299, #187, #277 ) ;
#141 = CARTESIAN_POINT ( 'NONE',  ( 6.500000000000000888, 0.000000000000000000, 7.500000000000007105 ) ) ;
#142 = APPROVAL_STATUS ( 'not_yet_approved' ) ;
#143 = DIRECTION ( 'NONE',  ( -1.000000000000000000, 0.000000000000000000, 0.000000000000000000 ) ) ;
#144 = AXIS2_PLACEMENT_3D ( 'NONE', #71, #339, #165 ) ;
#145 = CARTESIAN_POINT ( 'NONE',  ( -2.750000000000000000, 0.000000000000000000, 182.0000000000000000 ) ) ;
#146 = AXIS2_PLACEMENT_3D ( 'NONE', #94, #360, #304 ) ;
#147 = CARTESIAN_POINT ( 'NONE',  ( 0.000000000000000000, 0.000000000000000000, 0.000000000000000000 ) ) ;
#148 = ADVANCED_FACE ( 'NONE', ( #321 ), #149, .T. ) ;
#149 = CYLINDRICAL_SURFACE ( 'NONE', #272, 10.00000000000000000 ) ;
#150 = EDGE_CURVE ( 'NONE', #357, #69, #37, .T. ) ;
#151 = ORIENTED_EDGE ( 'NONE', *, *, #239, .T. ) ;
#152 = DIRECTION ( 'NONE',  ( 1.000000000000000000, 0.000000000000000000, 0.000000000000000000 ) ) ;
#153 = AXIS2_PLACEMENT_3D ( 'NONE', #169, #24, #348 ) ;
#154 = EDGE_CURVE ( 'NONE', #310, #103, #63, .T. ) ;
#155 = CARTESIAN_POINT ( 'NONE',  ( -2.750000000000000000, 0.000000000000000000, 0.000000000000000000 ) ) ;
#156 = ORIENTED_EDGE ( 'NONE', *, *, #283, .T. ) ;
#157 = CARTESIAN_POINT ( 'NONE',  ( -6.500000000000000888, 7.960204194457796463E-16, 7.500000000000007105 ) ) ;
#158 = DIRECTION ( 'NONE',  ( 1.000000000000000000, 0.000000000000000000, -0.000000000000000000 ) ) ;
#159 = DIRECTION ( 'NONE',  ( 1.000000000000000000, 0.000000000000000000, 0.000000000000000000 ) ) ;
#160 = ADVANCED_FACE ( 'NONE', ( #264 ), #113, .F. ) ;
#161 = DIRECTION ( 'NONE',  ( -0.000000000000000000, -0.000000000000000000, -1.000000000000000000 ) ) ;
#162 = SHAPE_DEFINITION_REPRESENTATION ( #243, #363 ) ;
#163 = VERTEX_POINT ( 'NONE', #236 ) ;
#164 = PERSON_AND_ORGANIZATION ( #137, #31 ) ;
#165 = DIRECTION ( 'NONE',  ( 1.000000000000000000, 0.000000000000000000, -0.000000000000000000 ) ) ;
#166 = AXIS2_PLACEMENT_3D ( 'NONE', #114, #85, #26 ) ;
#167 = ADVANCED_FACE ( 'NONE', ( #265 ), #381, .T. ) ;
#168 = PERSON_AND_ORGANIZATION ( #137, #31 ) ;
#169 = CARTESIAN_POINT ( 'NONE',  ( 0.000000000000000000, 0.000000000000000000, 7.000000000000000000 ) ) ;
#170 = APPLICATION_CONTEXT ( 'configuration controlled 3d designs of mechanical parts and assemblies' ) ;
#171 = MECHANICAL_CONTEXT ( 'NONE', #170, 'mechanical' ) ;
#172 = DIRECTION ( 'NONE',  ( -0.000000000000000000, -0.000000000000000000, -1.000000000000000000 ) ) ;
#173 = CALENDAR_DATE ( 2022, 8, 7 ) ;
#174 = DIRECTION ( 'NONE',  ( 0.000000000000000000, -1.000000000000000000, 0.000000000000000000 ) ) ;
#175 = CIRCLE ( 'NONE', #115, 6.000000000000000888 ) ;
#176 = DIRECTION ( 'NONE',  ( -0.000000000000000000, -0.000000000000000000, -1.000000000000000000 ) ) ;
#177 = CIRCLE ( 'NONE', #280, 10.00000000000000000 ) ;
#178 = CARTESIAN_POINT ( 'NONE',  ( 0.000000000000000000, 0.000000000000000000, 7.000000000000000000 ) ) ;
#179 = LOCAL_TIME ( 17, 1, 48.00000000000000000, #256 ) ;
#180 = ADVANCED_FACE ( 'NONE', ( #232 ), #286, .T. ) ;
#181 = VERTEX_POINT ( 'NONE', #145 ) ;
#182 = CC_DESIGN_APPROVAL ( #270, ( #25 ) ) ;
#183 = ORIENTED_EDGE ( 'NONE', *, *, #20, .F. ) ;
#184 = DIRECTION ( 'NONE',  ( 1.000000000000000000, 0.000000000000000000, 0.000000000000000000 ) ) ;
#185 = ORIENTED_EDGE ( 'NONE', *, *, #116, .T. ) ;
#186 = EDGE_CURVE ( 'NONE', #359, #352, #79, .T. ) ;
#187 = DIRECTION ( 'NONE',  ( 0.000000000000000000, 0.000000000000000000, 1.000000000000000000 ) ) ;
#188 = ORIENTED_EDGE ( 'NONE', *, *, #229, .T. ) ;
#189 = AXIS2_PLACEMENT_3D ( 'NONE', #203, #290, #344 ) ;
#190 = DIRECTION ( 'NONE',  ( 0.000000000000000000, 0.000000000000000000, 1.000000000000000000 ) ) ;
#191 = LINE ( 'NONE', #76, #354 ) ;
#192 = DIRECTION ( 'NONE',  ( 0.000000000000000000, 0.000000000000000000, -1.000000000000000000 ) ) ;
#193 = CC_DESIGN_PERSON_AND_ORGANIZATION_ASSIGNMENT ( #111, #51, ( #25 ) ) ;
#194 = EDGE_LOOP ( 'NONE', ( #250, #130, #269, #241 ) ) ;
#195 = APPLICATION_PROTOCOL_DEFINITION ( 'international standard', 'config_control_design', 1994, #204 ) ;
#196 = DIRECTION ( 'NONE',  ( 0.000000000000000000, 0.000000000000000000, 1.000000000000000000 ) ) ;
#197 = VECTOR ( 'NONE', #346, 1000.000000000000000 ) ;
#198 = DATE_TIME_ROLE ( 'classification_date' ) ;
#199 = CARTESIAN_POINT ( 'NONE',  ( -10.00000000000000000, 0.000000000000000000, 7.000000000000000000 ) ) ;
#200 = CARTESIAN_POINT ( 'NONE',  ( -6.000000000000000888, 0.000000000000000000, 182.0000000000000000 ) ) ;
#201 = COORDINATED_UNIVERSAL_TIME_OFFSET ( 1, 0, .AHEAD. ) ;
#202 = TOROIDAL_SURFACE ( 'NONE', #251, 6.500000000000000888, 0.5000000000000000000 ) ;
#203 = CARTESIAN_POINT ( 'NONE',  ( 0.000000000000000000, 0.000000000000000000, 7.000000000000000000 ) ) ;
#204 = APPLICATION_CONTEXT ( 'configuration controlled 3d designs of mechanical parts and assemblies' ) ;
#205 = DIRECTION ( 'NONE',  ( -1.000000000000000000, 0.000000000000000000, 0.000000000000000000 ) ) ;
#206 = DIRECTION ( 'NONE',  ( 0.000000000000000000, 0.000000000000000000, 1.000000000000000000 ) ) ;
#207 =( LENGTH_UNIT ( ) NAMED_UNIT ( * ) SI_UNIT ( .MILLI., .METRE. ) );
#208 = CARTESIAN_POINT ( 'NONE',  ( 0.000000000000000000, 0.000000000000000000, 7.000000000000000000 ) ) ;
#209 = ORIENTED_EDGE ( 'NONE', *, *, #120, .F. ) ;
#210 = ORIENTED_EDGE ( 'NONE', *, *, #239, .F. ) ;
#211 = LOCAL_TIME ( 17, 1, 48.00000000000000000, #231 ) ;
#212 = EDGE_CURVE ( 'NONE', #8, #181, #61, .T. ) ;
#213 = CIRCLE ( 'NONE', #49, 10.00000000000000000 ) ;
#214 = DIRECTION ( 'NONE',  ( 0.000000000000000000, 0.000000000000000000, 1.000000000000000000 ) ) ;
#215 = VECTOR ( 'NONE', #53, 1000.000000000000000 ) ;
#216 = ORIENTED_EDGE ( 'NONE', *, *, #80, .T. ) ;
#217 = CARTESIAN_POINT ( 'NONE',  ( 2.750000000000000000, 3.367778697655221012E-16, 182.0000000000000000 ) ) ;
#218 = EDGE_LOOP ( 'NONE', ( #126, #188 ) ) ;
#219 = AXIS2_PLACEMENT_3D ( 'NONE', #21, #172, #109 ) ;
#220 = EDGE_CURVE ( 'NONE', #181, #361, #23, .T. ) ;
#221 = CC_DESIGN_APPROVAL ( #296, ( #323 ) ) ;
#222 = DIRECTION ( 'NONE',  ( 0.000000000000000000, 0.000000000000000000, 1.000000000000000000 ) ) ;
#223 = FACE_OUTER_BOUND ( 'NONE', #5, .T. ) ;
#224 = CIRCLE ( 'NONE', #254, 2.750000000000000000 ) ;
#225 = EDGE_LOOP ( 'NONE', ( #216, #230, #32, #326 ) ) ;
#226 = CALENDAR_DATE ( 2022, 8, 7 ) ;
#227 = DIRECTION ( 'NONE',  ( 1.000000000000000000, 0.000000000000000000, 0.000000000000000000 ) ) ;
#228 = SECURITY_CLASSIFICATION ( '', '', #134 ) ;
#229 = EDGE_CURVE ( 'NONE', #67, #359, #52, .T. ) ;
#230 = ORIENTED_EDGE ( 'NONE', *, *, #248, .T. ) ;
#231 = COORDINATED_UNIVERSAL_TIME_OFFSET ( 1, 0, .AHEAD. ) ;
#232 = FACE_OUTER_BOUND ( 'NONE', #294, .T. ) ;
#233 = CALENDAR_DATE ( 2022, 8, 7 ) ;
#234 = CARTESIAN_POINT ( 'NONE',  ( -2.750000000000000000, 0.000000000000000000, 182.0000000000000000 ) ) ;
#235 = EDGE_CURVE ( 'NONE', #361, #132, #316, .T. ) ;
#236 = CARTESIAN_POINT ( 'NONE',  ( -10.00000000000000000, 0.000000000000000000, 7.000000000000000000 ) ) ;
#237 = CARTESIAN_POINT ( 'NONE',  ( 0.000000000000000000, 0.000000000000000000, 7.000000000000000000 ) ) ;
#238 = AXIS2_PLACEMENT_3D ( 'NONE', #337, #196, #158 ) ;
#239 = EDGE_CURVE ( 'NONE', #341, #163, #177, .T. ) ;
#240 = CARTESIAN_POINT ( 'NONE',  ( 0.000000000000000000, 0.000000000000000000, 7.500000000000007105 ) ) ;
#241 = ORIENTED_EDGE ( 'NONE', *, *, #150, .F. ) ;
#242 = ORIENTED_EDGE ( 'NONE', *, *, #116, .F. ) ;
#243 = PRODUCT_DEFINITION_SHAPE ( 'NONE', 'NONE',  #25 ) ;
#244 = CC_DESIGN_DATE_AND_TIME_ASSIGNMENT ( #22, #198, ( #228 ) ) ;
#245 = AXIS2_PLACEMENT_3D ( 'NONE', #362, #190, #159 ) ;
#246 = LOCAL_TIME ( 17, 1, 48.00000000000000000, #201 ) ;
#247 = ORIENTED_EDGE ( 'NONE', *, *, #48, .F. ) ;
#248 = EDGE_CURVE ( 'NONE', #8, #132, #125, .T. ) ;
#249 = CARTESIAN_POINT ( 'NONE',  ( 0.000000000000000000, 0.000000000000000000, 7.000000000000000000 ) ) ;
#250 = ORIENTED_EDGE ( 'NONE', *, *, #378, .F. ) ;
#251 = AXIS2_PLACEMENT_3D ( 'NONE', #240, #214, #129 ) ;
#252 = COORDINATED_UNIVERSAL_TIME_OFFSET ( 1, 0, .AHEAD. ) ;
#253 = ORIENTED_EDGE ( 'NONE', *, *, #378, .T. ) ;
#254 = AXIS2_PLACEMENT_3D ( 'NONE', #74, #161, #372 ) ;
#255 = CARTESIAN_POINT ( 'NONE',  ( 2.750000000000000000, 3.367778697655221012E-16, 182.0000000000000000 ) ) ;
#256 = COORDINATED_UNIVERSAL_TIME_OFFSET ( 1, 0, .AHEAD. ) ;
#257 = PRODUCT ( 'da37', 'da37', '', ( #171 ) ) ;
#258 = DIRECTION ( 'NONE',  ( -1.000000000000000000, 0.000000000000000000, 0.000000000000000000 ) ) ;
#259 = AXIS2_PLACEMENT_3D ( 'NONE', #320, #60, #374 ) ;
#260 = DIRECTION ( 'NONE',  ( 0.000000000000000000, 0.000000000000000000, 1.000000000000000000 ) ) ;
#261 = CARTESIAN_POINT ( 'NONE',  ( 0.000000000000000000, 0.000000000000000000, 182.0000000000000000 ) ) ;
#262 = APPROVAL ( #142, 'NEURÈENÝ' ) ;
#263 = CARTESIAN_POINT ( 'NONE',  ( 0.000000000000000000, 0.000000000000000000, 182.0000000000000000 ) ) ;
#264 = FACE_OUTER_BOUND ( 'NONE', #225, .T. ) ;
#265 = FACE_OUTER_BOUND ( 'NONE', #301, .T. ) ;
#266 = APPLICATION_PROTOCOL_DEFINITION ( 'international standard', 'config_control_design', 1994, #170 ) ;
#267 = ORIENTED_EDGE ( 'NONE', *, *, #154, .T. ) ;
#268 = ORIENTED_EDGE ( 'NONE', *, *, #80, .F. ) ;
#269 = ORIENTED_EDGE ( 'NONE', *, *, #95, .T. ) ;
#270 = APPROVAL ( #108, 'NEURÈENÝ' ) ;
#271 = AXIS2_PLACEMENT_3D ( 'NONE', #261, #292, #57 ) ;
#272 = AXIS2_PLACEMENT_3D ( 'NONE', #342, #315, #205 ) ;
#273 = ORIENTED_EDGE ( 'NONE', *, *, #120, .T. ) ;
#274 = LOCAL_TIME ( 17, 1, 48.00000000000000000, #81 ) ;
#275 = EDGE_CURVE ( 'NONE', #365, #352, #88, .T. ) ;
#276 = ORIENTED_EDGE ( 'NONE', *, *, #235, .T. ) ;
#277 = DIRECTION ( 'NONE',  ( 1.000000000000000000, 0.000000000000000000, 0.000000000000000000 ) ) ;
#278 = CARTESIAN_POINT ( 'NONE',  ( 6.500000000000000888, 0.000000000000000000, 7.000000000000002665 ) ) ;
#279 = DIRECTION ( 'NONE',  ( 1.000000000000000000, 0.000000000000000000, 0.000000000000000000 ) ) ;
#280 = AXIS2_PLACEMENT_3D ( 'NONE', #208, #222, #184 ) ;
#281 = DATE_AND_TIME ( #289, #274 ) ;
#282 = ORIENTED_EDGE ( 'NONE', *, *, #275, .T. ) ;
#283 = EDGE_CURVE ( 'NONE', #67, #365, #334, .T. ) ;
#284 = FACE_OUTER_BOUND ( 'NONE', #135, .T. ) ;
#285 = PERSON_AND_ORGANIZATION_ROLE ( 'classification_officer' ) ;
#286 = CYLINDRICAL_SURFACE ( 'NONE', #219, 6.000000000000000888 ) ;
#287 = APPROVAL_ROLE ( '' ) ;
#288 = DIRECTION ( 'NONE',  ( -0.000000000000000000, -0.000000000000000000, -1.000000000000000000 ) ) ;
#289 = CALENDAR_DATE ( 2022, 8, 7 ) ;
#290 = DIRECTION ( 'NONE',  ( -0.000000000000000000, -0.000000000000000000, -1.000000000000000000 ) ) ;
#291 = DIRECTION ( 'NONE',  ( 1.000000000000000000, 0.000000000000000000, -0.000000000000000000 ) ) ;
#292 = DIRECTION ( 'NONE',  ( 0.000000000000000000, 0.000000000000000000, 1.000000000000000000 ) ) ;
#293 = ADVANCED_FACE ( 'NONE', ( #72 ), #70, .F. ) ;
#294 = EDGE_LOOP ( 'NONE', ( #330, #156, #282, #18 ) ) ;
#295 = AXIS2_PLACEMENT_3D ( 'NONE', #157, #97, #86 ) ;
#296 = APPROVAL ( #340, 'NEURÈENÝ' ) ;
#297 = APPROVAL_PERSON_ORGANIZATION ( #168, #296, #287 ) ;
#298 = ORIENTED_EDGE ( 'NONE', *, *, #313, .F. ) ;
#299 = CARTESIAN_POINT ( 'NONE',  ( 0.000000000000000000, 0.000000000000000000, 7.500000000000007105 ) ) ;
#300 = CARTESIAN_POINT ( 'NONE',  ( 0.000000000000000000, 0.000000000000000000, 0.000000000000000000 ) ) ;
#301 = EDGE_LOOP ( 'NONE', ( #96, #183, #46, #329 ) ) ;
#302 = CARTESIAN_POINT ( 'NONE',  ( 10.00000000000000000, 1.224646799147353256E-15, 7.000000000000000000 ) ) ;
#303 = PLANE ( 'NONE',  #238 ) ;
#304 = DIRECTION ( 'NONE',  ( -1.000000000000000000, 0.000000000000000000, 0.000000000000000000 ) ) ;
#305 = CARTESIAN_POINT ( 'NONE',  ( 0.000000000000000000, 0.000000000000000000, 182.0000000000000000 ) ) ;
#306 = DATE_AND_TIME ( #233, #179 ) ;
#307 = CC_DESIGN_PERSON_AND_ORGANIZATION_ASSIGNMENT ( #17, #55, ( #323 ) ) ;
#308 = AXIS2_PLACEMENT_3D ( 'NONE', #300, #43, #7 ) ;
#309 = APPROVAL_PERSON_ORGANIZATION ( #311, #262, #15 ) ;
#310 = VERTEX_POINT ( 'NONE', #325 ) ;
#311 = PERSON_AND_ORGANIZATION ( #137, #31 ) ;
#312 = DIRECTION ( 'NONE',  ( 0.000000000000000000, 0.000000000000000000, 1.000000000000000000 ) ) ;
#313 = EDGE_CURVE ( 'NONE', #352, #365, #139, .T. ) ;
#314 = PERSON_AND_ORGANIZATION_ROLE ( 'design_owner' ) ;
#315 = DIRECTION ( 'NONE',  ( -0.000000000000000000, -0.000000000000000000, -1.000000000000000000 ) ) ;
#316 = CIRCLE ( 'NONE', #308, 2.750000000000000000 ) ;
#317 = APPROVAL_DATE_TIME ( #306, #270 ) ;
#318 = DIRECTION ( 'NONE',  ( 1.000000000000000000, 0.000000000000000000, 0.000000000000000000 ) ) ;
#319 = CIRCLE ( 'NONE', #136, 0.5000000000000004441 ) ;
#320 = CARTESIAN_POINT ( 'NONE',  ( 0.000000000000000000, 0.000000000000000000, 182.0000000000000000 ) ) ;
#321 = FACE_OUTER_BOUND ( 'NONE', #105, .T. ) ;
#322 = VECTOR ( 'NONE', #192, 1000.000000000000000 ) ;
#323 = PRODUCT_DEFINITION_FORMATION_WITH_SPECIFIED_SOURCE ( 'LIBOVOLNÝ', '', #257, .NOT_KNOWN. ) ;
#324 = MANIFOLD_SOLID_BREP ( 'Odebrat vysunutím3', #369 ) ;
#325 = CARTESIAN_POINT ( 'NONE',  ( 10.00000000000000000, 1.224646799147353256E-15, 0.000000000000000000 ) ) ;
#326 = ORIENTED_EDGE ( 'NONE', *, *, #220, .F. ) ;
#327 = EDGE_LOOP ( 'NONE', ( #268, #122 ) ) ;
#328 = APPROVAL_PERSON_ORGANIZATION ( #164, #270, #371 ) ;
#329 = ORIENTED_EDGE ( 'NONE', *, *, #313, .T. ) ;
#330 = ORIENTED_EDGE ( 'NONE', *, *, #229, .F. ) ;
#331 = CIRCLE ( 'NONE', #166, 10.00000000000000000 ) ;
#332 = FACE_OUTER_BOUND ( 'NONE', #194, .T. ) ;
#333 = ORIENTED_EDGE ( 'NONE', *, *, #248, .F. ) ;
#334 = LINE ( 'NONE', #336, #351 ) ;
#335 = ORIENTED_EDGE ( 'NONE', *, *, #150, .T. ) ;
#336 = CARTESIAN_POINT ( 'NONE',  ( 6.000000000000000888, 7.347880794884120722E-16, 182.0000000000000000 ) ) ;
#337 = CARTESIAN_POINT ( 'NONE',  ( 0.000000000000000000, 0.000000000000000000, 0.000000000000000000 ) ) ;
#338 = CC_DESIGN_PERSON_AND_ORGANIZATION_ASSIGNMENT ( #77, #285, ( #228 ) ) ;
#339 = DIRECTION ( 'NONE',  ( 0.000000000000000000, 0.000000000000000000, 1.000000000000000000 ) ) ;
#340 = APPROVAL_STATUS ( 'not_yet_approved' ) ;
#341 = VERTEX_POINT ( 'NONE', #302 ) ;
#342 = CARTESIAN_POINT ( 'NONE',  ( 0.000000000000000000, 0.000000000000000000, 7.000000000000000000 ) ) ;
#343 = ADVANCED_FACE ( 'NONE', ( #118 ), #350, .F. ) ;
#344 = DIRECTION ( 'NONE',  ( 1.000000000000000000, 0.000000000000000000, 0.000000000000000000 ) ) ;
#345 = PERSON_AND_ORGANIZATION ( #137, #31 ) ;
#346 = DIRECTION ( 'NONE',  ( 0.000000000000000000, 0.000000000000000000, -1.000000000000000000 ) ) ;
#347 = DIRECTION ( 'NONE',  ( 1.000000000000000000, 0.000000000000000000, 0.000000000000000000 ) ) ;
#348 = DIRECTION ( 'NONE',  ( 1.000000000000000000, 0.000000000000000000, 0.000000000000000000 ) ) ;
#349 = CARTESIAN_POINT ( 'NONE',  ( -6.500000000000000888, 7.960204194457796463E-16, 7.000000000000002665 ) ) ;
#350 = TOROIDAL_SURFACE ( 'NONE', #364, 6.500000000000000888, 0.5000000000000000000 ) ;
#351 = VECTOR ( 'NONE', #36, 1000.000000000000000 ) ;
#352 = VERTEX_POINT ( 'NONE', #12 ) ;
#353 = ADVANCED_FACE ( 'NONE', ( #332 ), #202, .F. ) ;
#354 = VECTOR ( 'NONE', #44, 1000.000000000000000 ) ;
#355 = EDGE_LOOP ( 'NONE', ( #65, #73 ) ) ;
#356 = DESIGN_CONTEXT ( 'detailed design', #204, 'design' ) ;
#357 = VERTEX_POINT ( 'NONE', #349 ) ;
#358 = AXIS2_PLACEMENT_3D ( 'NONE', #89, #66, #152 ) ;
#359 = VERTEX_POINT ( 'NONE', #68 ) ;
#360 = DIRECTION ( 'NONE',  ( 0.000000000000000000, 0.000000000000000000, -1.000000000000000000 ) ) ;
#361 = VERTEX_POINT ( 'NONE', #155 ) ;
#362 = CARTESIAN_POINT ( 'NONE',  ( 0.000000000000000000, 0.000000000000000000, 7.500000000000007105 ) ) ;
#363 = ADVANCED_BREP_SHAPE_REPRESENTATION ( 'da37', ( #324, #358 ), #13 ) ;
#364 = AXIS2_PLACEMENT_3D ( 'NONE', #10, #40, #279 ) ;
#365 = VERTEX_POINT ( 'NONE', #34 ) ;
#366 = CC_DESIGN_PERSON_AND_ORGANIZATION_ASSIGNMENT ( #345, #367, ( #323 ) ) ;
#367 = PERSON_AND_ORGANIZATION_ROLE ( 'design_supplier' ) ;
#368 = ORIENTED_EDGE ( 'NONE', *, *, #87, .T. ) ;
#369 = CLOSED_SHELL ( 'NONE', ( #160, #343, #180, #33, #148, #75, #64, #167, #6, #353, #293 ) ) ;
#370 = DIRECTION ( 'NONE',  ( 0.000000000000000000, 0.000000000000000000, 1.000000000000000000 ) ) ;
#371 = APPROVAL_ROLE ( '' ) ;
#372 = DIRECTION ( 'NONE',  ( 1.000000000000000000, 0.000000000000000000, 0.000000000000000000 ) ) ;
#373 = APPROVAL_DATE_TIME ( #19, #296 ) ;
#374 = DIRECTION ( 'NONE',  ( -1.000000000000000000, 0.000000000000000000, 0.000000000000000000 ) ) ;
#375 = PERSON_AND_ORGANIZATION ( #137, #31 ) ;
#376 = DIRECTION ( 'NONE',  ( 1.000000000000000000, 0.000000000000000000, 0.000000000000000000 ) ) ;
#377 = PLANE ( 'NONE',  #58 ) ;
#378 = EDGE_CURVE ( 'NONE', #352, #357, #82, .T. ) ;
#379 = DIRECTION ( 'NONE',  ( 0.000000000000000000, 0.000000000000000000, -1.000000000000000000 ) ) ;
#380 = CIRCLE ( 'NONE', #271, 2.750000000000000000 ) ;
#381 = CYLINDRICAL_SURFACE ( 'NONE', #106, 6.000000000000000888 ) ;
ENDSEC;
END-ISO-10303-21;
