ISO-10303-21;
HEADER;
FILE_DESCRIPTION (( 'STEP AP203' ),
    '1' );
FILE_NAME ('2067.STEP',
    '2022-07-08T15:13:20',
    ( '' ),
    ( '' ),
    'SwSTEP 2.0',
    'SolidWorks 2019',
    '' );
FILE_SCHEMA (( 'CONFIG_CONTROL_DESIGN' ));
ENDSEC;

DATA;
#1 = VERTEX_POINT ( 'NONE', #109 ) ;
#2 = EDGE_CURVE ( 'NONE', #162, #1, #203, .T. ) ;
#3 = CARTESIAN_POINT ( 'NONE',  ( 0.000000000000000000, 0.000000000000000000, 7.500000000000007105 ) ) ;
#4 = LINE ( 'NONE', #239, #134 ) ;
#5 = DIRECTION ( 'NONE',  ( -1.000000000000000000, 0.000000000000000000, 0.000000000000000000 ) ) ;
#6 = PERSON_AND_ORGANIZATION_ROLE ( 'classification_officer' ) ;
#7 = CARTESIAN_POINT ( 'NONE',  ( 0.000000000000000000, 0.000000000000000000, 7.000000000000000000 ) ) ;
#8 = PERSON_AND_ORGANIZATION_ROLE ( 'design_owner' ) ;
#9 = DIRECTION ( 'NONE',  ( -1.000000000000000000, 0.000000000000000000, 0.000000000000000000 ) ) ;
#10 = COORDINATED_UNIVERSAL_TIME_OFFSET ( 1, 0, .AHEAD. ) ;
#11 = EDGE_CURVE ( 'NONE', #235, #108, #222, .T. ) ;
#12 = APPLICATION_PROTOCOL_DEFINITION ( 'international standard', 'config_control_design', 1994, #237 ) ;
#13 = DIRECTION ( 'NONE',  ( -0.000000000000000000, -0.000000000000000000, -1.000000000000000000 ) ) ;
#14 = VERTEX_POINT ( 'NONE', #141 ) ;
#15 = APPROVAL_ROLE ( '' ) ;
#16 = DIRECTION ( 'NONE',  ( -0.000000000000000000, -0.000000000000000000, -1.000000000000000000 ) ) ;
#17 = ORIENTED_EDGE ( 'NONE', *, *, #122, .F. ) ;
#18 = AXIS2_PLACEMENT_3D ( 'NONE', #349, #293, #317 ) ;
#19 = ORIENTED_EDGE ( 'NONE', *, *, #102, .T. ) ;
#20 = CARTESIAN_POINT ( 'NONE',  ( 0.000000000000000000, 0.000000000000000000, 167.0000000000000000 ) ) ;
#21 = DIRECTION ( 'NONE',  ( 0.000000000000000000, 0.000000000000000000, 1.000000000000000000 ) ) ;
#22 = UNCERTAINTY_MEASURE_WITH_UNIT (LENGTH_MEASURE( 1.000000000000000082E-05 ), #135, 'distance_accuracy_value', 'NONE');
#23 = VERTEX_POINT ( 'NONE', #82 ) ;
#24 = APPROVAL_PERSON_ORGANIZATION ( #217, #277, #15 ) ;
#25 = EDGE_CURVE ( 'NONE', #23, #267, #170, .T. ) ;
#26 = ORIENTED_EDGE ( 'NONE', *, *, #295, .T. ) ;
#27 = DIRECTION ( 'NONE',  ( 1.000000000000000000, 0.000000000000000000, -0.000000000000000000 ) ) ;
#28 = SECURITY_CLASSIFICATION ( '', '', #271 ) ;
#29 = CARTESIAN_POINT ( 'NONE',  ( 2.500000000000000000, 3.061616997868382648E-16, 0.000000000000000000 ) ) ;
#30 = CARTESIAN_POINT ( 'NONE',  ( 6.500000000000000888, 0.000000000000000000, 7.500000000000007105 ) ) ;
#31 = CC_DESIGN_DATE_AND_TIME_ASSIGNMENT ( #243, #358, ( #28 ) ) ;
#32 = EDGE_LOOP ( 'NONE', ( #197, #44, #335, #260 ) ) ;
#33 = DIRECTION ( 'NONE',  ( 1.000000000000000000, 0.000000000000000000, 0.000000000000000000 ) ) ;
#34 = EDGE_CURVE ( 'NONE', #162, #309, #41, .T. ) ;
#35 = CARTESIAN_POINT ( 'NONE',  ( 0.000000000000000000, 0.000000000000000000, 167.0000000000000000 ) ) ;
#36 = PERSON_AND_ORGANIZATION ( #369, #185 ) ;
#37 = CARTESIAN_POINT ( 'NONE',  ( -6.500000000000000888, 7.960204194457796463E-16, 7.500000000000007105 ) ) ;
#38 = PERSON_AND_ORGANIZATION_ROLE ( 'design_supplier' ) ;
#39 = CARTESIAN_POINT ( 'NONE',  ( 0.000000000000000000, 0.000000000000000000, 7.000000000000000000 ) ) ;
#40 = DIRECTION ( 'NONE',  ( 0.000000000000000000, 0.000000000000000000, 1.000000000000000000 ) ) ;
#41 = CIRCLE ( 'NONE', #314, 10.00000000000000000 ) ;
#42 = CARTESIAN_POINT ( 'NONE',  ( 6.500000000000000888, 0.000000000000000000, 7.000000000000002665 ) ) ;
#43 = VECTOR ( 'NONE', #343, 1000.000000000000000 ) ;
#44 = ORIENTED_EDGE ( 'NONE', *, *, #2, .T. ) ;
#45 = DIRECTION ( 'NONE',  ( -1.000000000000000000, 0.000000000000000000, 0.000000000000000000 ) ) ;
#46 = ORIENTED_EDGE ( 'NONE', *, *, #234, .T. ) ;
#47 = AXIS2_PLACEMENT_3D ( 'NONE', #269, #68, #5 ) ;
#48 = ORIENTED_EDGE ( 'NONE', *, *, #146, .F. ) ;
#49 = PRODUCT_DEFINITION_FORMATION_WITH_SPECIFIED_SOURCE ( 'LIBOVOLNÝ', '', #123, .NOT_KNOWN. ) ;
#50 = VECTOR ( 'NONE', #228, 1000.000000000000000 ) ;
#51 = DIRECTION ( 'NONE',  ( 0.000000000000000000, 0.000000000000000000, -1.000000000000000000 ) ) ;
#52 = ORIENTED_EDGE ( 'NONE', *, *, #340, .T. ) ;
#53 = CARTESIAN_POINT ( 'NONE',  ( 0.000000000000000000, 0.000000000000000000, 167.0000000000000000 ) ) ;
#54 = VERTEX_POINT ( 'NONE', #287 ) ;
#55 = CLOSED_SHELL ( 'NONE', ( #264, #252, #300, #163, #226, #350, #112, #311, #360, #323, #281 ) ) ;
#56 = CARTESIAN_POINT ( 'NONE',  ( 6.000000000000000888, 7.347880794884120722E-16, 167.0000000000000000 ) ) ;
#57 = ORIENTED_EDGE ( 'NONE', *, *, #370, .F. ) ;
#58 = ORIENTED_EDGE ( 'NONE', *, *, #245, .T. ) ;
#59 = FACE_BOUND ( 'NONE', #337, .T. ) ;
#60 = DIRECTION ( 'NONE',  ( 0.000000000000000000, 0.000000000000000000, -1.000000000000000000 ) ) ;
#61 = EDGE_CURVE ( 'NONE', #1, #14, #319, .T. ) ;
#62 = TOROIDAL_SURFACE ( 'NONE', #212, 6.500000000000000888, 0.5000000000000000000 ) ;
#63 = APPROVAL_STATUS ( 'not_yet_approved' ) ;
#64 = ORIENTED_EDGE ( 'NONE', *, *, #268, .T. ) ;
#65 = DIRECTION ( 'NONE',  ( 1.224646799147353207E-16, 1.000000000000000000, -0.000000000000000000 ) ) ;
#66 = CC_DESIGN_PERSON_AND_ORGANIZATION_ASSIGNMENT ( #156, #361, ( #240 ) ) ;
#67 = AXIS2_PLACEMENT_3D ( 'NONE', #20, #51, #45 ) ;
#68 = DIRECTION ( 'NONE',  ( -0.000000000000000000, -0.000000000000000000, -1.000000000000000000 ) ) ;
#69 = DIRECTION ( 'NONE',  ( -0.000000000000000000, -0.000000000000000000, -1.000000000000000000 ) ) ;
#70 = APPROVAL_DATE_TIME ( #214, #376 ) ;
#71 = DIRECTION ( 'NONE',  ( -0.000000000000000000, -0.000000000000000000, -1.000000000000000000 ) ) ;
#72 = APPLICATION_PROTOCOL_DEFINITION ( 'international standard', 'config_control_design', 1994, #290 ) ;
#73 = CIRCLE ( 'NONE', #283, 6.500000000000000888 ) ;
#74 = CC_DESIGN_SECURITY_CLASSIFICATION ( #28, ( #49 ) ) ;
#75 = DIRECTION ( 'NONE',  ( 0.000000000000000000, 0.000000000000000000, 1.000000000000000000 ) ) ;
#76 = EDGE_LOOP ( 'NONE', ( #155, #48, #225, #363 ) ) ;
#77 = CARTESIAN_POINT ( 'NONE',  ( 0.000000000000000000, 0.000000000000000000, 0.000000000000000000 ) ) ;
#78 = EDGE_LOOP ( 'NONE', ( #381, #348 ) ) ;
#79 = CC_DESIGN_APPROVAL ( #277, ( #49 ) ) ;
#80 = CYLINDRICAL_SURFACE ( 'NONE', #139, 6.000000000000000888 ) ;
#81 = EDGE_CURVE ( 'NONE', #14, #1, #149, .T. ) ;
#82 = CARTESIAN_POINT ( 'NONE',  ( -6.000000000000000888, 0.000000000000000000, 167.0000000000000000 ) ) ;
#83 = DIRECTION ( 'NONE',  ( 0.000000000000000000, 0.000000000000000000, 1.000000000000000000 ) ) ;
#84 = AXIS2_PLACEMENT_3D ( 'NONE', #7, #296, #120 ) ;
#85 = DIRECTION ( 'NONE',  ( -0.000000000000000000, -0.000000000000000000, -1.000000000000000000 ) ) ;
#86 = EDGE_LOOP ( 'NONE', ( #194, #46, #26, #221 ) ) ;
#87 = FACE_BOUND ( 'NONE', #106, .T. ) ;
#88 = EDGE_LOOP ( 'NONE', ( #347, #275 ) ) ;
#89 =( GEOMETRIC_REPRESENTATION_CONTEXT ( 3 ) GLOBAL_UNCERTAINTY_ASSIGNED_CONTEXT ( ( #22 ) ) GLOBAL_UNIT_ASSIGNED_CONTEXT ( ( #135, #138, #359 ) ) REPRESENTATION_CONTEXT ( 'NONE', 'WORKASPACE' ) );
#90 = EDGE_CURVE ( 'NONE', #267, #235, #255, .T. ) ;
#91 = DIRECTION ( 'NONE',  ( 1.000000000000000000, 0.000000000000000000, 0.000000000000000000 ) ) ;
#92 = CALENDAR_DATE ( 2022, 8, 7 ) ;
#93 = CIRCLE ( 'NONE', #84, 10.00000000000000000 ) ;
#94 = APPROVAL_STATUS ( 'not_yet_approved' ) ;
#95 = CC_DESIGN_PERSON_AND_ORGANIZATION_ASSIGNMENT ( #241, #6, ( #28 ) ) ;
#96 = CYLINDRICAL_SURFACE ( 'NONE', #380, 6.000000000000000888 ) ;
#97 = COORDINATED_UNIVERSAL_TIME_OFFSET ( 1, 0, .AHEAD. ) ;
#98 = AXIS2_PLACEMENT_3D ( 'NONE', #195, #313, #166 ) ;
#99 = FACE_OUTER_BOUND ( 'NONE', #192, .T. ) ;
#100 = AXIS2_PLACEMENT_3D ( 'NONE', #39, #148, #9 ) ;
#101 = ORIENTED_EDGE ( 'NONE', *, *, #245, .F. ) ;
#102 = EDGE_CURVE ( 'NONE', #322, #235, #4, .T. ) ;
#103 = DATE_TIME_ROLE ( 'creation_date' ) ;
#104 = DIRECTION ( 'NONE',  ( -1.000000000000000000, 0.000000000000000000, 0.000000000000000000 ) ) ;
#105 = DIRECTION ( 'NONE',  ( 0.000000000000000000, 0.000000000000000000, 1.000000000000000000 ) ) ;
#106 = EDGE_LOOP ( 'NONE', ( #282, #160 ) ) ;
#107 = CYLINDRICAL_SURFACE ( 'NONE', #315, 2.500000000000000000 ) ;
#108 = VERTEX_POINT ( 'NONE', #42 ) ;
#109 = CARTESIAN_POINT ( 'NONE',  ( 10.00000000000000000, 1.224646799147353256E-15, 0.000000000000000000 ) ) ;
#110 = DIRECTION ( 'NONE',  ( 0.000000000000000000, -1.000000000000000000, 0.000000000000000000 ) ) ;
#111 = DIRECTION ( 'NONE',  ( 0.000000000000000000, 0.000000000000000000, 1.000000000000000000 ) ) ;
#112 = ADVANCED_FACE ( 'NONE', ( #353, #207 ), #116, .F. ) ;
#113 = AXIS2_PLACEMENT_3D ( 'NONE', #250, #40, #329 ) ;
#114 = LINE ( 'NONE', #286, #50 ) ;
#115 = DIRECTION ( 'NONE',  ( 1.000000000000000000, 0.000000000000000000, 0.000000000000000000 ) ) ;
#116 = PLANE ( 'NONE',  #351 ) ;
#117 = LOCAL_TIME ( 17, 13, 20.00000000000000000, #298 ) ;
#118 = DIRECTION ( 'NONE',  ( 0.000000000000000000, 0.000000000000000000, 1.000000000000000000 ) ) ;
#119 = DATE_AND_TIME ( #180, #117 ) ;
#120 = DIRECTION ( 'NONE',  ( 1.000000000000000000, 0.000000000000000000, 0.000000000000000000 ) ) ;
#121 = PERSON_AND_ORGANIZATION ( #369, #185 ) ;
#122 = EDGE_CURVE ( 'NONE', #54, #305, #181, .T. ) ;
#123 = PRODUCT ( '2067', '2067', '', ( #247 ) ) ;
#124 = CARTESIAN_POINT ( 'NONE',  ( -2.500000000000000000, 0.000000000000000000, 167.0000000000000000 ) ) ;
#125 = DATE_AND_TIME ( #303, #357 ) ;
#126 = EDGE_CURVE ( 'NONE', #108, #229, #73, .T. ) ;
#127 = EDGE_LOOP ( 'NONE', ( #57, #19, #279, #263 ) ) ;
#128 = CIRCLE ( 'NONE', #379, 6.000000000000000888 ) ;
#129 = CARTESIAN_POINT ( 'NONE',  ( -6.500000000000000888, 7.960204194457796463E-16, 7.000000000000002665 ) ) ;
#130 = AXIS2_PLACEMENT_3D ( 'NONE', #140, #21, #312 ) ;
#131 = EDGE_LOOP ( 'NONE', ( #58, #254 ) ) ;
#132 = LINE ( 'NONE', #186, #302 ) ;
#133 = ORIENTED_EDGE ( 'NONE', *, *, #345, .T. ) ;
#134 = VECTOR ( 'NONE', #71, 1000.000000000000000 ) ;
#135 =( LENGTH_UNIT ( ) NAMED_UNIT ( * ) SI_UNIT ( .MILLI., .METRE. ) );
#136 = AXIS2_PLACEMENT_3D ( 'NONE', #187, #339, #304 ) ;
#137 = DIRECTION ( 'NONE',  ( -0.000000000000000000, -0.000000000000000000, -1.000000000000000000 ) ) ;
#138 =( NAMED_UNIT ( * ) PLANE_ANGLE_UNIT ( ) SI_UNIT ( $, .RADIAN. ) );
#139 = AXIS2_PLACEMENT_3D ( 'NONE', #280, #13, #104 ) ;
#140 = CARTESIAN_POINT ( 'NONE',  ( 0.000000000000000000, 0.000000000000000000, 167.0000000000000000 ) ) ;
#141 = CARTESIAN_POINT ( 'NONE',  ( -10.00000000000000000, 0.000000000000000000, 0.000000000000000000 ) ) ;
#142 = EDGE_CURVE ( 'NONE', #267, #229, #292, .T. ) ;
#143 = DIRECTION ( 'NONE',  ( -1.000000000000000000, 1.224646799147351482E-16, 0.000000000000000000 ) ) ;
#144 = CARTESIAN_POINT ( 'NONE',  ( 0.000000000000000000, 0.000000000000000000, 7.000000000000000000 ) ) ;
#145 = DIRECTION ( 'NONE',  ( 1.000000000000000000, 0.000000000000000000, 0.000000000000000000 ) ) ;
#146 = EDGE_CURVE ( 'NONE', #235, #267, #128, .T. ) ;
#147 = DATE_AND_TIME ( #355, #190 ) ;
#148 = DIRECTION ( 'NONE',  ( -0.000000000000000000, -0.000000000000000000, -1.000000000000000000 ) ) ;
#149 = CIRCLE ( 'NONE', #362, 10.00000000000000000 ) ;
#150 = APPROVAL_DATE_TIME ( #119, #277 ) ;
#151 = CIRCLE ( 'NONE', #297, 2.500000000000000000 ) ;
#152 = PERSON_AND_ORGANIZATION ( #369, #185 ) ;
#153 = PRODUCT_RELATED_PRODUCT_CATEGORY ( 'detail', '', ( #123 ) ) ;
#154 = CARTESIAN_POINT ( 'NONE',  ( -2.500000000000000000, 0.000000000000000000, 0.000000000000000000 ) ) ;
#155 = ORIENTED_EDGE ( 'NONE', *, *, #142, .F. ) ;
#156 = PERSON_AND_ORGANIZATION ( #369, #185 ) ;
#157 = ORIENTED_EDGE ( 'NONE', *, *, #90, .F. ) ;
#158 = CARTESIAN_POINT ( 'NONE',  ( 0.000000000000000000, 0.000000000000000000, 7.500000000000007105 ) ) ;
#159 = APPROVAL_PERSON_ORGANIZATION ( #36, #376, #184 ) ;
#160 = ORIENTED_EDGE ( 'NONE', *, *, #205, .T. ) ;
#161 = DIRECTION ( 'NONE',  ( 1.000000000000000000, 0.000000000000000000, 0.000000000000000000 ) ) ;
#162 = VERTEX_POINT ( 'NONE', #324 ) ;
#163 = ADVANCED_FACE ( 'NONE', ( #174 ), #325, .T. ) ;
#164 = ORIENTED_EDGE ( 'NONE', *, *, #256, .F. ) ;
#165 = DIRECTION ( 'NONE',  ( 0.000000000000000000, 0.000000000000000000, 1.000000000000000000 ) ) ;
#166 = DIRECTION ( 'NONE',  ( 1.000000000000000000, 0.000000000000000000, 0.000000000000000000 ) ) ;
#167 = LOCAL_TIME ( 17, 13, 20.00000000000000000, #10 ) ;
#168 = FACE_OUTER_BOUND ( 'NONE', #76, .T. ) ;
#169 = DIRECTION ( 'NONE',  ( -0.000000000000000000, -0.000000000000000000, -1.000000000000000000 ) ) ;
#170 = LINE ( 'NONE', #266, #272 ) ;
#171 = AXIS2_PLACEMENT_3D ( 'NONE', #53, #75, #161 ) ;
#172 = PRODUCT_DEFINITION_SHAPE ( 'NONE', 'NONE',  #240 ) ;
#173 = PERSON_AND_ORGANIZATION ( #369, #185 ) ;
#174 = FACE_OUTER_BOUND ( 'NONE', #32, .T. ) ;
#175 = DIRECTION ( 'NONE',  ( 1.000000000000000000, 0.000000000000000000, 0.000000000000000000 ) ) ;
#176 = APPROVAL_PERSON_ORGANIZATION ( #152, #331, #178 ) ;
#177 = CARTESIAN_POINT ( 'NONE',  ( 0.000000000000000000, 0.000000000000000000, 7.000000000000000000 ) ) ;
#178 = APPROVAL_ROLE ( '' ) ;
#179 = FACE_OUTER_BOUND ( 'NONE', #341, .T. ) ;
#180 = CALENDAR_DATE ( 2022, 8, 7 ) ;
#181 = CIRCLE ( 'NONE', #249, 2.500000000000000000 ) ;
#182 = CC_DESIGN_DATE_AND_TIME_ASSIGNMENT ( #147, #103, ( #240 ) ) ;
#183 = DESIGN_CONTEXT ( 'detailed design', #237, 'design' ) ;
#184 = APPROVAL_ROLE ( '' ) ;
#185 = ORGANIZATION ( 'NEURÈENÝ', 'NEURÈENÝ', '' ) ;
#186 = CARTESIAN_POINT ( 'NONE',  ( 2.500000000000000000, 3.061616997868382648E-16, 167.0000000000000000 ) ) ;
#187 = CARTESIAN_POINT ( 'NONE',  ( 0.000000000000000000, 0.000000000000000000, 0.000000000000000000 ) ) ;
#188 = ORIENTED_EDGE ( 'NONE', *, *, #25, .T. ) ;
#189 = CARTESIAN_POINT ( 'NONE',  ( 6.000000000000000888, 7.347880794884120722E-16, 7.500000000000007105 ) ) ;
#190 = LOCAL_TIME ( 17, 13, 20.00000000000000000, #97 ) ;
#191 = FACE_OUTER_BOUND ( 'NONE', #204, .T. ) ;
#192 = EDGE_LOOP ( 'NONE', ( #366, #101, #188, #258 ) ) ;
#193 = DIRECTION ( 'NONE',  ( 0.000000000000000000, 0.000000000000000000, 1.000000000000000000 ) ) ;
#194 = ORIENTED_EDGE ( 'NONE', *, *, #256, .T. ) ;
#195 = CARTESIAN_POINT ( 'NONE',  ( 0.000000000000000000, 0.000000000000000000, 0.000000000000000000 ) ) ;
#196 = CC_DESIGN_PERSON_AND_ORGANIZATION_ASSIGNMENT ( #173, #8, ( #123 ) ) ;
#197 = ORIENTED_EDGE ( 'NONE', *, *, #34, .F. ) ;
#198 = CIRCLE ( 'NONE', #130, 6.000000000000000888 ) ;
#199 = MANIFOLD_SOLID_BREP ( 'Odebrat vysunutím3', #55 ) ;
#200 = DIRECTION ( 'NONE',  ( 0.000000000000000000, 0.000000000000000000, 1.000000000000000000 ) ) ;
#201 = ORIENTED_EDGE ( 'NONE', *, *, #81, .T. ) ;
#202 = PLANE ( 'NONE',  #18 ) ;
#203 = LINE ( 'NONE', #318, #291 ) ;
#204 = EDGE_LOOP ( 'NONE', ( #157, #342, #330, #289 ) ) ;
#205 = EDGE_CURVE ( 'NONE', #229, #108, #209, .T. ) ;
#206 = DIRECTION ( 'NONE',  ( 1.000000000000000000, 0.000000000000000000, 0.000000000000000000 ) ) ;
#207 = FACE_OUTER_BOUND ( 'NONE', #378, .T. ) ;
#208 = CARTESIAN_POINT ( 'NONE',  ( 0.000000000000000000, 0.000000000000000000, 7.500000000000007105 ) ) ;
#209 = CIRCLE ( 'NONE', #262, 6.500000000000000888 ) ;
#210 = LOCAL_TIME ( 17, 13, 20.00000000000000000, #307 ) ;
#211 = APPROVAL_STATUS ( 'not_yet_approved' ) ;
#212 = AXIS2_PLACEMENT_3D ( 'NONE', #320, #165, #284 ) ;
#213 = DIRECTION ( 'NONE',  ( 0.000000000000000000, 0.000000000000000000, 1.000000000000000000 ) ) ;
#214 = DATE_AND_TIME ( #326, #167 ) ;
#215 = EDGE_CURVE ( 'NONE', #309, #162, #93, .T. ) ;
#216 = CARTESIAN_POINT ( 'NONE',  ( 0.000000000000000000, 0.000000000000000000, 167.0000000000000000 ) ) ;
#217 = PERSON_AND_ORGANIZATION ( #369, #185 ) ;
#218 = AXIS2_PLACEMENT_3D ( 'NONE', #158, #193, #365 ) ;
#219 = FACE_OUTER_BOUND ( 'NONE', #86, .T. ) ;
#220 = ORIENTED_EDGE ( 'NONE', *, *, #2, .F. ) ;
#221 = ORIENTED_EDGE ( 'NONE', *, *, #345, .F. ) ;
#222 = CIRCLE ( 'NONE', #230, 0.5000000000000004441 ) ;
#223 = CIRCLE ( 'NONE', #332, 2.500000000000000000 ) ;
#224 = DIRECTION ( 'NONE',  ( 1.000000000000000000, 0.000000000000000000, 0.000000000000000000 ) ) ;
#225 = ORIENTED_EDGE ( 'NONE', *, *, #11, .T. ) ;
#226 = ADVANCED_FACE ( 'NONE', ( #179 ), #299, .T. ) ;
#227 = SHAPE_DEFINITION_REPRESENTATION ( #172, #306 ) ;
#228 = DIRECTION ( 'NONE',  ( -0.000000000000000000, -0.000000000000000000, -1.000000000000000000 ) ) ;
#229 = VERTEX_POINT ( 'NONE', #129 ) ;
#230 = AXIS2_PLACEMENT_3D ( 'NONE', #30, #110, #60 ) ;
#231 = ORIENTED_EDGE ( 'NONE', *, *, #81, .F. ) ;
#232 = CC_DESIGN_APPROVAL ( #331, ( #240 ) ) ;
#233 = PLANE ( 'NONE',  #257 ) ;
#234 = EDGE_CURVE ( 'NONE', #54, #368, #132, .T. ) ;
#235 = VERTEX_POINT ( 'NONE', #189 ) ;
#236 = DIRECTION ( 'NONE',  ( 1.000000000000000000, 0.000000000000000000, -0.000000000000000000 ) ) ;
#237 = APPLICATION_CONTEXT ( 'configuration controlled 3d designs of mechanical parts and assemblies' ) ;
#238 = CC_DESIGN_APPROVAL ( #376, ( #28 ) ) ;
#239 = CARTESIAN_POINT ( 'NONE',  ( 6.000000000000000888, 7.347880794884120722E-16, 167.0000000000000000 ) ) ;
#240 = PRODUCT_DEFINITION ( 'NEZNÁMÝ', '', #49, #183 ) ;
#241 = PERSON_AND_ORGANIZATION ( #369, #185 ) ;
#242 = CARTESIAN_POINT ( 'NONE',  ( 0.000000000000000000, 0.000000000000000000, 0.000000000000000000 ) ) ;
#243 = DATE_AND_TIME ( #92, #210 ) ;
#244 = DIRECTION ( 'NONE',  ( 0.000000000000000000, 0.000000000000000000, 1.000000000000000000 ) ) ;
#245 = EDGE_CURVE ( 'NONE', #23, #322, #321, .T. ) ;
#246 = CARTESIAN_POINT ( 'NONE',  ( -10.00000000000000000, 0.000000000000000000, 7.000000000000000000 ) ) ;
#247 = MECHANICAL_CONTEXT ( 'NONE', #290, 'mechanical' ) ;
#248 = CARTESIAN_POINT ( 'NONE',  ( 0.000000000000000000, 0.000000000000000000, 167.0000000000000000 ) ) ;
#249 = AXIS2_PLACEMENT_3D ( 'NONE', #35, #118, #354 ) ;
#250 = CARTESIAN_POINT ( 'NONE',  ( 0.000000000000000000, 0.000000000000000000, 0.000000000000000000 ) ) ;
#251 = AXIS2_PLACEMENT_3D ( 'NONE', #37, #65, #143 ) ;
#252 = ADVANCED_FACE ( 'NONE', ( #191 ), #338, .F. ) ;
#253 = CYLINDRICAL_SURFACE ( 'NONE', #67, 2.500000000000000000 ) ;
#254 = ORIENTED_EDGE ( 'NONE', *, *, #370, .T. ) ;
#255 = CIRCLE ( 'NONE', #301, 6.000000000000000888 ) ;
#256 = EDGE_CURVE ( 'NONE', #305, #54, #223, .T. ) ;
#257 = AXIS2_PLACEMENT_3D ( 'NONE', #346, #200, #27 ) ;
#258 = ORIENTED_EDGE ( 'NONE', *, *, #90, .T. ) ;
#259 = DIRECTION ( 'NONE',  ( -1.000000000000000000, 0.000000000000000000, 0.000000000000000000 ) ) ;
#260 = ORIENTED_EDGE ( 'NONE', *, *, #340, .F. ) ;
#261 = CARTESIAN_POINT ( 'NONE',  ( -2.500000000000000000, 0.000000000000000000, 167.0000000000000000 ) ) ;
#262 = AXIS2_PLACEMENT_3D ( 'NONE', #177, #69, #145 ) ;
#263 = ORIENTED_EDGE ( 'NONE', *, *, #25, .F. ) ;
#264 = ADVANCED_FACE ( 'NONE', ( #219 ), #253, .F. ) ;
#265 = FACE_OUTER_BOUND ( 'NONE', #131, .T. ) ;
#266 = CARTESIAN_POINT ( 'NONE',  ( -6.000000000000000888, 0.000000000000000000, 167.0000000000000000 ) ) ;
#267 = VERTEX_POINT ( 'NONE', #310 ) ;
#268 = EDGE_CURVE ( 'NONE', #294, #368, #373, .T. ) ;
#269 = CARTESIAN_POINT ( 'NONE',  ( 0.000000000000000000, 0.000000000000000000, 7.000000000000000000 ) ) ;
#270 = PERSON_AND_ORGANIZATION ( #369, #185 ) ;
#271 = SECURITY_CLASSIFICATION_LEVEL ( 'unclassified' ) ;
#272 = VECTOR ( 'NONE', #169, 1000.000000000000000 ) ;
#273 = APPROVAL_DATE_TIME ( #125, #331 ) ;
#274 = FACE_OUTER_BOUND ( 'NONE', #127, .T. ) ;
#275 = ORIENTED_EDGE ( 'NONE', *, *, #34, .T. ) ;
#276 = CARTESIAN_POINT ( 'NONE',  ( 0.000000000000000000, 0.000000000000000000, 167.0000000000000000 ) ) ;
#277 = APPROVAL ( #63, 'NEURÈENÝ' ) ;
#278 = ORIENTED_EDGE ( 'NONE', *, *, #215, .F. ) ;
#279 = ORIENTED_EDGE ( 'NONE', *, *, #146, .T. ) ;
#280 = CARTESIAN_POINT ( 'NONE',  ( 0.000000000000000000, 0.000000000000000000, 167.0000000000000000 ) ) ;
#281 = ADVANCED_FACE ( 'NONE', ( #371 ), #107, .F. ) ;
#282 = ORIENTED_EDGE ( 'NONE', *, *, #126, .T. ) ;
#283 = AXIS2_PLACEMENT_3D ( 'NONE', #144, #352, #91 ) ;
#284 = DIRECTION ( 'NONE',  ( 1.000000000000000000, 0.000000000000000000, 0.000000000000000000 ) ) ;
#285 = CARTESIAN_POINT ( 'NONE',  ( 0.000000000000000000, 0.000000000000000000, 0.000000000000000000 ) ) ;
#286 = CARTESIAN_POINT ( 'NONE',  ( -10.00000000000000000, 0.000000000000000000, 7.000000000000000000 ) ) ;
#287 = CARTESIAN_POINT ( 'NONE',  ( 2.500000000000000000, 3.061616997868382648E-16, 167.0000000000000000 ) ) ;
#288 = LINE ( 'NONE', #261, #43 ) ;
#289 = ORIENTED_EDGE ( 'NONE', *, *, #11, .F. ) ;
#290 = APPLICATION_CONTEXT ( 'configuration controlled 3d designs of mechanical parts and assemblies' ) ;
#291 = VECTOR ( 'NONE', #137, 1000.000000000000000 ) ;
#292 = CIRCLE ( 'NONE', #251, 0.5000000000000004441 ) ;
#293 = DIRECTION ( 'NONE',  ( 0.000000000000000000, 0.000000000000000000, 1.000000000000000000 ) ) ;
#294 = VERTEX_POINT ( 'NONE', #154 ) ;
#295 = EDGE_CURVE ( 'NONE', #368, #294, #151, .T. ) ;
#296 = DIRECTION ( 'NONE',  ( 0.000000000000000000, 0.000000000000000000, 1.000000000000000000 ) ) ;
#297 = AXIS2_PLACEMENT_3D ( 'NONE', #77, #16, #308 ) ;
#298 = COORDINATED_UNIVERSAL_TIME_OFFSET ( 1, 0, .AHEAD. ) ;
#299 = CYLINDRICAL_SURFACE ( 'NONE', #100, 10.00000000000000000 ) ;
#300 = ADVANCED_FACE ( 'NONE', ( #274 ), #80, .T. ) ;
#301 = AXIS2_PLACEMENT_3D ( 'NONE', #3, #244, #175 ) ;
#302 = VECTOR ( 'NONE', #334, 1000.000000000000000 ) ;
#303 = CALENDAR_DATE ( 2022, 8, 7 ) ;
#304 = DIRECTION ( 'NONE',  ( 1.000000000000000000, 0.000000000000000000, 0.000000000000000000 ) ) ;
#305 = VERTEX_POINT ( 'NONE', #124 ) ;
#306 = ADVANCED_BREP_SHAPE_REPRESENTATION ( '2067', ( #199, #113 ), #89 ) ;
#307 = COORDINATED_UNIVERSAL_TIME_OFFSET ( 1, 0, .AHEAD. ) ;
#308 = DIRECTION ( 'NONE',  ( 1.000000000000000000, 0.000000000000000000, 0.000000000000000000 ) ) ;
#309 = VERTEX_POINT ( 'NONE', #246 ) ;
#310 = CARTESIAN_POINT ( 'NONE',  ( -6.000000000000000888, 0.000000000000000000, 7.500000000000007105 ) ) ;
#311 = ADVANCED_FACE ( 'NONE', ( #99 ), #96, .T. ) ;
#312 = DIRECTION ( 'NONE',  ( 1.000000000000000000, 0.000000000000000000, 0.000000000000000000 ) ) ;
#313 = DIRECTION ( 'NONE',  ( 0.000000000000000000, 0.000000000000000000, 1.000000000000000000 ) ) ;
#314 = AXIS2_PLACEMENT_3D ( 'NONE', #344, #83, #115 ) ;
#315 = AXIS2_PLACEMENT_3D ( 'NONE', #248, #336, #367 ) ;
#316 = EDGE_LOOP ( 'NONE', ( #372, #374, #133, #64 ) ) ;
#317 = DIRECTION ( 'NONE',  ( 1.000000000000000000, 0.000000000000000000, -0.000000000000000000 ) ) ;
#318 = CARTESIAN_POINT ( 'NONE',  ( 10.00000000000000000, 1.224646799147353256E-15, 7.000000000000000000 ) ) ;
#319 = CIRCLE ( 'NONE', #98, 10.00000000000000000 ) ;
#320 = CARTESIAN_POINT ( 'NONE',  ( 0.000000000000000000, 0.000000000000000000, 7.500000000000007105 ) ) ;
#321 = CIRCLE ( 'NONE', #171, 6.000000000000000888 ) ;
#322 = VERTEX_POINT ( 'NONE', #56 ) ;
#323 = ADVANCED_FACE ( 'NONE', ( #168 ), #62, .F. ) ;
#324 = CARTESIAN_POINT ( 'NONE',  ( 10.00000000000000000, 1.224646799147353256E-15, 7.000000000000000000 ) ) ;
#325 = CYLINDRICAL_SURFACE ( 'NONE', #47, 10.00000000000000000 ) ;
#326 = CALENDAR_DATE ( 2022, 8, 7 ) ;
#327 = CC_DESIGN_PERSON_AND_ORGANIZATION_ASSIGNMENT ( #121, #38, ( #49 ) ) ;
#328 = DIRECTION ( 'NONE',  ( 0.000000000000000000, 0.000000000000000000, 1.000000000000000000 ) ) ;
#329 = DIRECTION ( 'NONE',  ( 1.000000000000000000, 0.000000000000000000, 0.000000000000000000 ) ) ;
#330 = ORIENTED_EDGE ( 'NONE', *, *, #126, .F. ) ;
#331 = APPROVAL ( #94, 'NEURÈENÝ' ) ;
#332 = AXIS2_PLACEMENT_3D ( 'NONE', #276, #105, #224 ) ;
#333 = PERSON_AND_ORGANIZATION_ROLE ( 'creator' ) ;
#334 = DIRECTION ( 'NONE',  ( 0.000000000000000000, 0.000000000000000000, -1.000000000000000000 ) ) ;
#335 = ORIENTED_EDGE ( 'NONE', *, *, #61, .T. ) ;
#336 = DIRECTION ( 'NONE',  ( 0.000000000000000000, 0.000000000000000000, -1.000000000000000000 ) ) ;
#337 = EDGE_LOOP ( 'NONE', ( #164, #17 ) ) ;
#338 = TOROIDAL_SURFACE ( 'NONE', #218, 6.500000000000000888, 0.5000000000000000000 ) ;
#339 = DIRECTION ( 'NONE',  ( -0.000000000000000000, -0.000000000000000000, -1.000000000000000000 ) ) ;
#340 = EDGE_CURVE ( 'NONE', #309, #14, #114, .T. ) ;
#341 = EDGE_LOOP ( 'NONE', ( #220, #278, #52, #201 ) ) ;
#342 = ORIENTED_EDGE ( 'NONE', *, *, #142, .T. ) ;
#343 = DIRECTION ( 'NONE',  ( 0.000000000000000000, 0.000000000000000000, -1.000000000000000000 ) ) ;
#344 = CARTESIAN_POINT ( 'NONE',  ( 0.000000000000000000, 0.000000000000000000, 7.000000000000000000 ) ) ;
#345 = EDGE_CURVE ( 'NONE', #305, #294, #288, .T. ) ;
#346 = CARTESIAN_POINT ( 'NONE',  ( 0.000000000000000000, 0.000000000000000000, 7.000000000000000000 ) ) ;
#347 = ORIENTED_EDGE ( 'NONE', *, *, #215, .T. ) ;
#348 = ORIENTED_EDGE ( 'NONE', *, *, #295, .F. ) ;
#349 = CARTESIAN_POINT ( 'NONE',  ( 0.000000000000000000, 0.000000000000000000, 167.0000000000000000 ) ) ;
#350 = ADVANCED_FACE ( 'NONE', ( #87, #377 ), #233, .T. ) ;
#351 = AXIS2_PLACEMENT_3D ( 'NONE', #242, #213, #236 ) ;
#352 = DIRECTION ( 'NONE',  ( -0.000000000000000000, -0.000000000000000000, -1.000000000000000000 ) ) ;
#353 = FACE_BOUND ( 'NONE', #78, .T. ) ;
#354 = DIRECTION ( 'NONE',  ( 1.000000000000000000, 0.000000000000000000, 0.000000000000000000 ) ) ;
#355 = CALENDAR_DATE ( 2022, 8, 7 ) ;
#356 = CC_DESIGN_PERSON_AND_ORGANIZATION_ASSIGNMENT ( #270, #333, ( #49 ) ) ;
#357 = LOCAL_TIME ( 17, 13, 20.00000000000000000, #364 ) ;
#358 = DATE_TIME_ROLE ( 'classification_date' ) ;
#359 =( NAMED_UNIT ( * ) SI_UNIT ( $, .STERADIAN. ) SOLID_ANGLE_UNIT ( ) );
#360 = ADVANCED_FACE ( 'NONE', ( #59, #265 ), #202, .T. ) ;
#361 = PERSON_AND_ORGANIZATION_ROLE ( 'creator' ) ;
#362 = AXIS2_PLACEMENT_3D ( 'NONE', #285, #111, #33 ) ;
#363 = ORIENTED_EDGE ( 'NONE', *, *, #205, .F. ) ;
#364 = COORDINATED_UNIVERSAL_TIME_OFFSET ( 1, 0, .AHEAD. ) ;
#365 = DIRECTION ( 'NONE',  ( 1.000000000000000000, 0.000000000000000000, 0.000000000000000000 ) ) ;
#366 = ORIENTED_EDGE ( 'NONE', *, *, #102, .F. ) ;
#367 = DIRECTION ( 'NONE',  ( -1.000000000000000000, 0.000000000000000000, 0.000000000000000000 ) ) ;
#368 = VERTEX_POINT ( 'NONE', #29 ) ;
#369 = PERSON ( 'NEURÈENÝ', 'NEURÈENÝ', 'NEURÈENÝ', ('NEURÈENÝ'), ('NEURÈENÝ'), ('NEURÈENÝ') ) ;
#370 = EDGE_CURVE ( 'NONE', #322, #23, #198, .T. ) ;
#371 = FACE_OUTER_BOUND ( 'NONE', #316, .T. ) ;
#372 = ORIENTED_EDGE ( 'NONE', *, *, #234, .F. ) ;
#373 = CIRCLE ( 'NONE', #136, 2.500000000000000000 ) ;
#374 = ORIENTED_EDGE ( 'NONE', *, *, #122, .T. ) ;
#375 = ORIENTED_EDGE ( 'NONE', *, *, #61, .F. ) ;
#376 = APPROVAL ( #211, 'NEURÈENÝ' ) ;
#377 = FACE_OUTER_BOUND ( 'NONE', #88, .T. ) ;
#378 = EDGE_LOOP ( 'NONE', ( #231, #375 ) ) ;
#379 = AXIS2_PLACEMENT_3D ( 'NONE', #208, #328, #206 ) ;
#380 = AXIS2_PLACEMENT_3D ( 'NONE', #216, #85, #259 ) ;
#381 = ORIENTED_EDGE ( 'NONE', *, *, #268, .F. ) ;
ENDSEC;
END-ISO-10303-21;
