ISO-10303-21;
HEADER;
FILE_DESCRIPTION (( 'STEP AP203' ),
    '1' );
FILE_NAME ('791f.STEP',
    '2022-07-08T15:21:50',
    ( '' ),
    ( '' ),
    'SwSTEP 2.0',
    'SolidWorks 2019',
    '' );
FILE_SCHEMA (( 'CONFIG_CONTROL_DESIGN' ));
ENDSEC;

DATA;
#1 = EDGE_CURVE ( 'NONE', #295, #213, #195, .T. ) ;
#2 = EDGE_LOOP ( 'NONE', ( #126, #291 ) ) ;
#3 = CIRCLE ( 'NONE', #135, 7.000000000000000000 ) ;
#4 = MECHANICAL_CONTEXT ( 'NONE', #14, 'mechanical' ) ;
#5 = CARTESIAN_POINT ( 'NONE',  ( 0.000000000000000000, 0.000000000000000000, 5.000000000000000000 ) ) ;
#6 = DIRECTION ( 'NONE',  ( 1.000000000000000000, 0.000000000000000000, -0.000000000000000000 ) ) ;
#7 = DIRECTION ( 'NONE',  ( 1.000000000000000000, 0.000000000000000000, 0.000000000000000000 ) ) ;
#8 = CARTESIAN_POINT ( 'NONE',  ( 0.000000000000000000, 0.000000000000000000, 0.000000000000000000 ) ) ;
#9 = VERTEX_POINT ( 'NONE', #247 ) ;
#10 = CC_DESIGN_PERSON_AND_ORGANIZATION_ASSIGNMENT ( #280, #16, ( #70 ) ) ;
#11 = PERSON_AND_ORGANIZATION_ROLE ( 'creator' ) ;
#12 = AXIS2_PLACEMENT_3D ( 'NONE', #284, #255, #50 ) ;
#13 = DIRECTION ( 'NONE',  ( -0.000000000000000000, -0.000000000000000000, -1.000000000000000000 ) ) ;
#14 = APPLICATION_CONTEXT ( 'configuration controlled 3d designs of mechanical parts and assemblies' ) ;
#15 = DIRECTION ( 'NONE',  ( 1.000000000000000000, 0.000000000000000000, -0.000000000000000000 ) ) ;
#16 = PERSON_AND_ORGANIZATION_ROLE ( 'classification_officer' ) ;
#17 = EDGE_CURVE ( 'NONE', #320, #355, #240, .T. ) ;
#18 = CARTESIAN_POINT ( 'NONE',  ( 0.000000000000000000, 0.000000000000000000, 805.0000000000000000 ) ) ;
#19 = CIRCLE ( 'NONE', #36, 4.000000000000000000 ) ;
#20 = ORGANIZATION ( 'NEURÈENÝ', 'NEURÈENÝ', '' ) ;
#21 = AXIS2_PLACEMENT_3D ( 'NONE', #5, #193, #273 ) ;
#22 = CARTESIAN_POINT ( 'NONE',  ( -4.500000000000000888, 5.510910596163089556E-16, 5.499999999999949374 ) ) ;
#23 = LOCAL_TIME ( 17, 21, 50.00000000000000000, #110 ) ;
#24 = DIRECTION ( 'NONE',  ( 0.000000000000000000, 0.000000000000000000, 1.000000000000000000 ) ) ;
#25 = CARTESIAN_POINT ( 'NONE',  ( -4.000000000000000000, 0.000000000000000000, 805.0000000000000000 ) ) ;
#26 = APPROVAL ( #67, 'NEURÈENÝ' ) ;
#27 = AXIS2_PLACEMENT_3D ( 'NONE', #306, #107, #15 ) ;
#28 = DIRECTION ( 'NONE',  ( 0.000000000000000000, 0.000000000000000000, 1.000000000000000000 ) ) ;
#29 = ORIENTED_EDGE ( 'NONE', *, *, #248, .T. ) ;
#30 = DIRECTION ( 'NONE',  ( -1.000000000000000000, 0.000000000000000000, 0.000000000000000000 ) ) ;
#31 = VERTEX_POINT ( 'NONE', #299 ) ;
#32 = APPROVAL_ROLE ( '' ) ;
#33 = FACE_BOUND ( 'NONE', #155, .T. ) ;
#34 = ORIENTED_EDGE ( 'NONE', *, *, #325, .T. ) ;
#35 = PERSON_AND_ORGANIZATION ( #340, #20 ) ;
#36 = AXIS2_PLACEMENT_3D ( 'NONE', #246, #192, #137 ) ;
#37 = ORIENTED_EDGE ( 'NONE', *, *, #211, .F. ) ;
#38 = CIRCLE ( 'NONE', #166, 4.000000000000000000 ) ;
#39 = LINE ( 'NONE', #132, #249 ) ;
#40 = PRODUCT ( '791f', '791f', '', ( #4 ) ) ;
#41 = FACE_OUTER_BOUND ( 'NONE', #215, .T. ) ;
#42 = EDGE_CURVE ( 'NONE', #9, #372, #165, .T. ) ;
#43 = EDGE_LOOP ( 'NONE', ( #125, #343, #241, #184 ) ) ;
#44 = CALENDAR_DATE ( 2022, 8, 7 ) ;
#45 = DIRECTION ( 'NONE',  ( 0.000000000000000000, 0.000000000000000000, 1.000000000000000000 ) ) ;
#46 = COORDINATED_UNIVERSAL_TIME_OFFSET ( 1, 0, .AHEAD. ) ;
#47 = AXIS2_PLACEMENT_3D ( 'NONE', #52, #175, #117 ) ;
#48 = CARTESIAN_POINT ( 'NONE',  ( 7.000000000000000000, 8.572527594031473190E-16, 5.000000000000000000 ) ) ;
#49 = EDGE_CURVE ( 'NONE', #31, #372, #254, .T. ) ;
#50 = DIRECTION ( 'NONE',  ( 1.000000000000000000, 0.000000000000000000, 0.000000000000000000 ) ) ;
#51 = DATE_AND_TIME ( #81, #377 ) ;
#52 = CARTESIAN_POINT ( 'NONE',  ( 0.000000000000000000, 0.000000000000000000, 5.000000000000000000 ) ) ;
#53 = DIRECTION ( 'NONE',  ( 0.000000000000000000, 0.000000000000000000, 1.000000000000000000 ) ) ;
#54 = APPROVAL_PERSON_ORGANIZATION ( #250, #26, #191 ) ;
#55 = CC_DESIGN_DATE_AND_TIME_ASSIGNMENT ( #259, #341, ( #70 ) ) ;
#56 = CARTESIAN_POINT ( 'NONE',  ( 0.000000000000000000, 0.000000000000000000, 5.000000000000000000 ) ) ;
#57 = UNCERTAINTY_MEASURE_WITH_UNIT (LENGTH_MEASURE( 1.000000000000000082E-05 ), #187, 'distance_accuracy_value', 'NONE');
#58 = EDGE_LOOP ( 'NONE', ( #62, #324, #238, #98 ) ) ;
#59 = FACE_OUTER_BOUND ( 'NONE', #123, .T. ) ;
#60 = ORIENTED_EDGE ( 'NONE', *, *, #49, .F. ) ;
#61 = PLANE ( 'NONE',  #120 ) ;
#62 = ORIENTED_EDGE ( 'NONE', *, *, #310, .F. ) ;
#63 = CIRCLE ( 'NONE', #12, 7.000000000000000000 ) ;
#64 = PLANE ( 'NONE',  #114 ) ;
#65 = ORIENTED_EDGE ( 'NONE', *, *, #77, .T. ) ;
#66 = ORIENTED_EDGE ( 'NONE', *, *, #305, .T. ) ;
#67 = APPROVAL_STATUS ( 'not_yet_approved' ) ;
#68 = AXIS2_PLACEMENT_3D ( 'NONE', #361, #76, #196 ) ;
#69 = FACE_BOUND ( 'NONE', #118, .T. ) ;
#70 = SECURITY_CLASSIFICATION ( '', '', #334 ) ;
#71 = DIRECTION ( 'NONE',  ( 1.000000000000000000, 0.000000000000000000, 0.000000000000000000 ) ) ;
#72 = EDGE_CURVE ( 'NONE', #318, #208, #19, .T. ) ;
#73 = VERTEX_POINT ( 'NONE', #104 ) ;
#74 = VERTEX_POINT ( 'NONE', #275 ) ;
#75 = CIRCLE ( 'NONE', #176, 2.250000000000000000 ) ;
#76 = DIRECTION ( 'NONE',  ( 0.000000000000000000, -1.000000000000000000, 0.000000000000000000 ) ) ;
#77 = EDGE_CURVE ( 'NONE', #236, #73, #75, .T. ) ;
#78 = VECTOR ( 'NONE', #317, 1000.000000000000000 ) ;
#79 = ORIENTED_EDGE ( 'NONE', *, *, #72, .F. ) ;
#80 = DIRECTION ( 'NONE',  ( 0.000000000000000000, 0.000000000000000000, 1.000000000000000000 ) ) ;
#81 = CALENDAR_DATE ( 2022, 8, 7 ) ;
#82 = DATE_AND_TIME ( #44, #336 ) ;
#83 = EDGE_CURVE ( 'NONE', #333, #213, #312, .T. ) ;
#84 = FACE_OUTER_BOUND ( 'NONE', #58, .T. ) ;
#85 = DESIGN_CONTEXT ( 'detailed design', #369, 'design' ) ;
#86 = EDGE_CURVE ( 'NONE', #333, #74, #172, .T. ) ;
#87 = PERSON_AND_ORGANIZATION ( #340, #20 ) ;
#88 = DIRECTION ( 'NONE',  ( -0.000000000000000000, -0.000000000000000000, -1.000000000000000000 ) ) ;
#89 = CIRCLE ( 'NONE', #47, 7.000000000000000000 ) ;
#90 = CARTESIAN_POINT ( 'NONE',  ( 0.000000000000000000, 0.000000000000000000, 5.499999999999949374 ) ) ;
#91 = ORIENTED_EDGE ( 'NONE', *, *, #1, .F. ) ;
#92 = DIRECTION ( 'NONE',  ( -0.000000000000000000, -0.000000000000000000, -1.000000000000000000 ) ) ;
#93 = ORIENTED_EDGE ( 'NONE', *, *, #325, .F. ) ;
#94 =( NAMED_UNIT ( * ) PLANE_ANGLE_UNIT ( ) SI_UNIT ( $, .RADIAN. ) );
#95 = EDGE_CURVE ( 'NONE', #73, #236, #103, .T. ) ;
#96 = ORIENTED_EDGE ( 'NONE', *, *, #346, .F. ) ;
#97 = LOCAL_TIME ( 17, 21, 50.00000000000000000, #296 ) ;
#98 = ORIENTED_EDGE ( 'NONE', *, *, #113, .F. ) ;
#99 = APPLICATION_PROTOCOL_DEFINITION ( 'international standard', 'config_control_design', 1994, #369 ) ;
#100 = CARTESIAN_POINT ( 'NONE',  ( 0.000000000000000000, 0.000000000000000000, 0.000000000000000000 ) ) ;
#101 = ADVANCED_FACE ( 'NONE', ( #69, #297 ), #329, .T. ) ;
#102 = DIRECTION ( 'NONE',  ( -0.000000000000000000, -0.000000000000000000, -1.000000000000000000 ) ) ;
#103 = CIRCLE ( 'NONE', #307, 2.250000000000000000 ) ;
#104 = CARTESIAN_POINT ( 'NONE',  ( -2.250000000000000000, 0.000000000000000000, 0.000000000000000000 ) ) ;
#105 = APPROVAL_DATE_TIME ( #356, #26 ) ;
#106 = DIRECTION ( 'NONE',  ( -0.000000000000000000, -0.000000000000000000, -1.000000000000000000 ) ) ;
#107 = DIRECTION ( 'NONE',  ( 0.000000000000000000, 0.000000000000000000, 1.000000000000000000 ) ) ;
#108 = AXIS2_PLACEMENT_3D ( 'NONE', #109, #45, #159 ) ;
#109 = CARTESIAN_POINT ( 'NONE',  ( 0.000000000000000000, 0.000000000000000000, 805.0000000000000000 ) ) ;
#110 = COORDINATED_UNIVERSAL_TIME_OFFSET ( 1, 0, .AHEAD. ) ;
#111 = DIRECTION ( 'NONE',  ( 0.000000000000000000, 0.000000000000000000, 1.000000000000000000 ) ) ;
#112 = PERSON_AND_ORGANIZATION ( #340, #20 ) ;
#113 = EDGE_CURVE ( 'NONE', #318, #74, #39, .T. ) ;
#114 = AXIS2_PLACEMENT_3D ( 'NONE', #274, #380, #6 ) ;
#115 = DIRECTION ( 'NONE',  ( 1.224646799147353207E-16, 1.000000000000000000, -0.000000000000000000 ) ) ;
#116 = PRODUCT_DEFINITION ( 'NEZNÁMÝ', '', #368, #85 ) ;
#117 = DIRECTION ( 'NONE',  ( 1.000000000000000000, 0.000000000000000000, 0.000000000000000000 ) ) ;
#118 = EDGE_LOOP ( 'NONE', ( #251, #349 ) ) ;
#119 = CYLINDRICAL_SURFACE ( 'NONE', #145, 7.000000000000000000 ) ;
#120 = AXIS2_PLACEMENT_3D ( 'NONE', #216, #161, #292 ) ;
#121 = ORIENTED_EDGE ( 'NONE', *, *, #95, .F. ) ;
#122 = FACE_OUTER_BOUND ( 'NONE', #266, .T. ) ;
#123 = EDGE_LOOP ( 'NONE', ( #279, #376, #348, #91 ) ) ;
#124 = DIRECTION ( 'NONE',  ( 0.000000000000000000, 0.000000000000000000, -1.000000000000000000 ) ) ;
#125 = ORIENTED_EDGE ( 'NONE', *, *, #143, .F. ) ;
#126 = ORIENTED_EDGE ( 'NONE', *, *, #72, .T. ) ;
#127 =( GEOMETRIC_REPRESENTATION_CONTEXT ( 3 ) GLOBAL_UNCERTAINTY_ASSIGNED_CONTEXT ( ( #57 ) ) GLOBAL_UNIT_ASSIGNED_CONTEXT ( ( #187, #94, #131 ) ) REPRESENTATION_CONTEXT ( 'NONE', 'WORKASPACE' ) );
#128 = APPLICATION_PROTOCOL_DEFINITION ( 'international standard', 'config_control_design', 1994, #14 ) ;
#129 = CC_DESIGN_PERSON_AND_ORGANIZATION_ASSIGNMENT ( #136, #167, ( #368 ) ) ;
#130 = CARTESIAN_POINT ( 'NONE',  ( 0.000000000000000000, 0.000000000000000000, 0.000000000000000000 ) ) ;
#131 =( NAMED_UNIT ( * ) SI_UNIT ( $, .STERADIAN. ) SOLID_ANGLE_UNIT ( ) );
#132 = CARTESIAN_POINT ( 'NONE',  ( -4.000000000000000000, 0.000000000000000000, 805.0000000000000000 ) ) ;
#133 = DIRECTION ( 'NONE',  ( 0.000000000000000000, 0.000000000000000000, 1.000000000000000000 ) ) ;
#134 = CYLINDRICAL_SURFACE ( 'NONE', #314, 4.000000000000000000 ) ;
#135 = AXIS2_PLACEMENT_3D ( 'NONE', #56, #181, #149 ) ;
#136 = PERSON_AND_ORGANIZATION ( #340, #20 ) ;
#137 = DIRECTION ( 'NONE',  ( 1.000000000000000000, 0.000000000000000000, 0.000000000000000000 ) ) ;
#138 = ADVANCED_FACE ( 'NONE', ( #277 ), #134, .T. ) ;
#139 = ORIENTED_EDGE ( 'NONE', *, *, #346, .T. ) ;
#140 = AXIS2_PLACEMENT_3D ( 'NONE', #130, #224, #157 ) ;
#141 = DIRECTION ( 'NONE',  ( -1.000000000000000000, 0.000000000000000000, 0.000000000000000000 ) ) ;
#142 = AXIS2_PLACEMENT_3D ( 'NONE', #242, #124, #30 ) ;
#143 = EDGE_CURVE ( 'NONE', #150, #31, #303, .T. ) ;
#144 = FACE_OUTER_BOUND ( 'NONE', #43, .T. ) ;
#145 = AXIS2_PLACEMENT_3D ( 'NONE', #258, #88, #265 ) ;
#146 = DIRECTION ( 'NONE',  ( 1.000000000000000000, 0.000000000000000000, 0.000000000000000000 ) ) ;
#147 = LINE ( 'NONE', #370, #293 ) ;
#148 = ORIENTED_EDGE ( 'NONE', *, *, #49, .T. ) ;
#149 = DIRECTION ( 'NONE',  ( 1.000000000000000000, 0.000000000000000000, 0.000000000000000000 ) ) ;
#150 = VERTEX_POINT ( 'NONE', #347 ) ;
#151 = ADVANCED_FACE ( 'NONE', ( #281 ), #339, .F. ) ;
#152 = CARTESIAN_POINT ( 'NONE',  ( -2.250000000000000000, 0.000000000000000000, 805.0000000000000000 ) ) ;
#153 = ORIENTED_EDGE ( 'NONE', *, *, #200, .T. ) ;
#154 = COORDINATED_UNIVERSAL_TIME_OFFSET ( 1, 0, .AHEAD. ) ;
#155 = EDGE_LOOP ( 'NONE', ( #139, #186 ) ) ;
#156 = CC_DESIGN_PERSON_AND_ORGANIZATION_ASSIGNMENT ( #164, #11, ( #368 ) ) ;
#157 = DIRECTION ( 'NONE',  ( 1.000000000000000000, 0.000000000000000000, 0.000000000000000000 ) ) ;
#158 = AXIS2_PLACEMENT_3D ( 'NONE', #319, #102, #267 ) ;
#159 = DIRECTION ( 'NONE',  ( 1.000000000000000000, 0.000000000000000000, 0.000000000000000000 ) ) ;
#160 = ADVANCED_BREP_SHAPE_REPRESENTATION ( '791f', ( #331, #185 ), #127 ) ;
#161 = DIRECTION ( 'NONE',  ( 0.000000000000000000, 0.000000000000000000, 1.000000000000000000 ) ) ;
#162 = DIRECTION ( 'NONE',  ( 1.000000000000000000, 0.000000000000000000, 0.000000000000000000 ) ) ;
#163 = APPROVAL_DATE_TIME ( #51, #365 ) ;
#164 = PERSON_AND_ORGANIZATION ( #340, #20 ) ;
#165 = LINE ( 'NONE', #362, #311 ) ;
#166 = AXIS2_PLACEMENT_3D ( 'NONE', #287, #24, #146 ) ;
#167 = PERSON_AND_ORGANIZATION_ROLE ( 'design_supplier' ) ;
#168 = DIRECTION ( 'NONE',  ( -0.000000000000000000, -0.000000000000000000, -1.000000000000000000 ) ) ;
#169 = APPROVAL_DATE_TIME ( #82, #256 ) ;
#170 = CYLINDRICAL_SURFACE ( 'NONE', #202, 4.000000000000000000 ) ;
#171 = EDGE_CURVE ( 'NONE', #372, #31, #63, .T. ) ;
#172 = CIRCLE ( 'NONE', #374, 4.000000000000000000 ) ;
#173 = DATE_TIME_ROLE ( 'creation_date' ) ;
#174 = APPROVAL_PERSON_ORGANIZATION ( #87, #365, #32 ) ;
#175 = DIRECTION ( 'NONE',  ( 0.000000000000000000, 0.000000000000000000, 1.000000000000000000 ) ) ;
#176 = AXIS2_PLACEMENT_3D ( 'NONE', #354, #198, #7 ) ;
#177 = CC_DESIGN_PERSON_AND_ORGANIZATION_ASSIGNMENT ( #330, #302, ( #116 ) ) ;
#178 = CARTESIAN_POINT ( 'NONE',  ( -4.500000000000000888, 5.510910596163088569E-16, 4.999999999999975131 ) ) ;
#179 = AXIS2_PLACEMENT_3D ( 'NONE', #363, #111, #228 ) ;
#180 = APPROVAL_STATUS ( 'not_yet_approved' ) ;
#181 = DIRECTION ( 'NONE',  ( 0.000000000000000000, 0.000000000000000000, 1.000000000000000000 ) ) ;
#182 = EDGE_LOOP ( 'NONE', ( #37, #29, #96, #270 ) ) ;
#183 = DIRECTION ( 'NONE',  ( -1.000000000000000000, 1.224646799147351482E-16, 0.000000000000000000 ) ) ;
#184 = ORIENTED_EDGE ( 'NONE', *, *, #171, .T. ) ;
#185 = AXIS2_PLACEMENT_3D ( 'NONE', #8, #133, #71 ) ;
#186 = ORIENTED_EDGE ( 'NONE', *, *, #1, .T. ) ;
#187 =( LENGTH_UNIT ( ) NAMED_UNIT ( * ) SI_UNIT ( .MILLI., .METRE. ) );
#188 = ORIENTED_EDGE ( 'NONE', *, *, #42, .F. ) ;
#189 = CC_DESIGN_PERSON_AND_ORGANIZATION_ASSIGNMENT ( #35, #271, ( #40 ) ) ;
#190 = EDGE_LOOP ( 'NONE', ( #121, #289 ) ) ;
#191 = APPROVAL_ROLE ( '' ) ;
#192 = DIRECTION ( 'NONE',  ( 0.000000000000000000, 0.000000000000000000, 1.000000000000000000 ) ) ;
#193 = DIRECTION ( 'NONE',  ( -0.000000000000000000, -0.000000000000000000, -1.000000000000000000 ) ) ;
#194 = ORIENTED_EDGE ( 'NONE', *, *, #233, .T. ) ;
#195 = CIRCLE ( 'NONE', #21, 4.500000000000000888 ) ;
#196 = DIRECTION ( 'NONE',  ( 0.000000000000000000, 0.000000000000000000, -1.000000000000000000 ) ) ;
#197 = CIRCLE ( 'NONE', #304, 0.5000000000000004441 ) ;
#198 = DIRECTION ( 'NONE',  ( -0.000000000000000000, -0.000000000000000000, -1.000000000000000000 ) ) ;
#199 = SHAPE_DEFINITION_REPRESENTATION ( #221, #160 ) ;
#200 = EDGE_CURVE ( 'NONE', #355, #320, #364, .T. ) ;
#201 = CALENDAR_DATE ( 2022, 8, 7 ) ;
#202 = AXIS2_PLACEMENT_3D ( 'NONE', #18, #92, #141 ) ;
#203 = CARTESIAN_POINT ( 'NONE',  ( 4.500000000000000888, 0.000000000000000000, 4.999999999999975131 ) ) ;
#204 = ADVANCED_FACE ( 'NONE', ( #84 ), #170, .T. ) ;
#205 = VECTOR ( 'NONE', #237, 1000.000000000000000 ) ;
#206 = ORIENTED_EDGE ( 'NONE', *, *, #171, .F. ) ;
#207 = CARTESIAN_POINT ( 'NONE',  ( 2.250000000000000000, 2.755455298081544285E-16, 0.000000000000000000 ) ) ;
#208 = VERTEX_POINT ( 'NONE', #263 ) ;
#209 = CYLINDRICAL_SURFACE ( 'NONE', #158, 7.000000000000000000 ) ;
#210 = EDGE_LOOP ( 'NONE', ( #322, #79, #381, #253 ) ) ;
#211 = EDGE_CURVE ( 'NONE', #74, #333, #344, .T. ) ;
#212 = APPROVAL_PERSON_ORGANIZATION ( #112, #256, #367 ) ;
#213 = VERTEX_POINT ( 'NONE', #203 ) ;
#214 = FACE_OUTER_BOUND ( 'NONE', #245, .T. ) ;
#215 = EDGE_LOOP ( 'NONE', ( #153, #34, #65, #301 ) ) ;
#216 = CARTESIAN_POINT ( 'NONE',  ( 0.000000000000000000, 0.000000000000000000, 5.000000000000000000 ) ) ;
#217 = DIRECTION ( 'NONE',  ( 1.000000000000000000, 0.000000000000000000, 0.000000000000000000 ) ) ;
#218 = DIRECTION ( 'NONE',  ( -0.000000000000000000, -0.000000000000000000, -1.000000000000000000 ) ) ;
#219 = CC_DESIGN_SECURITY_CLASSIFICATION ( #70, ( #368 ) ) ;
#220 = ADVANCED_FACE ( 'NONE', ( #59 ), #357, .F. ) ;
#221 = PRODUCT_DEFINITION_SHAPE ( 'NONE', 'NONE',  #116 ) ;
#222 = DIRECTION ( 'NONE',  ( -1.000000000000000000, 0.000000000000000000, 0.000000000000000000 ) ) ;
#223 = DIRECTION ( 'NONE',  ( -0.000000000000000000, -0.000000000000000000, -1.000000000000000000 ) ) ;
#224 = DIRECTION ( 'NONE',  ( 0.000000000000000000, 0.000000000000000000, 1.000000000000000000 ) ) ;
#225 = CC_DESIGN_DATE_AND_TIME_ASSIGNMENT ( #366, #173, ( #116 ) ) ;
#226 = AXIS2_PLACEMENT_3D ( 'NONE', #337, #80, #342 ) ;
#227 = CALENDAR_DATE ( 2022, 8, 7 ) ;
#228 = DIRECTION ( 'NONE',  ( 1.000000000000000000, 0.000000000000000000, 0.000000000000000000 ) ) ;
#229 = LOCAL_TIME ( 17, 21, 50.00000000000000000, #359 ) ;
#230 = FACE_OUTER_BOUND ( 'NONE', #182, .T. ) ;
#231 = DIRECTION ( 'NONE',  ( 0.000000000000000000, 0.000000000000000000, -1.000000000000000000 ) ) ;
#232 = EDGE_LOOP ( 'NONE', ( #93, #278, #66, #262 ) ) ;
#233 = EDGE_CURVE ( 'NONE', #150, #9, #89, .T. ) ;
#234 = CARTESIAN_POINT ( 'NONE',  ( 2.250000000000000000, 2.755455298081544285E-16, 805.0000000000000000 ) ) ;
#235 = CC_DESIGN_APPROVAL ( #256, ( #368 ) ) ;
#236 = VERTEX_POINT ( 'NONE', #207 ) ;
#237 = DIRECTION ( 'NONE',  ( 0.000000000000000000, 0.000000000000000000, -1.000000000000000000 ) ) ;
#238 = ORIENTED_EDGE ( 'NONE', *, *, #86, .T. ) ;
#239 = CARTESIAN_POINT ( 'NONE',  ( -7.000000000000000000, 0.000000000000000000, 0.000000000000000000 ) ) ;
#240 = CIRCLE ( 'NONE', #108, 2.250000000000000000 ) ;
#241 = ORIENTED_EDGE ( 'NONE', *, *, #42, .T. ) ;
#242 = CARTESIAN_POINT ( 'NONE',  ( 0.000000000000000000, 0.000000000000000000, 805.0000000000000000 ) ) ;
#243 = PRODUCT_RELATED_PRODUCT_CATEGORY ( 'detail', '', ( #40 ) ) ;
#244 = AXIS2_PLACEMENT_3D ( 'NONE', #313, #28, #315 ) ;
#245 = EDGE_LOOP ( 'NONE', ( #268, #194 ) ) ;
#246 = CARTESIAN_POINT ( 'NONE',  ( 0.000000000000000000, 0.000000000000000000, 805.0000000000000000 ) ) ;
#247 = CARTESIAN_POINT ( 'NONE',  ( -7.000000000000000000, 0.000000000000000000, 5.000000000000000000 ) ) ;
#248 = EDGE_CURVE ( 'NONE', #74, #295, #197, .T. ) ;
#249 = VECTOR ( 'NONE', #223, 1000.000000000000000 ) ;
#250 = PERSON_AND_ORGANIZATION ( #340, #20 ) ;
#251 = ORIENTED_EDGE ( 'NONE', *, *, #200, .F. ) ;
#252 = ADVANCED_FACE ( 'NONE', ( #144 ), #119, .T. ) ;
#253 = ORIENTED_EDGE ( 'NONE', *, *, #211, .T. ) ;
#254 = CIRCLE ( 'NONE', #140, 7.000000000000000000 ) ;
#255 = DIRECTION ( 'NONE',  ( 0.000000000000000000, 0.000000000000000000, 1.000000000000000000 ) ) ;
#256 = APPROVAL ( #300, 'NEURÈENÝ' ) ;
#257 = AXIS2_PLACEMENT_3D ( 'NONE', #260, #231, #345 ) ;
#258 = CARTESIAN_POINT ( 'NONE',  ( 0.000000000000000000, 0.000000000000000000, 5.000000000000000000 ) ) ;
#259 = DATE_AND_TIME ( #227, #23 ) ;
#260 = CARTESIAN_POINT ( 'NONE',  ( 0.000000000000000000, 0.000000000000000000, 805.0000000000000000 ) ) ;
#261 = EDGE_CURVE ( 'NONE', #208, #333, #147, .T. ) ;
#262 = ORIENTED_EDGE ( 'NONE', *, *, #95, .T. ) ;
#263 = CARTESIAN_POINT ( 'NONE',  ( 4.000000000000000000, 4.898587196589412829E-16, 805.0000000000000000 ) ) ;
#264 = EDGE_LOOP ( 'NONE', ( #206, #60 ) ) ;
#265 = DIRECTION ( 'NONE',  ( -1.000000000000000000, 0.000000000000000000, 0.000000000000000000 ) ) ;
#266 = EDGE_LOOP ( 'NONE', ( #379, #316, #148, #188 ) ) ;
#267 = DIRECTION ( 'NONE',  ( -1.000000000000000000, 0.000000000000000000, 0.000000000000000000 ) ) ;
#268 = ORIENTED_EDGE ( 'NONE', *, *, #285, .T. ) ;
#269 = CARTESIAN_POINT ( 'NONE',  ( 0.000000000000000000, 0.000000000000000000, 5.000000000000000000 ) ) ;
#270 = ORIENTED_EDGE ( 'NONE', *, *, #83, .F. ) ;
#271 = PERSON_AND_ORGANIZATION_ROLE ( 'design_owner' ) ;
#272 = CC_DESIGN_APPROVAL ( #26, ( #116 ) ) ;
#273 = DIRECTION ( 'NONE',  ( 1.000000000000000000, 0.000000000000000000, 0.000000000000000000 ) ) ;
#274 = CARTESIAN_POINT ( 'NONE',  ( 0.000000000000000000, 0.000000000000000000, 0.000000000000000000 ) ) ;
#275 = CARTESIAN_POINT ( 'NONE',  ( -4.000000000000000000, 0.000000000000000000, 5.499999999999949374 ) ) ;
#276 = FACE_OUTER_BOUND ( 'NONE', #264, .T. ) ;
#277 = FACE_OUTER_BOUND ( 'NONE', #210, .T. ) ;
#278 = ORIENTED_EDGE ( 'NONE', *, *, #17, .T. ) ;
#279 = ORIENTED_EDGE ( 'NONE', *, *, #248, .F. ) ;
#280 = PERSON_AND_ORGANIZATION ( #340, #20 ) ;
#281 = FACE_OUTER_BOUND ( 'NONE', #232, .T. ) ;
#282 = VECTOR ( 'NONE', #168, 1000.000000000000000 ) ;
#283 = ADVANCED_FACE ( 'NONE', ( #230 ), #321, .F. ) ;
#284 = CARTESIAN_POINT ( 'NONE',  ( 0.000000000000000000, 0.000000000000000000, 0.000000000000000000 ) ) ;
#285 = EDGE_CURVE ( 'NONE', #9, #150, #3, .T. ) ;
#286 = CIRCLE ( 'NONE', #328, 4.500000000000000888 ) ;
#287 = CARTESIAN_POINT ( 'NONE',  ( 0.000000000000000000, 0.000000000000000000, 805.0000000000000000 ) ) ;
#288 = CARTESIAN_POINT ( 'NONE',  ( -2.250000000000000000, 0.000000000000000000, 805.0000000000000000 ) ) ;
#289 = ORIENTED_EDGE ( 'NONE', *, *, #77, .F. ) ;
#290 = DIRECTION ( 'NONE',  ( -0.000000000000000000, -0.000000000000000000, -1.000000000000000000 ) ) ;
#291 = ORIENTED_EDGE ( 'NONE', *, *, #310, .T. ) ;
#292 = DIRECTION ( 'NONE',  ( 1.000000000000000000, 0.000000000000000000, -0.000000000000000000 ) ) ;
#293 = VECTOR ( 'NONE', #290, 1000.000000000000000 ) ;
#294 = DIRECTION ( 'NONE',  ( -0.000000000000000000, -0.000000000000000000, -1.000000000000000000 ) ) ;
#295 = VERTEX_POINT ( 'NONE', #178 ) ;
#296 = COORDINATED_UNIVERSAL_TIME_OFFSET ( 1, 0, .AHEAD. ) ;
#297 = FACE_OUTER_BOUND ( 'NONE', #2, .T. ) ;
#298 = CALENDAR_DATE ( 2022, 8, 7 ) ;
#299 = CARTESIAN_POINT ( 'NONE',  ( 7.000000000000000000, 8.572527594031473190E-16, 0.000000000000000000 ) ) ;
#300 = APPROVAL_STATUS ( 'not_yet_approved' ) ;
#301 = ORIENTED_EDGE ( 'NONE', *, *, #305, .F. ) ;
#302 = PERSON_AND_ORGANIZATION_ROLE ( 'creator' ) ;
#303 = LINE ( 'NONE', #48, #282 ) ;
#304 = AXIS2_PLACEMENT_3D ( 'NONE', #22, #115, #183 ) ;
#305 = EDGE_CURVE ( 'NONE', #355, #73, #378, .T. ) ;
#306 = CARTESIAN_POINT ( 'NONE',  ( 0.000000000000000000, 0.000000000000000000, 805.0000000000000000 ) ) ;
#307 = AXIS2_PLACEMENT_3D ( 'NONE', #100, #218, #217 ) ;
#308 = AXIS2_PLACEMENT_3D ( 'NONE', #90, #53, #309 ) ;
#309 = DIRECTION ( 'NONE',  ( 1.000000000000000000, 0.000000000000000000, 0.000000000000000000 ) ) ;
#310 = EDGE_CURVE ( 'NONE', #208, #318, #38, .T. ) ;
#311 = VECTOR ( 'NONE', #13, 1000.000000000000000 ) ;
#312 = CIRCLE ( 'NONE', #68, 0.5000000000000004441 ) ;
#313 = CARTESIAN_POINT ( 'NONE',  ( 0.000000000000000000, 0.000000000000000000, 5.499999999999949374 ) ) ;
#314 = AXIS2_PLACEMENT_3D ( 'NONE', #358, #106, #222 ) ;
#315 = DIRECTION ( 'NONE',  ( 1.000000000000000000, 0.000000000000000000, 0.000000000000000000 ) ) ;
#316 = ORIENTED_EDGE ( 'NONE', *, *, #143, .T. ) ;
#317 = DIRECTION ( 'NONE',  ( 0.000000000000000000, 0.000000000000000000, -1.000000000000000000 ) ) ;
#318 = VERTEX_POINT ( 'NONE', #25 ) ;
#319 = CARTESIAN_POINT ( 'NONE',  ( 0.000000000000000000, 0.000000000000000000, 5.000000000000000000 ) ) ;
#320 = VERTEX_POINT ( 'NONE', #371 ) ;
#321 = TOROIDAL_SURFACE ( 'NONE', #244, 4.500000000000000888, 0.5000000000000000000 ) ;
#322 = ORIENTED_EDGE ( 'NONE', *, *, #261, .F. ) ;
#323 = CYLINDRICAL_SURFACE ( 'NONE', #142, 2.250000000000000000 ) ;
#324 = ORIENTED_EDGE ( 'NONE', *, *, #261, .T. ) ;
#325 = EDGE_CURVE ( 'NONE', #320, #236, #375, .T. ) ;
#326 = FACE_BOUND ( 'NONE', #190, .T. ) ;
#327 = CARTESIAN_POINT ( 'NONE',  ( 0.000000000000000000, 0.000000000000000000, 5.499999999999949374 ) ) ;
#328 = AXIS2_PLACEMENT_3D ( 'NONE', #269, #294, #353 ) ;
#329 = PLANE ( 'NONE',  #27 ) ;
#330 = PERSON_AND_ORGANIZATION ( #340, #20 ) ;
#331 = MANIFOLD_SOLID_BREP ( 'Odebrat vysunutím3', #373 ) ;
#332 = ADVANCED_FACE ( 'NONE', ( #122 ), #209, .T. ) ;
#333 = VERTEX_POINT ( 'NONE', #350 ) ;
#334 = SECURITY_CLASSIFICATION_LEVEL ( 'unclassified' ) ;
#335 = DIRECTION ( 'NONE',  ( 0.000000000000000000, 0.000000000000000000, 1.000000000000000000 ) ) ;
#336 = LOCAL_TIME ( 17, 21, 50.00000000000000000, #46 ) ;
#337 = CARTESIAN_POINT ( 'NONE',  ( 0.000000000000000000, 0.000000000000000000, 5.499999999999949374 ) ) ;
#338 = ADVANCED_FACE ( 'NONE', ( #33, #214 ), #61, .T. ) ;
#339 = CYLINDRICAL_SURFACE ( 'NONE', #257, 2.250000000000000000 ) ;
#340 = PERSON ( 'NEURÈENÝ', 'NEURÈENÝ', 'NEURÈENÝ', ('NEURÈENÝ'), ('NEURÈENÝ'), ('NEURÈENÝ') ) ;
#341 = DATE_TIME_ROLE ( 'classification_date' ) ;
#342 = DIRECTION ( 'NONE',  ( 1.000000000000000000, 0.000000000000000000, 0.000000000000000000 ) ) ;
#343 = ORIENTED_EDGE ( 'NONE', *, *, #285, .F. ) ;
#344 = CIRCLE ( 'NONE', #226, 4.000000000000000000 ) ;
#345 = DIRECTION ( 'NONE',  ( -1.000000000000000000, 0.000000000000000000, 0.000000000000000000 ) ) ;
#346 = EDGE_CURVE ( 'NONE', #213, #295, #286, .T. ) ;
#347 = CARTESIAN_POINT ( 'NONE',  ( 7.000000000000000000, 8.572527594031473190E-16, 5.000000000000000000 ) ) ;
#348 = ORIENTED_EDGE ( 'NONE', *, *, #83, .T. ) ;
#349 = ORIENTED_EDGE ( 'NONE', *, *, #17, .F. ) ;
#350 = CARTESIAN_POINT ( 'NONE',  ( 4.000000000000000000, 4.898587196589412829E-16, 5.499999999999949374 ) ) ;
#351 = CC_DESIGN_APPROVAL ( #365, ( #70 ) ) ;
#352 = ADVANCED_FACE ( 'NONE', ( #326, #276 ), #64, .F. ) ;
#353 = DIRECTION ( 'NONE',  ( 1.000000000000000000, 0.000000000000000000, 0.000000000000000000 ) ) ;
#354 = CARTESIAN_POINT ( 'NONE',  ( 0.000000000000000000, 0.000000000000000000, 0.000000000000000000 ) ) ;
#355 = VERTEX_POINT ( 'NONE', #152 ) ;
#356 = DATE_AND_TIME ( #298, #97 ) ;
#357 = TOROIDAL_SURFACE ( 'NONE', #308, 4.500000000000000888, 0.5000000000000000000 ) ;
#358 = CARTESIAN_POINT ( 'NONE',  ( 0.000000000000000000, 0.000000000000000000, 805.0000000000000000 ) ) ;
#359 = COORDINATED_UNIVERSAL_TIME_OFFSET ( 1, 0, .AHEAD. ) ;
#360 = ADVANCED_FACE ( 'NONE', ( #41 ), #323, .F. ) ;
#361 = CARTESIAN_POINT ( 'NONE',  ( 4.500000000000000888, 0.000000000000000000, 5.499999999999949374 ) ) ;
#362 = CARTESIAN_POINT ( 'NONE',  ( -7.000000000000000000, 0.000000000000000000, 5.000000000000000000 ) ) ;
#363 = CARTESIAN_POINT ( 'NONE',  ( 0.000000000000000000, 0.000000000000000000, 805.0000000000000000 ) ) ;
#364 = CIRCLE ( 'NONE', #179, 2.250000000000000000 ) ;
#365 = APPROVAL ( #180, 'NEURÈENÝ' ) ;
#366 = DATE_AND_TIME ( #201, #229 ) ;
#367 = APPROVAL_ROLE ( '' ) ;
#368 = PRODUCT_DEFINITION_FORMATION_WITH_SPECIFIED_SOURCE ( 'LIBOVOLNÝ', '', #40, .NOT_KNOWN. ) ;
#369 = APPLICATION_CONTEXT ( 'configuration controlled 3d designs of mechanical parts and assemblies' ) ;
#370 = CARTESIAN_POINT ( 'NONE',  ( 4.000000000000000000, 4.898587196589412829E-16, 805.0000000000000000 ) ) ;
#371 = CARTESIAN_POINT ( 'NONE',  ( 2.250000000000000000, 2.755455298081544285E-16, 805.0000000000000000 ) ) ;
#372 = VERTEX_POINT ( 'NONE', #239 ) ;
#373 = CLOSED_SHELL ( 'NONE', ( #360, #283, #204, #332, #252, #338, #352, #138, #101, #220, #151 ) ) ;
#374 = AXIS2_PLACEMENT_3D ( 'NONE', #327, #335, #162 ) ;
#375 = LINE ( 'NONE', #234, #78 ) ;
#376 = ORIENTED_EDGE ( 'NONE', *, *, #86, .F. ) ;
#377 = LOCAL_TIME ( 17, 21, 50.00000000000000000, #154 ) ;
#378 = LINE ( 'NONE', #288, #205 ) ;
#379 = ORIENTED_EDGE ( 'NONE', *, *, #233, .F. ) ;
#380 = DIRECTION ( 'NONE',  ( 0.000000000000000000, 0.000000000000000000, 1.000000000000000000 ) ) ;
#381 = ORIENTED_EDGE ( 'NONE', *, *, #113, .T. ) ;
ENDSEC;
END-ISO-10303-21;
