ISO-10303-21;
HEADER;
FILE_DESCRIPTION (( 'STEP AP203' ),
    '1' );
FILE_NAME ('c3ee.STEP',
    '2022-07-08T15:24:44',
    ( '' ),
    ( '' ),
    'SwSTEP 2.0',
    'SolidWorks 2019',
    '' );
FILE_SCHEMA (( 'CONFIG_CONTROL_DESIGN' ));
ENDSEC;

DATA;
#1 = CIRCLE ( 'NONE', #279, 4.000000000000000000 ) ;
#2 = DIRECTION ( 'NONE',  ( 0.000000000000000000, 0.000000000000000000, 1.000000000000000000 ) ) ;
#3 = ORIENTED_EDGE ( 'NONE', *, *, #79, .F. ) ;
#4 = ORIENTED_EDGE ( 'NONE', *, *, #192, .F. ) ;
#5 = CARTESIAN_POINT ( 'NONE',  ( 7.000000000000000000, 8.572527594031473190E-16, 0.000000000000000000 ) ) ;
#6 = VERTEX_POINT ( 'NONE', #313 ) ;
#7 = FACE_OUTER_BOUND ( 'NONE', #188, .T. ) ;
#8 = ORIENTED_EDGE ( 'NONE', *, *, #277, .T. ) ;
#9 = ORIENTED_EDGE ( 'NONE', *, *, #303, .F. ) ;
#10 = APPROVAL_DATE_TIME ( #342, #204 ) ;
#11 = LINE ( 'NONE', #128, #367 ) ;
#12 = PERSON_AND_ORGANIZATION ( #315, #157 ) ;
#13 = SECURITY_CLASSIFICATION ( '', '', #216 ) ;
#14 = CARTESIAN_POINT ( 'NONE',  ( 4.000000000000000000, 4.898587196589412829E-16, 5.500000000000005329 ) ) ;
#15 = CALENDAR_DATE ( 2022, 8, 7 ) ;
#16 = DIRECTION ( 'NONE',  ( 0.000000000000000000, 0.000000000000000000, 1.000000000000000000 ) ) ;
#17 = COORDINATED_UNIVERSAL_TIME_OFFSET ( 1, 0, .AHEAD. ) ;
#18 = ADVANCED_FACE ( 'NONE', ( #74 ), #317, .F. ) ;
#19 = ORIENTED_EDGE ( 'NONE', *, *, #338, .F. ) ;
#20 = AXIS2_PLACEMENT_3D ( 'NONE', #248, #98, #217 ) ;
#21 = ORIENTED_EDGE ( 'NONE', *, *, #174, .F. ) ;
#22 = ADVANCED_FACE ( 'NONE', ( #225 ), #355, .F. ) ;
#23 = CARTESIAN_POINT ( 'NONE',  ( -4.000000000000000000, 0.000000000000000000, 5.500000000000005329 ) ) ;
#24 = DIRECTION ( 'NONE',  ( 0.000000000000000000, 0.000000000000000000, 1.000000000000000000 ) ) ;
#25 = CARTESIAN_POINT ( 'NONE',  ( 2.250000000000000000, 2.755455298081544285E-16, 130.0000000000000000 ) ) ;
#26 = AXIS2_PLACEMENT_3D ( 'NONE', #334, #206, #94 ) ;
#27 = DIRECTION ( 'NONE',  ( 0.000000000000000000, 0.000000000000000000, 1.000000000000000000 ) ) ;
#28 = CYLINDRICAL_SURFACE ( 'NONE', #316, 7.000000000000000000 ) ;
#29 = APPLICATION_CONTEXT ( 'configuration controlled 3d designs of mechanical parts and assemblies' ) ;
#30 = CIRCLE ( 'NONE', #35, 7.000000000000000000 ) ;
#31 = DIRECTION ( 'NONE',  ( 0.000000000000000000, 0.000000000000000000, -1.000000000000000000 ) ) ;
#32 = DIRECTION ( 'NONE',  ( -1.000000000000000000, 0.000000000000000000, 0.000000000000000000 ) ) ;
#33 = ORIENTED_EDGE ( 'NONE', *, *, #307, .T. ) ;
#34 = CARTESIAN_POINT ( 'NONE',  ( 4.000000000000000000, 4.898587196589412829E-16, 130.0000000000000000 ) ) ;
#35 = AXIS2_PLACEMENT_3D ( 'NONE', #110, #229, #324 ) ;
#36 = ORIENTED_EDGE ( 'NONE', *, *, #79, .T. ) ;
#37 = AXIS2_PLACEMENT_3D ( 'NONE', #255, #169, #145 ) ;
#38 = CARTESIAN_POINT ( 'NONE',  ( -4.500000000000000888, 5.510910596163089556E-16, 5.500000000000005329 ) ) ;
#39 = APPROVAL_ROLE ( '' ) ;
#40 = DATE_TIME_ROLE ( 'classification_date' ) ;
#41 = DIRECTION ( 'NONE',  ( -1.000000000000000000, 0.000000000000000000, 0.000000000000000000 ) ) ;
#42 = CIRCLE ( 'NONE', #350, 4.500000000000000888 ) ;
#43 = PERSON_AND_ORGANIZATION_ROLE ( 'creator' ) ;
#44 = DIRECTION ( 'NONE',  ( 1.000000000000000000, 0.000000000000000000, 0.000000000000000000 ) ) ;
#45 = PRODUCT ( 'c3ee', 'c3ee', '', ( #237 ) ) ;
#46 = VERTEX_POINT ( 'NONE', #14 ) ;
#47 = EDGE_LOOP ( 'NONE', ( #300, #280 ) ) ;
#48 = AXIS2_PLACEMENT_3D ( 'NONE', #38, #120, #182 ) ;
#49 = FACE_OUTER_BOUND ( 'NONE', #76, .T. ) ;
#50 = CARTESIAN_POINT ( 'NONE',  ( -7.000000000000000000, 0.000000000000000000, 0.000000000000000000 ) ) ;
#51 = PLANE ( 'NONE',  #58 ) ;
#52 = DIRECTION ( 'NONE',  ( 0.000000000000000000, 0.000000000000000000, -1.000000000000000000 ) ) ;
#53 = APPROVAL ( #250, 'NEURÈENÝ' ) ;
#54 = FACE_BOUND ( 'NONE', #47, .T. ) ;
#55 = DIRECTION ( 'NONE',  ( 0.000000000000000000, 0.000000000000000000, -1.000000000000000000 ) ) ;
#56 = EDGE_CURVE ( 'NONE', #285, #125, #345, .T. ) ;
#57 = DIRECTION ( 'NONE',  ( -0.000000000000000000, -0.000000000000000000, -1.000000000000000000 ) ) ;
#58 = AXIS2_PLACEMENT_3D ( 'NONE', #172, #254, #227 ) ;
#59 = CARTESIAN_POINT ( 'NONE',  ( 0.000000000000000000, 0.000000000000000000, 130.0000000000000000 ) ) ;
#60 = ORIENTED_EDGE ( 'NONE', *, *, #271, .F. ) ;
#61 = DIRECTION ( 'NONE',  ( 0.000000000000000000, 0.000000000000000000, 1.000000000000000000 ) ) ;
#62 = ORIENTED_EDGE ( 'NONE', *, *, #373, .T. ) ;
#63 = EDGE_CURVE ( 'NONE', #285, #70, #96, .T. ) ;
#64 = FACE_OUTER_BOUND ( 'NONE', #191, .T. ) ;
#65 = ORIENTED_EDGE ( 'NONE', *, *, #197, .F. ) ;
#66 = CIRCLE ( 'NONE', #209, 7.000000000000000000 ) ;
#67 = LOCAL_TIME ( 17, 24, 44.00000000000000000, #275 ) ;
#68 = ADVANCED_FACE ( 'NONE', ( #312 ), #154, .F. ) ;
#69 = PERSON_AND_ORGANIZATION_ROLE ( 'classification_officer' ) ;
#70 = VERTEX_POINT ( 'NONE', #160 ) ;
#71 = CALENDAR_DATE ( 2022, 8, 7 ) ;
#72 = FACE_OUTER_BOUND ( 'NONE', #310, .T. ) ;
#73 = PERSON_AND_ORGANIZATION ( #315, #157 ) ;
#74 = FACE_OUTER_BOUND ( 'NONE', #274, .T. ) ;
#75 = AXIS2_PLACEMENT_3D ( 'NONE', #59, #178, #213 ) ;
#76 = EDGE_LOOP ( 'NONE', ( #212, #214 ) ) ;
#77 = DATE_AND_TIME ( #273, #369 ) ;
#78 = CARTESIAN_POINT ( 'NONE',  ( -7.000000000000000000, 0.000000000000000000, 5.000000000000000000 ) ) ;
#79 = EDGE_CURVE ( 'NONE', #194, #46, #112, .T. ) ;
#80 = CARTESIAN_POINT ( 'NONE',  ( -2.250000000000000000, 0.000000000000000000, 130.0000000000000000 ) ) ;
#81 = AXIS2_PLACEMENT_3D ( 'NONE', #348, #111, #175 ) ;
#82 = CARTESIAN_POINT ( 'NONE',  ( 0.000000000000000000, 0.000000000000000000, 130.0000000000000000 ) ) ;
#83 = DIRECTION ( 'NONE',  ( 0.000000000000000000, 0.000000000000000000, 1.000000000000000000 ) ) ;
#84 = CYLINDRICAL_SURFACE ( 'NONE', #168, 4.000000000000000000 ) ;
#85 = EDGE_CURVE ( 'NONE', #70, #356, #11, .T. ) ;
#86 = CARTESIAN_POINT ( 'NONE',  ( 0.000000000000000000, 0.000000000000000000, 5.000000000000000000 ) ) ;
#87 = CIRCLE ( 'NONE', #262, 7.000000000000000000 ) ;
#88 = DIRECTION ( 'NONE',  ( 0.000000000000000000, 0.000000000000000000, 1.000000000000000000 ) ) ;
#89 = ORIENTED_EDGE ( 'NONE', *, *, #85, .T. ) ;
#90 = CYLINDRICAL_SURFACE ( 'NONE', #189, 4.000000000000000000 ) ;
#91 = ORIENTED_EDGE ( 'NONE', *, *, #380, .F. ) ;
#92 = CIRCLE ( 'NONE', #333, 4.000000000000000000 ) ;
#93 = LOCAL_TIME ( 17, 24, 44.00000000000000000, #100 ) ;
#94 = DIRECTION ( 'NONE',  ( 1.000000000000000000, 0.000000000000000000, 0.000000000000000000 ) ) ;
#95 = CARTESIAN_POINT ( 'NONE',  ( 0.000000000000000000, 0.000000000000000000, 0.000000000000000000 ) ) ;
#96 = CIRCLE ( 'NONE', #20, 7.000000000000000000 ) ;
#97 = PERSON_AND_ORGANIZATION ( #315, #157 ) ;
#98 = DIRECTION ( 'NONE',  ( 0.000000000000000000, 0.000000000000000000, 1.000000000000000000 ) ) ;
#99 = CIRCLE ( 'NONE', #26, 2.250000000000000000 ) ;
#100 = COORDINATED_UNIVERSAL_TIME_OFFSET ( 1, 0, .AHEAD. ) ;
#101 = ORIENTED_EDGE ( 'NONE', *, *, #174, .T. ) ;
#102 = DATE_AND_TIME ( #184, #122 ) ;
#103 = EDGE_LOOP ( 'NONE', ( #266, #89, #167, #136 ) ) ;
#104 = ORIENTED_EDGE ( 'NONE', *, *, #114, .T. ) ;
#105 = AXIS2_PLACEMENT_3D ( 'NONE', #108, #347, #44 ) ;
#106 = CIRCLE ( 'NONE', #245, 4.500000000000000888 ) ;
#107 = APPLICATION_PROTOCOL_DEFINITION ( 'international standard', 'config_control_design', 1994, #146 ) ;
#108 = CARTESIAN_POINT ( 'NONE',  ( 0.000000000000000000, 0.000000000000000000, 5.500000000000005329 ) ) ;
#109 = ADVANCED_FACE ( 'NONE', ( #163, #72 ), #187, .F. ) ;
#110 = CARTESIAN_POINT ( 'NONE',  ( 0.000000000000000000, 0.000000000000000000, 5.000000000000000000 ) ) ;
#111 = DIRECTION ( 'NONE',  ( 0.000000000000000000, 0.000000000000000000, 1.000000000000000000 ) ) ;
#112 = CIRCLE ( 'NONE', #207, 4.000000000000000000 ) ;
#113 = CIRCLE ( 'NONE', #37, 2.250000000000000000 ) ;
#114 = EDGE_CURVE ( 'NONE', #6, #165, #144, .T. ) ;
#115 = DIRECTION ( 'NONE',  ( 0.000000000000000000, 0.000000000000000000, 1.000000000000000000 ) ) ;
#116 = CARTESIAN_POINT ( 'NONE',  ( 0.000000000000000000, 0.000000000000000000, 5.000000000000000000 ) ) ;
#117 = LINE ( 'NONE', #258, #249 ) ;
#118 = ORIENTED_EDGE ( 'NONE', *, *, #85, .F. ) ;
#119 = ORIENTED_EDGE ( 'NONE', *, *, #124, .T. ) ;
#120 = DIRECTION ( 'NONE',  ( 1.224646799147353207E-16, 1.000000000000000000, -0.000000000000000000 ) ) ;
#121 = VERTEX_POINT ( 'NONE', #374 ) ;
#122 = LOCAL_TIME ( 17, 24, 44.00000000000000000, #17 ) ;
#123 = DIRECTION ( 'NONE',  ( -0.000000000000000000, -0.000000000000000000, -1.000000000000000000 ) ) ;
#124 = EDGE_CURVE ( 'NONE', #70, #285, #30, .T. ) ;
#125 = VERTEX_POINT ( 'NONE', #50 ) ;
#126 = APPROVAL_DATE_TIME ( #284, #375 ) ;
#127 = SHAPE_DEFINITION_REPRESENTATION ( #139, #294 ) ;
#128 = CARTESIAN_POINT ( 'NONE',  ( 7.000000000000000000, 8.572527594031473190E-16, 5.000000000000000000 ) ) ;
#129 = CIRCLE ( 'NONE', #228, 4.000000000000000000 ) ;
#130 = APPROVAL_PERSON_ORGANIZATION ( #73, #204, #39 ) ;
#131 = DIRECTION ( 'NONE',  ( 1.000000000000000000, 0.000000000000000000, 0.000000000000000000 ) ) ;
#132 = DIRECTION ( 'NONE',  ( 1.000000000000000000, 0.000000000000000000, 0.000000000000000000 ) ) ;
#133 = EDGE_CURVE ( 'NONE', #185, #194, #117, .T. ) ;
#134 = ORIENTED_EDGE ( 'NONE', *, *, #303, .T. ) ;
#135 = VECTOR ( 'NONE', #55, 1000.000000000000000 ) ;
#136 = ORIENTED_EDGE ( 'NONE', *, *, #56, .F. ) ;
#137 = DIRECTION ( 'NONE',  ( 1.000000000000000000, 0.000000000000000000, 0.000000000000000000 ) ) ;
#138 = MANIFOLD_SOLID_BREP ( 'Odebrat vysunutím3', #233 ) ;
#139 = PRODUCT_DEFINITION_SHAPE ( 'NONE', 'NONE',  #181 ) ;
#140 = DIRECTION ( 'NONE',  ( -1.000000000000000000, 0.000000000000000000, 0.000000000000000000 ) ) ;
#141 = ADVANCED_FACE ( 'NONE', ( #226 ), #28, .T. ) ;
#142 = PRODUCT_DEFINITION_FORMATION_WITH_SPECIFIED_SOURCE ( 'LIBOVOLNÝ', '', #45, .NOT_KNOWN. ) ;
#143 = FACE_OUTER_BOUND ( 'NONE', #103, .T. ) ;
#144 = LINE ( 'NONE', #80, #306 ) ;
#145 = DIRECTION ( 'NONE',  ( 1.000000000000000000, 0.000000000000000000, 0.000000000000000000 ) ) ;
#146 = APPLICATION_CONTEXT ( 'configuration controlled 3d designs of mechanical parts and assemblies' ) ;
#147 = DESIGN_CONTEXT ( 'detailed design', #146, 'design' ) ;
#148 =( LENGTH_UNIT ( ) NAMED_UNIT ( * ) SI_UNIT ( .MILLI., .METRE. ) );
#149 = CIRCLE ( 'NONE', #308, 0.5000000000000004441 ) ;
#150 = CC_DESIGN_APPROVAL ( #204, ( #13 ) ) ;
#151 = CC_DESIGN_PERSON_AND_ORGANIZATION_ASSIGNMENT ( #97, #43, ( #181 ) ) ;
#152 = CARTESIAN_POINT ( 'NONE',  ( 4.500000000000000888, 0.000000000000000000, 5.500000000000005329 ) ) ;
#153 = VERTEX_POINT ( 'NONE', #195 ) ;
#154 = TOROIDAL_SURFACE ( 'NONE', #286, 4.500000000000000888, 0.5000000000000000000 ) ;
#155 = ADVANCED_FACE ( 'NONE', ( #54, #49 ), #291, .T. ) ;
#156 = EDGE_LOOP ( 'NONE', ( #3, #134, #318, #337 ) ) ;
#157 = ORGANIZATION ( 'NEURÈENÝ', 'NEURÈENÝ', '' ) ;
#158 = PERSON_AND_ORGANIZATION_ROLE ( 'creator' ) ;
#159 = ORIENTED_EDGE ( 'NONE', *, *, #170, .F. ) ;
#160 = CARTESIAN_POINT ( 'NONE',  ( 7.000000000000000000, 8.572527594031473190E-16, 5.000000000000000000 ) ) ;
#161 = ORIENTED_EDGE ( 'NONE', *, *, #371, .F. ) ;
#162 = DATE_TIME_ROLE ( 'creation_date' ) ;
#163 = FACE_BOUND ( 'NONE', #341, .T. ) ;
#164 = APPROVAL_STATUS ( 'not_yet_approved' ) ;
#165 = VERTEX_POINT ( 'NONE', #296 ) ;
#166 = CC_DESIGN_PERSON_AND_ORGANIZATION_ASSIGNMENT ( #12, #69, ( #13 ) ) ;
#167 = ORIENTED_EDGE ( 'NONE', *, *, #170, .T. ) ;
#168 = AXIS2_PLACEMENT_3D ( 'NONE', #82, #198, #200 ) ;
#169 = DIRECTION ( 'NONE',  ( -0.000000000000000000, -0.000000000000000000, -1.000000000000000000 ) ) ;
#170 = EDGE_CURVE ( 'NONE', #356, #125, #66, .T. ) ;
#171 = CARTESIAN_POINT ( 'NONE',  ( 0.000000000000000000, 0.000000000000000000, 0.000000000000000000 ) ) ;
#172 = CARTESIAN_POINT ( 'NONE',  ( 0.000000000000000000, 0.000000000000000000, 5.000000000000000000 ) ) ;
#173 = DIRECTION ( 'NONE',  ( -0.000000000000000000, -0.000000000000000000, -1.000000000000000000 ) ) ;
#174 = EDGE_CURVE ( 'NONE', #165, #121, #113, .T. ) ;
#175 = DIRECTION ( 'NONE',  ( 1.000000000000000000, 0.000000000000000000, -0.000000000000000000 ) ) ;
#176 = CARTESIAN_POINT ( 'NONE',  ( 4.000000000000000000, 4.898587196589412829E-16, 130.0000000000000000 ) ) ;
#177 = ORIENTED_EDGE ( 'NONE', *, *, #114, .F. ) ;
#178 = DIRECTION ( 'NONE',  ( 0.000000000000000000, 0.000000000000000000, 1.000000000000000000 ) ) ;
#179 = VERTEX_POINT ( 'NONE', #372 ) ;
#180 = DIRECTION ( 'NONE',  ( 1.000000000000000000, 0.000000000000000000, 0.000000000000000000 ) ) ;
#181 = PRODUCT_DEFINITION ( 'NEZNÁMÝ', '', #142, #147 ) ;
#182 = DIRECTION ( 'NONE',  ( -1.000000000000000000, 1.224646799147351482E-16, 0.000000000000000000 ) ) ;
#183 = ORIENTED_EDGE ( 'NONE', *, *, #133, .T. ) ;
#184 = CALENDAR_DATE ( 2022, 8, 7 ) ;
#185 = VERTEX_POINT ( 'NONE', #376 ) ;
#186 = APPROVAL_DATE_TIME ( #77, #53 ) ;
#187 = PLANE ( 'NONE',  #321 ) ;
#188 = EDGE_LOOP ( 'NONE', ( #62, #288, #366, #177 ) ) ;
#189 = AXIS2_PLACEMENT_3D ( 'NONE', #331, #57, #32 ) ;
#190 = EDGE_CURVE ( 'NONE', #153, #179, #106, .T. ) ;
#191 = EDGE_LOOP ( 'NONE', ( #19, #60, #183, #36 ) ) ;
#192 = EDGE_CURVE ( 'NONE', #335, #185, #129, .T. ) ;
#193 = PERSON_AND_ORGANIZATION ( #315, #157 ) ;
#194 = VERTEX_POINT ( 'NONE', #23 ) ;
#195 = CARTESIAN_POINT ( 'NONE',  ( -4.500000000000000888, 5.510910596163088569E-16, 5.000000000000002665 ) ) ;
#196 = AXIS2_PLACEMENT_3D ( 'NONE', #263, #2, #236 ) ;
#197 = EDGE_CURVE ( 'NONE', #46, #194, #92, .T. ) ;
#198 = DIRECTION ( 'NONE',  ( -0.000000000000000000, -0.000000000000000000, -1.000000000000000000 ) ) ;
#199 = FACE_BOUND ( 'NONE', #272, .T. ) ;
#200 = DIRECTION ( 'NONE',  ( -1.000000000000000000, 0.000000000000000000, 0.000000000000000000 ) ) ;
#201 = APPROVAL_PERSON_ORGANIZATION ( #346, #53, #364 ) ;
#202 = CC_DESIGN_APPROVAL ( #375, ( #142 ) ) ;
#203 = DIRECTION ( 'NONE',  ( -0.000000000000000000, -0.000000000000000000, -1.000000000000000000 ) ) ;
#204 = APPROVAL ( #311, 'NEURÈENÝ' ) ;
#205 = DIRECTION ( 'NONE',  ( -1.000000000000000000, 0.000000000000000000, 0.000000000000000000 ) ) ;
#206 = DIRECTION ( 'NONE',  ( 0.000000000000000000, 0.000000000000000000, 1.000000000000000000 ) ) ;
#207 = AXIS2_PLACEMENT_3D ( 'NONE', #219, #276, #131 ) ;
#208 = APPLICATION_PROTOCOL_DEFINITION ( 'international standard', 'config_control_design', 1994, #29 ) ;
#209 = AXIS2_PLACEMENT_3D ( 'NONE', #171, #24, #323 ) ;
#210 = LOCAL_TIME ( 17, 24, 44.00000000000000000, #282 ) ;
#211 = CC_DESIGN_DATE_AND_TIME_ASSIGNMENT ( #220, #162, ( #181 ) ) ;
#212 = ORIENTED_EDGE ( 'NONE', *, *, #271, .T. ) ;
#213 = DIRECTION ( 'NONE',  ( 1.000000000000000000, 0.000000000000000000, 0.000000000000000000 ) ) ;
#214 = ORIENTED_EDGE ( 'NONE', *, *, #192, .T. ) ;
#215 = EDGE_LOOP ( 'NONE', ( #4, #264, #242, #302 ) ) ;
#216 = SECURITY_CLASSIFICATION_LEVEL ( 'unclassified' ) ;
#217 = DIRECTION ( 'NONE',  ( 1.000000000000000000, 0.000000000000000000, 0.000000000000000000 ) ) ;
#218 = CC_DESIGN_APPROVAL ( #53, ( #181 ) ) ;
#219 = CARTESIAN_POINT ( 'NONE',  ( 0.000000000000000000, 0.000000000000000000, 5.500000000000005329 ) ) ;
#220 = DATE_AND_TIME ( #278, #93 ) ;
#221 = ORIENTED_EDGE ( 'NONE', *, *, #371, .T. ) ;
#222 = ORIENTED_EDGE ( 'NONE', *, *, #56, .T. ) ;
#223 = AXIS2_PLACEMENT_3D ( 'NONE', #116, #230, #352 ) ;
#224 = PERSON_AND_ORGANIZATION ( #315, #157 ) ;
#225 = FACE_OUTER_BOUND ( 'NONE', #156, .T. ) ;
#226 = FACE_OUTER_BOUND ( 'NONE', #365, .T. ) ;
#227 = DIRECTION ( 'NONE',  ( 1.000000000000000000, 0.000000000000000000, -0.000000000000000000 ) ) ;
#228 = AXIS2_PLACEMENT_3D ( 'NONE', #295, #115, #293 ) ;
#229 = DIRECTION ( 'NONE',  ( 0.000000000000000000, 0.000000000000000000, 1.000000000000000000 ) ) ;
#230 = DIRECTION ( 'NONE',  ( -0.000000000000000000, -0.000000000000000000, -1.000000000000000000 ) ) ;
#231 = ADVANCED_FACE ( 'NONE', ( #199, #325 ), #51, .T. ) ;
#232 = DIRECTION ( 'NONE',  ( -0.000000000000000000, -0.000000000000000000, -1.000000000000000000 ) ) ;
#233 = CLOSED_SHELL ( 'NONE', ( #287, #22, #246, #244, #141, #231, #109, #292, #155, #68, #18 ) ) ;
#234 = CC_DESIGN_PERSON_AND_ORGANIZATION_ASSIGNMENT ( #224, #368, ( #45 ) ) ;
#235 = DIRECTION ( 'NONE',  ( 1.000000000000000000, 0.000000000000000000, 0.000000000000000000 ) ) ;
#236 = DIRECTION ( 'NONE',  ( 1.000000000000000000, 0.000000000000000000, 0.000000000000000000 ) ) ;
#237 = MECHANICAL_CONTEXT ( 'NONE', #29, 'mechanical' ) ;
#238 = VERTEX_POINT ( 'NONE', #25 ) ;
#239 = AXIS2_PLACEMENT_3D ( 'NONE', #253, #251, #41 ) ;
#240 = CARTESIAN_POINT ( 'NONE',  ( 2.250000000000000000, 2.755455298081544285E-16, 130.0000000000000000 ) ) ;
#241 = VECTOR ( 'NONE', #123, 1000.000000000000000 ) ;
#242 = ORIENTED_EDGE ( 'NONE', *, *, #197, .T. ) ;
#243 = PERSON_AND_ORGANIZATION_ROLE ( 'design_supplier' ) ;
#244 = ADVANCED_FACE ( 'NONE', ( #143 ), #379, .T. ) ;
#245 = AXIS2_PLACEMENT_3D ( 'NONE', #260, #173, #290 ) ;
#246 = ADVANCED_FACE ( 'NONE', ( #349 ), #84, .T. ) ;
#247 = PERSON_AND_ORGANIZATION ( #315, #157 ) ;
#248 = CARTESIAN_POINT ( 'NONE',  ( 0.000000000000000000, 0.000000000000000000, 5.000000000000000000 ) ) ;
#249 = VECTOR ( 'NONE', #378, 1000.000000000000000 ) ;
#250 = APPROVAL_STATUS ( 'not_yet_approved' ) ;
#251 = DIRECTION ( 'NONE',  ( 0.000000000000000000, 0.000000000000000000, -1.000000000000000000 ) ) ;
#252 = CIRCLE ( 'NONE', #48, 0.5000000000000004441 ) ;
#253 = CARTESIAN_POINT ( 'NONE',  ( 0.000000000000000000, 0.000000000000000000, 130.0000000000000000 ) ) ;
#254 = DIRECTION ( 'NONE',  ( 0.000000000000000000, 0.000000000000000000, 1.000000000000000000 ) ) ;
#255 = CARTESIAN_POINT ( 'NONE',  ( 0.000000000000000000, 0.000000000000000000, 0.000000000000000000 ) ) ;
#256 = CIRCLE ( 'NONE', #289, 2.250000000000000000 ) ;
#257 = EDGE_CURVE ( 'NONE', #179, #153, #42, .T. ) ;
#258 = CARTESIAN_POINT ( 'NONE',  ( -4.000000000000000000, 0.000000000000000000, 130.0000000000000000 ) ) ;
#259 = EDGE_CURVE ( 'NONE', #121, #165, #256, .T. ) ;
#260 = CARTESIAN_POINT ( 'NONE',  ( 0.000000000000000000, 0.000000000000000000, 5.000000000000000000 ) ) ;
#261 = CARTESIAN_POINT ( 'NONE',  ( 0.000000000000000000, 0.000000000000000000, 130.0000000000000000 ) ) ;
#262 = AXIS2_PLACEMENT_3D ( 'NONE', #354, #61, #304 ) ;
#263 = CARTESIAN_POINT ( 'NONE',  ( 0.000000000000000000, 0.000000000000000000, 0.000000000000000000 ) ) ;
#264 = ORIENTED_EDGE ( 'NONE', *, *, #338, .T. ) ;
#265 =( NAMED_UNIT ( * ) PLANE_ANGLE_UNIT ( ) SI_UNIT ( $, .RADIAN. ) );
#266 = ORIENTED_EDGE ( 'NONE', *, *, #124, .F. ) ;
#267 = LINE ( 'NONE', #176, #241 ) ;
#268 = ORIENTED_EDGE ( 'NONE', *, *, #63, .F. ) ;
#269 = DIRECTION ( 'NONE',  ( -0.000000000000000000, -0.000000000000000000, -1.000000000000000000 ) ) ;
#270 =( GEOMETRIC_REPRESENTATION_CONTEXT ( 3 ) GLOBAL_UNCERTAINTY_ASSIGNED_CONTEXT ( ( #297 ) ) GLOBAL_UNIT_ASSIGNED_CONTEXT ( ( #148, #265, #309 ) ) REPRESENTATION_CONTEXT ( 'NONE', 'WORKASPACE' ) );
#271 = EDGE_CURVE ( 'NONE', #185, #335, #1, .T. ) ;
#272 = EDGE_LOOP ( 'NONE', ( #359, #332 ) ) ;
#273 = CALENDAR_DATE ( 2022, 8, 7 ) ;
#274 = EDGE_LOOP ( 'NONE', ( #91, #8, #104, #101 ) ) ;
#275 = COORDINATED_UNIVERSAL_TIME_OFFSET ( 1, 0, .AHEAD. ) ;
#276 = DIRECTION ( 'NONE',  ( 0.000000000000000000, 0.000000000000000000, 1.000000000000000000 ) ) ;
#277 = EDGE_CURVE ( 'NONE', #238, #6, #99, .T. ) ;
#278 = CALENDAR_DATE ( 2022, 8, 7 ) ;
#279 = AXIS2_PLACEMENT_3D ( 'NONE', #261, #88, #180 ) ;
#280 = ORIENTED_EDGE ( 'NONE', *, *, #277, .F. ) ;
#281 = CC_DESIGN_DATE_AND_TIME_ASSIGNMENT ( #102, #40, ( #13 ) ) ;
#282 = COORDINATED_UNIVERSAL_TIME_OFFSET ( 1, 0, .AHEAD. ) ;
#283 = CARTESIAN_POINT ( 'NONE',  ( 0.000000000000000000, 0.000000000000000000, 5.500000000000005329 ) ) ;
#284 = DATE_AND_TIME ( #71, #210 ) ;
#285 = VERTEX_POINT ( 'NONE', #381 ) ;
#286 = AXIS2_PLACEMENT_3D ( 'NONE', #283, #16, #132 ) ;
#287 = ADVANCED_FACE ( 'NONE', ( #7 ), #358, .F. ) ;
#288 = ORIENTED_EDGE ( 'NONE', *, *, #380, .T. ) ;
#289 = AXIS2_PLACEMENT_3D ( 'NONE', #95, #269, #235 ) ;
#290 = DIRECTION ( 'NONE',  ( 1.000000000000000000, 0.000000000000000000, 0.000000000000000000 ) ) ;
#291 = PLANE ( 'NONE',  #81 ) ;
#292 = ADVANCED_FACE ( 'NONE', ( #64 ), #90, .T. ) ;
#293 = DIRECTION ( 'NONE',  ( 1.000000000000000000, 0.000000000000000000, 0.000000000000000000 ) ) ;
#294 = ADVANCED_BREP_SHAPE_REPRESENTATION ( 'c3ee', ( #138, #196 ), #270 ) ;
#295 = CARTESIAN_POINT ( 'NONE',  ( 0.000000000000000000, 0.000000000000000000, 130.0000000000000000 ) ) ;
#296 = CARTESIAN_POINT ( 'NONE',  ( -2.250000000000000000, 0.000000000000000000, 0.000000000000000000 ) ) ;
#297 = UNCERTAINTY_MEASURE_WITH_UNIT (LENGTH_MEASURE( 1.000000000000000082E-05 ), #148, 'distance_accuracy_value', 'NONE');
#298 = EDGE_LOOP ( 'NONE', ( #9, #65, #33, #344 ) ) ;
#299 = LINE ( 'NONE', #240, #135 ) ;
#300 = ORIENTED_EDGE ( 'NONE', *, *, #373, .F. ) ;
#301 = DIRECTION ( 'NONE',  ( 1.000000000000000000, 0.000000000000000000, 0.000000000000000000 ) ) ;
#302 = ORIENTED_EDGE ( 'NONE', *, *, #133, .F. ) ;
#303 = EDGE_CURVE ( 'NONE', #194, #153, #252, .T. ) ;
#304 = DIRECTION ( 'NONE',  ( 1.000000000000000000, 0.000000000000000000, 0.000000000000000000 ) ) ;
#305 = ORIENTED_EDGE ( 'NONE', *, *, #63, .T. ) ;
#306 = VECTOR ( 'NONE', #52, 1000.000000000000000 ) ;
#307 = EDGE_CURVE ( 'NONE', #46, #179, #149, .T. ) ;
#308 = AXIS2_PLACEMENT_3D ( 'NONE', #152, #339, #330 ) ;
#309 =( NAMED_UNIT ( * ) SI_UNIT ( $, .STERADIAN. ) SOLID_ANGLE_UNIT ( ) );
#310 = EDGE_LOOP ( 'NONE', ( #161, #159 ) ) ;
#311 = APPROVAL_STATUS ( 'not_yet_approved' ) ;
#312 = FACE_OUTER_BOUND ( 'NONE', #298, .T. ) ;
#313 = CARTESIAN_POINT ( 'NONE',  ( -2.250000000000000000, 0.000000000000000000, 130.0000000000000000 ) ) ;
#314 = PRODUCT_RELATED_PRODUCT_CATEGORY ( 'detail', '', ( #45 ) ) ;
#315 = PERSON ( 'NEURÈENÝ', 'NEURÈENÝ', 'NEURÈENÝ', ('NEURÈENÝ'), ('NEURÈENÝ'), ('NEURÈENÝ') ) ;
#316 = AXIS2_PLACEMENT_3D ( 'NONE', #86, #203, #140 ) ;
#317 = CYLINDRICAL_SURFACE ( 'NONE', #239, 2.250000000000000000 ) ;
#318 = ORIENTED_EDGE ( 'NONE', *, *, #257, .F. ) ;
#319 = APPROVAL_ROLE ( '' ) ;
#320 = DIRECTION ( 'NONE',  ( -0.000000000000000000, -0.000000000000000000, -1.000000000000000000 ) ) ;
#321 = AXIS2_PLACEMENT_3D ( 'NONE', #329, #27, #353 ) ;
#322 = CC_DESIGN_PERSON_AND_ORGANIZATION_ASSIGNMENT ( #340, #158, ( #142 ) ) ;
#323 = DIRECTION ( 'NONE',  ( 1.000000000000000000, 0.000000000000000000, 0.000000000000000000 ) ) ;
#324 = DIRECTION ( 'NONE',  ( 1.000000000000000000, 0.000000000000000000, 0.000000000000000000 ) ) ;
#325 = FACE_OUTER_BOUND ( 'NONE', #361, .T. ) ;
#326 = CC_DESIGN_PERSON_AND_ORGANIZATION_ASSIGNMENT ( #247, #243, ( #142 ) ) ;
#327 = VECTOR ( 'NONE', #320, 1000.000000000000000 ) ;
#328 = CARTESIAN_POINT ( 'NONE',  ( 0.000000000000000000, 0.000000000000000000, 5.000000000000000000 ) ) ;
#329 = CARTESIAN_POINT ( 'NONE',  ( 0.000000000000000000, 0.000000000000000000, 0.000000000000000000 ) ) ;
#330 = DIRECTION ( 'NONE',  ( 0.000000000000000000, 0.000000000000000000, -1.000000000000000000 ) ) ;
#331 = CARTESIAN_POINT ( 'NONE',  ( 0.000000000000000000, 0.000000000000000000, 130.0000000000000000 ) ) ;
#332 = ORIENTED_EDGE ( 'NONE', *, *, #190, .T. ) ;
#333 = AXIS2_PLACEMENT_3D ( 'NONE', #351, #83, #137 ) ;
#334 = CARTESIAN_POINT ( 'NONE',  ( 0.000000000000000000, 0.000000000000000000, 130.0000000000000000 ) ) ;
#335 = VERTEX_POINT ( 'NONE', #34 ) ;
#336 = CARTESIAN_POINT ( 'NONE',  ( 0.000000000000000000, 0.000000000000000000, 130.0000000000000000 ) ) ;
#337 = ORIENTED_EDGE ( 'NONE', *, *, #307, .F. ) ;
#338 = EDGE_CURVE ( 'NONE', #335, #46, #267, .T. ) ;
#339 = DIRECTION ( 'NONE',  ( 0.000000000000000000, -1.000000000000000000, 0.000000000000000000 ) ) ;
#340 = PERSON_AND_ORGANIZATION ( #315, #157 ) ;
#341 = EDGE_LOOP ( 'NONE', ( #21, #343 ) ) ;
#342 = DATE_AND_TIME ( #15, #67 ) ;
#343 = ORIENTED_EDGE ( 'NONE', *, *, #259, .F. ) ;
#344 = ORIENTED_EDGE ( 'NONE', *, *, #190, .F. ) ;
#345 = LINE ( 'NONE', #78, #327 ) ;
#346 = PERSON_AND_ORGANIZATION ( #315, #157 ) ;
#347 = DIRECTION ( 'NONE',  ( 0.000000000000000000, 0.000000000000000000, 1.000000000000000000 ) ) ;
#348 = CARTESIAN_POINT ( 'NONE',  ( 0.000000000000000000, 0.000000000000000000, 130.0000000000000000 ) ) ;
#349 = FACE_OUTER_BOUND ( 'NONE', #215, .T. ) ;
#350 = AXIS2_PLACEMENT_3D ( 'NONE', #328, #232, #301 ) ;
#351 = CARTESIAN_POINT ( 'NONE',  ( 0.000000000000000000, 0.000000000000000000, 5.500000000000005329 ) ) ;
#352 = DIRECTION ( 'NONE',  ( -1.000000000000000000, 0.000000000000000000, 0.000000000000000000 ) ) ;
#353 = DIRECTION ( 'NONE',  ( 1.000000000000000000, 0.000000000000000000, -0.000000000000000000 ) ) ;
#354 = CARTESIAN_POINT ( 'NONE',  ( 0.000000000000000000, 0.000000000000000000, 0.000000000000000000 ) ) ;
#355 = TOROIDAL_SURFACE ( 'NONE', #105, 4.500000000000000888, 0.5000000000000000000 ) ;
#356 = VERTEX_POINT ( 'NONE', #5 ) ;
#357 = CC_DESIGN_SECURITY_CLASSIFICATION ( #13, ( #142 ) ) ;
#358 = CYLINDRICAL_SURFACE ( 'NONE', #370, 2.250000000000000000 ) ;
#359 = ORIENTED_EDGE ( 'NONE', *, *, #257, .T. ) ;
#360 = COORDINATED_UNIVERSAL_TIME_OFFSET ( 1, 0, .AHEAD. ) ;
#361 = EDGE_LOOP ( 'NONE', ( #305, #119 ) ) ;
#362 = CIRCLE ( 'NONE', #75, 2.250000000000000000 ) ;
#363 = DIRECTION ( 'NONE',  ( -0.000000000000000000, -0.000000000000000000, -1.000000000000000000 ) ) ;
#364 = APPROVAL_ROLE ( '' ) ;
#365 = EDGE_LOOP ( 'NONE', ( #118, #268, #222, #221 ) ) ;
#366 = ORIENTED_EDGE ( 'NONE', *, *, #259, .T. ) ;
#367 = VECTOR ( 'NONE', #363, 1000.000000000000000 ) ;
#368 = PERSON_AND_ORGANIZATION_ROLE ( 'design_owner' ) ;
#369 = LOCAL_TIME ( 17, 24, 44.00000000000000000, #360 ) ;
#370 = AXIS2_PLACEMENT_3D ( 'NONE', #336, #31, #205 ) ;
#371 = EDGE_CURVE ( 'NONE', #125, #356, #87, .T. ) ;
#372 = CARTESIAN_POINT ( 'NONE',  ( 4.500000000000000888, 0.000000000000000000, 5.000000000000002665 ) ) ;
#373 = EDGE_CURVE ( 'NONE', #6, #238, #362, .T. ) ;
#374 = CARTESIAN_POINT ( 'NONE',  ( 2.250000000000000000, 2.755455298081544285E-16, 0.000000000000000000 ) ) ;
#375 = APPROVAL ( #164, 'NEURÈENÝ' ) ;
#376 = CARTESIAN_POINT ( 'NONE',  ( -4.000000000000000000, 0.000000000000000000, 130.0000000000000000 ) ) ;
#377 = APPROVAL_PERSON_ORGANIZATION ( #193, #375, #319 ) ;
#378 = DIRECTION ( 'NONE',  ( -0.000000000000000000, -0.000000000000000000, -1.000000000000000000 ) ) ;
#379 = CYLINDRICAL_SURFACE ( 'NONE', #223, 7.000000000000000000 ) ;
#380 = EDGE_CURVE ( 'NONE', #238, #121, #299, .T. ) ;
#381 = CARTESIAN_POINT ( 'NONE',  ( -7.000000000000000000, 0.000000000000000000, 5.000000000000000000 ) ) ;
ENDSEC;
END-ISO-10303-21;
