ISO-10303-21;
HEADER;
FILE_DESCRIPTION (( 'STEP AP203' ),
    '1' );
FILE_NAME ('e0f7.STEP',
    '2022-07-08T14:59:34',
    ( '' ),
    ( '' ),
    'SwSTEP 2.0',
    'SolidWorks 2019',
    '' );
FILE_SCHEMA (( 'CONFIG_CONTROL_DESIGN' ));
ENDSEC;

DATA;
#1 = EDGE_CURVE ( 'NONE', #171, #261, #321, .T. ) ;
#2 = COORDINATED_UNIVERSAL_TIME_OFFSET ( 1, 0, .AHEAD. ) ;
#3 = APPLICATION_CONTEXT ( 'configuration controlled 3d designs of mechanical parts and assemblies' ) ;
#4 = CARTESIAN_POINT ( 'NONE',  ( 0.000000000000000000, 0.000000000000000000, 757.0000000000000000 ) ) ;
#5 = APPROVAL_ROLE ( '' ) ;
#6 = ORIENTED_EDGE ( 'NONE', *, *, #207, .F. ) ;
#7 = FACE_OUTER_BOUND ( 'NONE', #289, .T. ) ;
#8 = DIRECTION ( 'NONE',  ( 1.000000000000000000, 0.000000000000000000, 0.000000000000000000 ) ) ;
#9 = DIRECTION ( 'NONE',  ( 1.000000000000000000, 0.000000000000000000, 0.000000000000000000 ) ) ;
#10 = FACE_OUTER_BOUND ( 'NONE', #232, .T. ) ;
#11 = FACE_OUTER_BOUND ( 'NONE', #54, .T. ) ;
#12 = CIRCLE ( 'NONE', #124, 6.500000000000000888 ) ;
#13 = PRODUCT ( 'e0f7', 'e0f7', '', ( #288 ) ) ;
#14 = FACE_OUTER_BOUND ( 'NONE', #22, .T. ) ;
#15 = CARTESIAN_POINT ( 'NONE',  ( 0.000000000000000000, 0.000000000000000000, 757.0000000000000000 ) ) ;
#16 = ADVANCED_FACE ( 'NONE', ( #29 ), #36, .T. ) ;
#17 = VECTOR ( 'NONE', #319, 1000.000000000000000 ) ;
#18 = DIRECTION ( 'NONE',  ( 1.000000000000000000, 0.000000000000000000, -0.000000000000000000 ) ) ;
#19 = ORIENTED_EDGE ( 'NONE', *, *, #279, .F. ) ;
#20 = CIRCLE ( 'NONE', #162, 0.5000000000000004441 ) ;
#21 = AXIS2_PLACEMENT_3D ( 'NONE', #284, #317, #23 ) ;
#22 = EDGE_LOOP ( 'NONE', ( #341, #119, #380, #199 ) ) ;
#23 = DIRECTION ( 'NONE',  ( 1.000000000000000000, 0.000000000000000000, 0.000000000000000000 ) ) ;
#24 = ORIENTED_EDGE ( 'NONE', *, *, #207, .T. ) ;
#25 = CC_DESIGN_PERSON_AND_ORGANIZATION_ASSIGNMENT ( #311, #290, ( #13 ) ) ;
#26 = FACE_OUTER_BOUND ( 'NONE', #197, .T. ) ;
#27 = VERTEX_POINT ( 'NONE', #33 ) ;
#28 = APPROVAL_PERSON_ORGANIZATION ( #153, #105, #5 ) ;
#29 = FACE_OUTER_BOUND ( 'NONE', #375, .T. ) ;
#30 = EDGE_CURVE ( 'NONE', #315, #296, #159, .T. ) ;
#31 = CIRCLE ( 'NONE', #40, 10.00000000000000000 ) ;
#32 = PERSON_AND_ORGANIZATION_ROLE ( 'design_supplier' ) ;
#33 = CARTESIAN_POINT ( 'NONE',  ( 6.000000000000000888, 7.347880794884120722E-16, 7.499999999999951150 ) ) ;
#34 = PERSON_AND_ORGANIZATION ( #188, #253 ) ;
#35 = CIRCLE ( 'NONE', #129, 6.000000000000000888 ) ;
#36 = CYLINDRICAL_SURFACE ( 'NONE', #38, 10.00000000000000000 ) ;
#37 = DIRECTION ( 'NONE',  ( 1.000000000000000000, 0.000000000000000000, 0.000000000000000000 ) ) ;
#38 = AXIS2_PLACEMENT_3D ( 'NONE', #70, #183, #358 ) ;
#39 = CARTESIAN_POINT ( 'NONE',  ( 0.000000000000000000, 0.000000000000000000, 757.0000000000000000 ) ) ;
#40 = AXIS2_PLACEMENT_3D ( 'NONE', #93, #270, #120 ) ;
#41 = FACE_BOUND ( 'NONE', #147, .T. ) ;
#42 = CARTESIAN_POINT ( 'NONE',  ( 0.000000000000000000, 0.000000000000000000, 757.0000000000000000 ) ) ;
#43 = PRODUCT_RELATED_PRODUCT_CATEGORY ( 'detail', '', ( #13 ) ) ;
#44 = DIRECTION ( 'NONE',  ( 0.000000000000000000, 0.000000000000000000, 1.000000000000000000 ) ) ;
#45 = CARTESIAN_POINT ( 'NONE',  ( 0.000000000000000000, 0.000000000000000000, 7.499999999999951150 ) ) ;
#46 = AXIS2_PLACEMENT_3D ( 'NONE', #309, #332, #98 ) ;
#47 = ADVANCED_FACE ( 'NONE', ( #7 ), #175, .T. ) ;
#48 = DIRECTION ( 'NONE',  ( -0.000000000000000000, -0.000000000000000000, -1.000000000000000000 ) ) ;
#49 = FACE_BOUND ( 'NONE', #94, .T. ) ;
#50 = ORIENTED_EDGE ( 'NONE', *, *, #152, .F. ) ;
#51 = FACE_OUTER_BOUND ( 'NONE', #318, .T. ) ;
#52 = ORIENTED_EDGE ( 'NONE', *, *, #30, .F. ) ;
#53 = CC_DESIGN_APPROVAL ( #105, ( #73 ) ) ;
#54 = EDGE_LOOP ( 'NONE', ( #293, #255, #82, #110 ) ) ;
#55 = APPLICATION_PROTOCOL_DEFINITION ( 'international standard', 'config_control_design', 1994, #3 ) ;
#56 = ORIENTED_EDGE ( 'NONE', *, *, #87, .F. ) ;
#57 = DIRECTION ( 'NONE',  ( 1.000000000000000000, 0.000000000000000000, 0.000000000000000000 ) ) ;
#58 = VERTEX_POINT ( 'NONE', #91 ) ;
#59 = CIRCLE ( 'NONE', #343, 6.000000000000000888 ) ;
#60 = ADVANCED_BREP_SHAPE_REPRESENTATION ( 'e0f7', ( #81, #21 ), #212 ) ;
#61 = APPROVAL_STATUS ( 'not_yet_approved' ) ;
#62 = ADVANCED_FACE ( 'NONE', ( #116 ), #352, .T. ) ;
#63 = ORIENTED_EDGE ( 'NONE', *, *, #156, .T. ) ;
#64 = PERSON_AND_ORGANIZATION ( #188, #253 ) ;
#65 = DIRECTION ( 'NONE',  ( -1.000000000000000000, 0.000000000000000000, 0.000000000000000000 ) ) ;
#66 = COORDINATED_UNIVERSAL_TIME_OFFSET ( 1, 0, .AHEAD. ) ;
#67 = CARTESIAN_POINT ( 'NONE',  ( 6.500000000000000888, 0.000000000000000000, 6.999999999999975131 ) ) ;
#68 = EDGE_CURVE ( 'NONE', #296, #184, #235, .T. ) ;
#69 = APPROVAL_ROLE ( '' ) ;
#70 = CARTESIAN_POINT ( 'NONE',  ( 0.000000000000000000, 0.000000000000000000, 7.000000000000000000 ) ) ;
#71 = VERTEX_POINT ( 'NONE', #209 ) ;
#72 = CARTESIAN_POINT ( 'NONE',  ( 0.000000000000000000, 0.000000000000000000, 7.499999999999951150 ) ) ;
#73 = SECURITY_CLASSIFICATION ( '', '', #122 ) ;
#74 = EDGE_CURVE ( 'NONE', #171, #172, #238, .T. ) ;
#75 = DIRECTION ( 'NONE',  ( -1.000000000000000000, 0.000000000000000000, 0.000000000000000000 ) ) ;
#76 = DIRECTION ( 'NONE',  ( 1.000000000000000000, 0.000000000000000000, 0.000000000000000000 ) ) ;
#77 = CARTESIAN_POINT ( 'NONE',  ( 0.000000000000000000, 0.000000000000000000, 757.0000000000000000 ) ) ;
#78 = DATE_AND_TIME ( #336, #357 ) ;
#79 = DIRECTION ( 'NONE',  ( 0.000000000000000000, 0.000000000000000000, 1.000000000000000000 ) ) ;
#80 = ORIENTED_EDGE ( 'NONE', *, *, #337, .F. ) ;
#81 = MANIFOLD_SOLID_BREP ( 'Odebrat vysunutím3', #107 ) ;
#82 = ORIENTED_EDGE ( 'NONE', *, *, #100, .F. ) ;
#83 = AXIS2_PLACEMENT_3D ( 'NONE', #369, #262, #18 ) ;
#84 =( NAMED_UNIT ( * ) PLANE_ANGLE_UNIT ( ) SI_UNIT ( $, .RADIAN. ) );
#85 = ORIENTED_EDGE ( 'NONE', *, *, #68, .T. ) ;
#86 = PLANE ( 'NONE',  #130 ) ;
#87 = EDGE_CURVE ( 'NONE', #200, #58, #272, .T. ) ;
#88 = ORIENTED_EDGE ( 'NONE', *, *, #323, .T. ) ;
#89 = CALENDAR_DATE ( 2022, 8, 7 ) ;
#90 = CARTESIAN_POINT ( 'NONE',  ( -2.750000000000000000, 0.000000000000000000, 757.0000000000000000 ) ) ;
#91 = CARTESIAN_POINT ( 'NONE',  ( 10.00000000000000000, 1.224646799147353256E-15, 0.000000000000000000 ) ) ;
#92 = DIRECTION ( 'NONE',  ( -0.000000000000000000, -0.000000000000000000, -1.000000000000000000 ) ) ;
#93 = CARTESIAN_POINT ( 'NONE',  ( 0.000000000000000000, 0.000000000000000000, 7.000000000000000000 ) ) ;
#94 = EDGE_LOOP ( 'NONE', ( #239, #80 ) ) ;
#95 = EDGE_CURVE ( 'NONE', #172, #71, #339, .T. ) ;
#96 = CARTESIAN_POINT ( 'NONE',  ( -6.500000000000000888, 7.960204194457796463E-16, 6.999999999999975131 ) ) ;
#97 = AXIS2_PLACEMENT_3D ( 'NONE', #135, #258, #227 ) ;
#98 = DIRECTION ( 'NONE',  ( 1.000000000000000000, 0.000000000000000000, 0.000000000000000000 ) ) ;
#99 = DIRECTION ( 'NONE',  ( 0.000000000000000000, 0.000000000000000000, -1.000000000000000000 ) ) ;
#100 = EDGE_CURVE ( 'NONE', #113, #144, #185, .T. ) ;
#101 = CARTESIAN_POINT ( 'NONE',  ( -6.000000000000000888, 0.000000000000000000, 757.0000000000000000 ) ) ;
#102 = COORDINATED_UNIVERSAL_TIME_OFFSET ( 1, 0, .AHEAD. ) ;
#103 = PRODUCT_DEFINITION_FORMATION_WITH_SPECIFIED_SOURCE ( 'LIBOVOLNÝ', '', #13, .NOT_KNOWN. ) ;
#104 = EDGE_LOOP ( 'NONE', ( #203, #300, #85, #173 ) ) ;
#105 = APPROVAL ( #237, 'NEURÈENÝ' ) ;
#106 = CALENDAR_DATE ( 2022, 8, 7 ) ;
#107 = CLOSED_SHELL ( 'NONE', ( #286, #298, #47, #16, #62, #312, #327, #229, #219, #257, #275 ) ) ;
#108 = ORIENTED_EDGE ( 'NONE', *, *, #74, .F. ) ;
#109 = CARTESIAN_POINT ( 'NONE',  ( 0.000000000000000000, 0.000000000000000000, 0.000000000000000000 ) ) ;
#110 = ORIENTED_EDGE ( 'NONE', *, *, #156, .F. ) ;
#111 = CIRCLE ( 'NONE', #308, 2.750000000000000000 ) ;
#112 = PERSON_AND_ORGANIZATION ( #188, #253 ) ;
#113 = VERTEX_POINT ( 'NONE', #67 ) ;
#114 = EDGE_CURVE ( 'NONE', #315, #27, #245, .T. ) ;
#115 = ORIENTED_EDGE ( 'NONE', *, *, #292, .F. ) ;
#116 = FACE_OUTER_BOUND ( 'NONE', #313, .T. ) ;
#117 = AXIS2_PLACEMENT_3D ( 'NONE', #72, #44, #186 ) ;
#118 = DATE_TIME_ROLE ( 'classification_date' ) ;
#119 = ORIENTED_EDGE ( 'NONE', *, *, #374, .T. ) ;
#120 = DIRECTION ( 'NONE',  ( 1.000000000000000000, 0.000000000000000000, 0.000000000000000000 ) ) ;
#121 = AXIS2_PLACEMENT_3D ( 'NONE', #123, #322, #37 ) ;
#122 = SECURITY_CLASSIFICATION_LEVEL ( 'unclassified' ) ;
#123 = CARTESIAN_POINT ( 'NONE',  ( 0.000000000000000000, 0.000000000000000000, 7.000000000000000000 ) ) ;
#124 = AXIS2_PLACEMENT_3D ( 'NONE', #160, #48, #277 ) ;
#125 = DIRECTION ( 'NONE',  ( 0.000000000000000000, 0.000000000000000000, 1.000000000000000000 ) ) ;
#126 = EDGE_CURVE ( 'NONE', #200, #226, #31, .T. ) ;
#127 = DIRECTION ( 'NONE',  ( -1.000000000000000000, 0.000000000000000000, 0.000000000000000000 ) ) ;
#128 = DIRECTION ( 'NONE',  ( -0.000000000000000000, -0.000000000000000000, -1.000000000000000000 ) ) ;
#129 = AXIS2_PLACEMENT_3D ( 'NONE', #77, #361, #76 ) ;
#130 = AXIS2_PLACEMENT_3D ( 'NONE', #109, #79, #340 ) ;
#131 = CARTESIAN_POINT ( 'NONE',  ( 0.000000000000000000, 0.000000000000000000, 7.000000000000000000 ) ) ;
#132 = CYLINDRICAL_SURFACE ( 'NONE', #342, 2.750000000000000000 ) ;
#133 = VECTOR ( 'NONE', #177, 1000.000000000000000 ) ;
#134 = CARTESIAN_POINT ( 'NONE',  ( -2.750000000000000000, 0.000000000000000000, 757.0000000000000000 ) ) ;
#135 = CARTESIAN_POINT ( 'NONE',  ( 0.000000000000000000, 0.000000000000000000, 0.000000000000000000 ) ) ;
#136 = AXIS2_PLACEMENT_3D ( 'NONE', #143, #345, #141 ) ;
#137 = ORIENTED_EDGE ( 'NONE', *, *, #1, .F. ) ;
#138 = EDGE_CURVE ( 'NONE', #261, #71, #326, .T. ) ;
#139 = PLANE ( 'NONE',  #83 ) ;
#140 = ORIENTED_EDGE ( 'NONE', *, *, #1, .T. ) ;
#141 = DIRECTION ( 'NONE',  ( 1.000000000000000000, 0.000000000000000000, 0.000000000000000000 ) ) ;
#142 = AXIS2_PLACEMENT_3D ( 'NONE', #4, #299, #381 ) ;
#143 = CARTESIAN_POINT ( 'NONE',  ( 0.000000000000000000, 0.000000000000000000, 0.000000000000000000 ) ) ;
#144 = VERTEX_POINT ( 'NONE', #96 ) ;
#145 = LOCAL_TIME ( 16, 59, 34.00000000000000000, #370 ) ;
#146 = CARTESIAN_POINT ( 'NONE',  ( 0.000000000000000000, 0.000000000000000000, 0.000000000000000000 ) ) ;
#147 = EDGE_LOOP ( 'NONE', ( #137, #265 ) ) ;
#148 = DIRECTION ( 'NONE',  ( 1.000000000000000000, 0.000000000000000000, 0.000000000000000000 ) ) ;
#149 = DATE_TIME_ROLE ( 'creation_date' ) ;
#150 = ORIENTED_EDGE ( 'NONE', *, *, #337, .T. ) ;
#151 = AXIS2_PLACEMENT_3D ( 'NONE', #131, #189, #304 ) ;
#152 = EDGE_CURVE ( 'NONE', #184, #144, #20, .T. ) ;
#153 = PERSON_AND_ORGANIZATION ( #188, #253 ) ;
#154 = DIRECTION ( 'NONE',  ( -0.000000000000000000, -0.000000000000000000, -1.000000000000000000 ) ) ;
#155 = DIRECTION ( 'NONE',  ( -0.000000000000000000, -0.000000000000000000, -1.000000000000000000 ) ) ;
#156 = EDGE_CURVE ( 'NONE', #27, #113, #268, .T. ) ;
#157 = CARTESIAN_POINT ( 'NONE',  ( 0.000000000000000000, 0.000000000000000000, 757.0000000000000000 ) ) ;
#158 = FACE_OUTER_BOUND ( 'NONE', #371, .T. ) ;
#159 = CIRCLE ( 'NONE', #316, 6.000000000000000888 ) ;
#160 = CARTESIAN_POINT ( 'NONE',  ( 0.000000000000000000, 0.000000000000000000, 7.000000000000000000 ) ) ;
#161 = CC_DESIGN_DATE_AND_TIME_ASSIGNMENT ( #379, #118, ( #73 ) ) ;
#162 = AXIS2_PLACEMENT_3D ( 'NONE', #191, #328, #329 ) ;
#163 = DIRECTION ( 'NONE',  ( 0.000000000000000000, 0.000000000000000000, 1.000000000000000000 ) ) ;
#164 = FACE_BOUND ( 'NONE', #344, .T. ) ;
#165 = DIRECTION ( 'NONE',  ( 1.000000000000000000, 0.000000000000000000, 0.000000000000000000 ) ) ;
#166 = PRODUCT_DEFINITION ( 'NEZNÁMÝ', '', #103, #205 ) ;
#167 = ORIENTED_EDGE ( 'NONE', *, *, #138, .T. ) ;
#168 = PERSON_AND_ORGANIZATION ( #188, #253 ) ;
#169 = ORIENTED_EDGE ( 'NONE', *, *, #323, .F. ) ;
#170 =( NAMED_UNIT ( * ) SI_UNIT ( $, .STERADIAN. ) SOLID_ANGLE_UNIT ( ) );
#171 = VERTEX_POINT ( 'NONE', #134 ) ;
#172 = VERTEX_POINT ( 'NONE', #218 ) ;
#173 = ORIENTED_EDGE ( 'NONE', *, *, #194, .T. ) ;
#174 = CIRCLE ( 'NONE', #151, 10.00000000000000000 ) ;
#175 = CYLINDRICAL_SURFACE ( 'NONE', #142, 6.000000000000000888 ) ;
#176 = DATE_AND_TIME ( #206, #236 ) ;
#177 = DIRECTION ( 'NONE',  ( 0.000000000000000000, 0.000000000000000000, -1.000000000000000000 ) ) ;
#178 = CC_DESIGN_DATE_AND_TIME_ASSIGNMENT ( #351, #149, ( #166 ) ) ;
#179 = UNCERTAINTY_MEASURE_WITH_UNIT (LENGTH_MEASURE( 1.000000000000000082E-05 ), #254, 'distance_accuracy_value', 'NONE');
#180 = CARTESIAN_POINT ( 'NONE',  ( 6.000000000000000888, 7.347880794884120722E-16, 757.0000000000000000 ) ) ;
#181 = AXIS2_PLACEMENT_3D ( 'NONE', #331, #365, #75 ) ;
#182 = DATE_AND_TIME ( #89, #187 ) ;
#183 = DIRECTION ( 'NONE',  ( -0.000000000000000000, -0.000000000000000000, -1.000000000000000000 ) ) ;
#184 = VERTEX_POINT ( 'NONE', #301 ) ;
#185 = CIRCLE ( 'NONE', #121, 6.500000000000000888 ) ;
#186 = DIRECTION ( 'NONE',  ( 1.000000000000000000, 0.000000000000000000, 0.000000000000000000 ) ) ;
#187 = LOCAL_TIME ( 16, 59, 34.00000000000000000, #210 ) ;
#188 = PERSON ( 'NEURÈENÝ', 'NEURÈENÝ', 'NEURÈENÝ', ('NEURÈENÝ'), ('NEURÈENÝ'), ('NEURÈENÝ') ) ;
#189 = DIRECTION ( 'NONE',  ( 0.000000000000000000, 0.000000000000000000, 1.000000000000000000 ) ) ;
#190 = CARTESIAN_POINT ( 'NONE',  ( 6.500000000000000888, 0.000000000000000000, 7.499999999999951150 ) ) ;
#191 = CARTESIAN_POINT ( 'NONE',  ( -6.500000000000000888, 7.960204194457796463E-16, 7.499999999999951150 ) ) ;
#192 = LOCAL_TIME ( 16, 59, 34.00000000000000000, #2 ) ;
#193 = DIRECTION ( 'NONE',  ( 0.000000000000000000, 0.000000000000000000, -1.000000000000000000 ) ) ;
#194 = EDGE_CURVE ( 'NONE', #184, #27, #223, .T. ) ;
#195 = APPROVAL_DATE_TIME ( #78, #247 ) ;
#196 = CARTESIAN_POINT ( 'NONE',  ( 0.000000000000000000, 0.000000000000000000, 757.0000000000000000 ) ) ;
#197 = EDGE_LOOP ( 'NONE', ( #271, #202 ) ) ;
#198 = APPROVAL_PERSON_ORGANIZATION ( #324, #368, #69 ) ;
#199 = ORIENTED_EDGE ( 'NONE', *, *, #95, .T. ) ;
#200 = VERTEX_POINT ( 'NONE', #281 ) ;
#201 = CARTESIAN_POINT ( 'NONE',  ( -10.00000000000000000, 0.000000000000000000, 0.000000000000000000 ) ) ;
#202 = ORIENTED_EDGE ( 'NONE', *, *, #126, .T. ) ;
#203 = ORIENTED_EDGE ( 'NONE', *, *, #114, .F. ) ;
#204 = AXIS2_PLACEMENT_3D ( 'NONE', #157, #248, #216 ) ;
#205 = DESIGN_CONTEXT ( 'detailed design', #225, 'design' ) ;
#206 = CALENDAR_DATE ( 2022, 8, 7 ) ;
#207 = EDGE_CURVE ( 'NONE', #226, #346, #276, .T. ) ;
#208 = DIRECTION ( 'NONE',  ( -0.000000000000000000, -0.000000000000000000, -1.000000000000000000 ) ) ;
#209 = CARTESIAN_POINT ( 'NONE',  ( 2.750000000000000000, 3.367778697655221012E-16, 0.000000000000000000 ) ) ;
#210 = COORDINATED_UNIVERSAL_TIME_OFFSET ( 1, 0, .AHEAD. ) ;
#211 = ORIENTED_EDGE ( 'NONE', *, *, #292, .T. ) ;
#212 =( GEOMETRIC_REPRESENTATION_CONTEXT ( 3 ) GLOBAL_UNCERTAINTY_ASSIGNED_CONTEXT ( ( #179 ) ) GLOBAL_UNIT_ASSIGNED_CONTEXT ( ( #254, #84, #170 ) ) REPRESENTATION_CONTEXT ( 'NONE', 'WORKASPACE' ) );
#213 = CARTESIAN_POINT ( 'NONE',  ( 0.000000000000000000, 0.000000000000000000, 0.000000000000000000 ) ) ;
#214 = DIRECTION ( 'NONE',  ( -1.000000000000000000, 0.000000000000000000, 0.000000000000000000 ) ) ;
#215 = AXIS2_PLACEMENT_3D ( 'NONE', #325, #267, #8 ) ;
#216 = DIRECTION ( 'NONE',  ( 1.000000000000000000, 0.000000000000000000, -0.000000000000000000 ) ) ;
#217 = APPROVAL_PERSON_ORGANIZATION ( #112, #247, #282 ) ;
#218 = CARTESIAN_POINT ( 'NONE',  ( -2.750000000000000000, 0.000000000000000000, 0.000000000000000000 ) ) ;
#219 = ADVANCED_FACE ( 'NONE', ( #41, #10 ), #246, .T. ) ;
#220 = DIRECTION ( 'NONE',  ( 0.000000000000000000, -1.000000000000000000, 0.000000000000000000 ) ) ;
#221 = CARTESIAN_POINT ( 'NONE',  ( 2.750000000000000000, 3.367778697655221012E-16, 757.0000000000000000 ) ) ;
#222 = EDGE_CURVE ( 'NONE', #296, #315, #35, .T. ) ;
#223 = CIRCLE ( 'NONE', #46, 6.000000000000000888 ) ;
#224 = CARTESIAN_POINT ( 'NONE',  ( 6.000000000000000888, 7.347880794884120722E-16, 757.0000000000000000 ) ) ;
#225 = APPLICATION_CONTEXT ( 'configuration controlled 3d designs of mechanical parts and assemblies' ) ;
#226 = VERTEX_POINT ( 'NONE', #363 ) ;
#227 = DIRECTION ( 'NONE',  ( 1.000000000000000000, 0.000000000000000000, 0.000000000000000000 ) ) ;
#228 = CIRCLE ( 'NONE', #136, 2.750000000000000000 ) ;
#229 = ADVANCED_FACE ( 'NONE', ( #305 ), #274, .T. ) ;
#230 = ORIENTED_EDGE ( 'NONE', *, *, #354, .F. ) ;
#231 = APPROVAL_STATUS ( 'not_yet_approved' ) ;
#232 = EDGE_LOOP ( 'NONE', ( #283, #297 ) ) ;
#233 = PERSON_AND_ORGANIZATION_ROLE ( 'classification_officer' ) ;
#234 = ORIENTED_EDGE ( 'NONE', *, *, #68, .F. ) ;
#235 = LINE ( 'NONE', #355, #241 ) ;
#236 = LOCAL_TIME ( 16, 59, 34.00000000000000000, #66 ) ;
#237 = APPROVAL_STATUS ( 'not_yet_approved' ) ;
#238 = LINE ( 'NONE', #90, #133 ) ;
#239 = ORIENTED_EDGE ( 'NONE', *, *, #95, .F. ) ;
#240 = CC_DESIGN_PERSON_AND_ORGANIZATION_ASSIGNMENT ( #34, #233, ( #73 ) ) ;
#241 = VECTOR ( 'NONE', #155, 1000.000000000000000 ) ;
#242 = APPROVAL_DATE_TIME ( #176, #368 ) ;
#243 = CARTESIAN_POINT ( 'NONE',  ( 10.00000000000000000, 1.224646799147353256E-15, 7.000000000000000000 ) ) ;
#244 = CC_DESIGN_SECURITY_CLASSIFICATION ( #73, ( #103 ) ) ;
#245 = LINE ( 'NONE', #180, #17 ) ;
#246 = PLANE ( 'NONE',  #204 ) ;
#247 = APPROVAL ( #231, 'NEURÈENÝ' ) ;
#248 = DIRECTION ( 'NONE',  ( 0.000000000000000000, 0.000000000000000000, 1.000000000000000000 ) ) ;
#249 = CC_DESIGN_APPROVAL ( #247, ( #166 ) ) ;
#250 = FACE_OUTER_BOUND ( 'NONE', #259, .T. ) ;
#251 = CYLINDRICAL_SURFACE ( 'NONE', #181, 2.750000000000000000 ) ;
#252 = CARTESIAN_POINT ( 'NONE',  ( 0.000000000000000000, 0.000000000000000000, 7.499999999999951150 ) ) ;
#253 = ORGANIZATION ( 'NEURÈENÝ', 'NEURÈENÝ', '' ) ;
#254 =( LENGTH_UNIT ( ) NAMED_UNIT ( * ) SI_UNIT ( .MILLI., .METRE. ) );
#255 = ORIENTED_EDGE ( 'NONE', *, *, #152, .T. ) ;
#256 = PERSON_AND_ORGANIZATION_ROLE ( 'creator' ) ;
#257 = ADVANCED_FACE ( 'NONE', ( #250 ), #303, .F. ) ;
#258 = DIRECTION ( 'NONE',  ( 0.000000000000000000, 0.000000000000000000, 1.000000000000000000 ) ) ;
#259 = EDGE_LOOP ( 'NONE', ( #50, #294, #63, #115 ) ) ;
#260 = CIRCLE ( 'NONE', #364, 10.00000000000000000 ) ;
#261 = VERTEX_POINT ( 'NONE', #221 ) ;
#262 = DIRECTION ( 'NONE',  ( 0.000000000000000000, 0.000000000000000000, 1.000000000000000000 ) ) ;
#263 = ORIENTED_EDGE ( 'NONE', *, *, #126, .F. ) ;
#264 = EDGE_CURVE ( 'NONE', #27, #184, #59, .T. ) ;
#265 = ORIENTED_EDGE ( 'NONE', *, *, #374, .F. ) ;
#266 = PERSON_AND_ORGANIZATION_ROLE ( 'creator' ) ;
#267 = DIRECTION ( 'NONE',  ( 0.000000000000000000, 0.000000000000000000, 1.000000000000000000 ) ) ;
#268 = CIRCLE ( 'NONE', #330, 0.5000000000000004441 ) ;
#269 = CALENDAR_DATE ( 2022, 8, 7 ) ;
#270 = DIRECTION ( 'NONE',  ( 0.000000000000000000, 0.000000000000000000, 1.000000000000000000 ) ) ;
#271 = ORIENTED_EDGE ( 'NONE', *, *, #279, .T. ) ;
#272 = LINE ( 'NONE', #243, #362 ) ;
#273 = CIRCLE ( 'NONE', #97, 10.00000000000000000 ) ;
#274 = CYLINDRICAL_SURFACE ( 'NONE', #291, 6.000000000000000888 ) ;
#275 = ADVANCED_FACE ( 'NONE', ( #14 ), #132, .F. ) ;
#276 = LINE ( 'NONE', #280, #367 ) ;
#277 = DIRECTION ( 'NONE',  ( 1.000000000000000000, 0.000000000000000000, 0.000000000000000000 ) ) ;
#278 = TOROIDAL_SURFACE ( 'NONE', #376, 6.500000000000000888, 0.5000000000000000000 ) ;
#279 = EDGE_CURVE ( 'NONE', #226, #200, #174, .T. ) ;
#280 = CARTESIAN_POINT ( 'NONE',  ( -10.00000000000000000, 0.000000000000000000, 7.000000000000000000 ) ) ;
#281 = CARTESIAN_POINT ( 'NONE',  ( 10.00000000000000000, 1.224646799147353256E-15, 7.000000000000000000 ) ) ;
#282 = APPROVAL_ROLE ( '' ) ;
#283 = ORIENTED_EDGE ( 'NONE', *, *, #222, .T. ) ;
#284 = CARTESIAN_POINT ( 'NONE',  ( 0.000000000000000000, 0.000000000000000000, 0.000000000000000000 ) ) ;
#285 = ORIENTED_EDGE ( 'NONE', *, *, #354, .T. ) ;
#286 = ADVANCED_FACE ( 'NONE', ( #158 ), #251, .F. ) ;
#287 = ORIENTED_EDGE ( 'NONE', *, *, #100, .T. ) ;
#288 = MECHANICAL_CONTEXT ( 'NONE', #3, 'mechanical' ) ;
#289 = EDGE_LOOP ( 'NONE', ( #52, #349, #378, #234 ) ) ;
#290 = PERSON_AND_ORGANIZATION_ROLE ( 'design_owner' ) ;
#291 = AXIS2_PLACEMENT_3D ( 'NONE', #15, #128, #214 ) ;
#292 = EDGE_CURVE ( 'NONE', #144, #113, #12, .T. ) ;
#293 = ORIENTED_EDGE ( 'NONE', *, *, #194, .F. ) ;
#294 = ORIENTED_EDGE ( 'NONE', *, *, #264, .F. ) ;
#295 = PERSON_AND_ORGANIZATION ( #188, #253 ) ;
#296 = VERTEX_POINT ( 'NONE', #101 ) ;
#297 = ORIENTED_EDGE ( 'NONE', *, *, #30, .T. ) ;
#298 = ADVANCED_FACE ( 'NONE', ( #11 ), #278, .F. ) ;
#299 = DIRECTION ( 'NONE',  ( -0.000000000000000000, -0.000000000000000000, -1.000000000000000000 ) ) ;
#300 = ORIENTED_EDGE ( 'NONE', *, *, #222, .F. ) ;
#301 = CARTESIAN_POINT ( 'NONE',  ( -6.000000000000000888, 0.000000000000000000, 7.499999999999951150 ) ) ;
#302 = CC_DESIGN_PERSON_AND_ORGANIZATION_ASSIGNMENT ( #64, #32, ( #103 ) ) ;
#303 = TOROIDAL_SURFACE ( 'NONE', #117, 6.500000000000000888, 0.5000000000000000000 ) ;
#304 = DIRECTION ( 'NONE',  ( 1.000000000000000000, 0.000000000000000000, 0.000000000000000000 ) ) ;
#305 = FACE_OUTER_BOUND ( 'NONE', #104, .T. ) ;
#306 = CC_DESIGN_PERSON_AND_ORGANIZATION_ASSIGNMENT ( #168, #256, ( #166 ) ) ;
#307 = DIRECTION ( 'NONE',  ( -0.000000000000000000, -0.000000000000000000, -1.000000000000000000 ) ) ;
#308 = AXIS2_PLACEMENT_3D ( 'NONE', #196, #373, #165 ) ;
#309 = CARTESIAN_POINT ( 'NONE',  ( 0.000000000000000000, 0.000000000000000000, 7.499999999999951150 ) ) ;
#310 = DIRECTION ( 'NONE',  ( 1.000000000000000000, 0.000000000000000000, 0.000000000000000000 ) ) ;
#311 = PERSON_AND_ORGANIZATION ( #188, #253 ) ;
#312 = ADVANCED_FACE ( 'NONE', ( #164, #26 ), #139, .T. ) ;
#313 = EDGE_LOOP ( 'NONE', ( #56, #19, #24, #285 ) ) ;
#314 = DIRECTION ( 'NONE',  ( 0.000000000000000000, 0.000000000000000000, 1.000000000000000000 ) ) ;
#315 = VERTEX_POINT ( 'NONE', #224 ) ;
#316 = AXIS2_PLACEMENT_3D ( 'NONE', #39, #125, #148 ) ;
#317 = DIRECTION ( 'NONE',  ( 0.000000000000000000, 0.000000000000000000, 1.000000000000000000 ) ) ;
#318 = EDGE_LOOP ( 'NONE', ( #230, #169 ) ) ;
#319 = DIRECTION ( 'NONE',  ( -0.000000000000000000, -0.000000000000000000, -1.000000000000000000 ) ) ;
#320 = DIRECTION ( 'NONE',  ( 1.000000000000000000, 0.000000000000000000, 0.000000000000000000 ) ) ;
#321 = CIRCLE ( 'NONE', #215, 2.750000000000000000 ) ;
#322 = DIRECTION ( 'NONE',  ( -0.000000000000000000, -0.000000000000000000, -1.000000000000000000 ) ) ;
#323 = EDGE_CURVE ( 'NONE', #58, #346, #260, .T. ) ;
#324 = PERSON_AND_ORGANIZATION ( #188, #253 ) ;
#325 = CARTESIAN_POINT ( 'NONE',  ( 0.000000000000000000, 0.000000000000000000, 757.0000000000000000 ) ) ;
#326 = LINE ( 'NONE', #360, #350 ) ;
#327 = ADVANCED_FACE ( 'NONE', ( #49, #51 ), #86, .F. ) ;
#328 = DIRECTION ( 'NONE',  ( 1.224646799147353207E-16, 1.000000000000000000, -0.000000000000000000 ) ) ;
#329 = DIRECTION ( 'NONE',  ( -1.000000000000000000, 1.224646799147351482E-16, 0.000000000000000000 ) ) ;
#330 = AXIS2_PLACEMENT_3D ( 'NONE', #190, #220, #99 ) ;
#331 = CARTESIAN_POINT ( 'NONE',  ( 0.000000000000000000, 0.000000000000000000, 757.0000000000000000 ) ) ;
#332 = DIRECTION ( 'NONE',  ( 0.000000000000000000, 0.000000000000000000, 1.000000000000000000 ) ) ;
#333 = PRODUCT_DEFINITION_SHAPE ( 'NONE', 'NONE',  #166 ) ;
#334 = DIRECTION ( 'NONE',  ( 0.000000000000000000, 0.000000000000000000, -1.000000000000000000 ) ) ;
#335 = CC_DESIGN_APPROVAL ( #368, ( #103 ) ) ;
#336 = CALENDAR_DATE ( 2022, 8, 7 ) ;
#337 = EDGE_CURVE ( 'NONE', #71, #172, #228, .T. ) ;
#338 = ORIENTED_EDGE ( 'NONE', *, *, #87, .T. ) ;
#339 = CIRCLE ( 'NONE', #347, 2.750000000000000000 ) ;
#340 = DIRECTION ( 'NONE',  ( 1.000000000000000000, 0.000000000000000000, -0.000000000000000000 ) ) ;
#341 = ORIENTED_EDGE ( 'NONE', *, *, #138, .F. ) ;
#342 = AXIS2_PLACEMENT_3D ( 'NONE', #42, #193, #127 ) ;
#343 = AXIS2_PLACEMENT_3D ( 'NONE', #45, #163, #9 ) ;
#344 = EDGE_LOOP ( 'NONE', ( #287, #211 ) ) ;
#345 = DIRECTION ( 'NONE',  ( -0.000000000000000000, -0.000000000000000000, -1.000000000000000000 ) ) ;
#346 = VERTEX_POINT ( 'NONE', #201 ) ;
#347 = AXIS2_PLACEMENT_3D ( 'NONE', #213, #154, #320 ) ;
#348 = SHAPE_DEFINITION_REPRESENTATION ( #333, #60 ) ;
#349 = ORIENTED_EDGE ( 'NONE', *, *, #114, .T. ) ;
#350 = VECTOR ( 'NONE', #334, 1000.000000000000000 ) ;
#351 = DATE_AND_TIME ( #106, #145 ) ;
#352 = CYLINDRICAL_SURFACE ( 'NONE', #372, 10.00000000000000000 ) ;
#353 = APPROVAL_DATE_TIME ( #182, #105 ) ;
#354 = EDGE_CURVE ( 'NONE', #346, #58, #273, .T. ) ;
#355 = CARTESIAN_POINT ( 'NONE',  ( -6.000000000000000888, 0.000000000000000000, 757.0000000000000000 ) ) ;
#356 = CARTESIAN_POINT ( 'NONE',  ( 0.000000000000000000, 0.000000000000000000, 7.000000000000000000 ) ) ;
#357 = LOCAL_TIME ( 16, 59, 34.00000000000000000, #102 ) ;
#358 = DIRECTION ( 'NONE',  ( -1.000000000000000000, 0.000000000000000000, 0.000000000000000000 ) ) ;
#359 = CC_DESIGN_PERSON_AND_ORGANIZATION_ASSIGNMENT ( #295, #266, ( #103 ) ) ;
#360 = CARTESIAN_POINT ( 'NONE',  ( 2.750000000000000000, 3.367778697655221012E-16, 757.0000000000000000 ) ) ;
#361 = DIRECTION ( 'NONE',  ( 0.000000000000000000, 0.000000000000000000, 1.000000000000000000 ) ) ;
#362 = VECTOR ( 'NONE', #208, 1000.000000000000000 ) ;
#363 = CARTESIAN_POINT ( 'NONE',  ( -10.00000000000000000, 0.000000000000000000, 7.000000000000000000 ) ) ;
#364 = AXIS2_PLACEMENT_3D ( 'NONE', #146, #314, #57 ) ;
#365 = DIRECTION ( 'NONE',  ( 0.000000000000000000, 0.000000000000000000, -1.000000000000000000 ) ) ;
#366 = DIRECTION ( 'NONE',  ( 0.000000000000000000, 0.000000000000000000, 1.000000000000000000 ) ) ;
#367 = VECTOR ( 'NONE', #307, 1000.000000000000000 ) ;
#368 = APPROVAL ( #61, 'NEURÈENÝ' ) ;
#369 = CARTESIAN_POINT ( 'NONE',  ( 0.000000000000000000, 0.000000000000000000, 7.000000000000000000 ) ) ;
#370 = COORDINATED_UNIVERSAL_TIME_OFFSET ( 1, 0, .AHEAD. ) ;
#371 = EDGE_LOOP ( 'NONE', ( #140, #167, #150, #108 ) ) ;
#372 = AXIS2_PLACEMENT_3D ( 'NONE', #356, #92, #65 ) ;
#373 = DIRECTION ( 'NONE',  ( 0.000000000000000000, 0.000000000000000000, 1.000000000000000000 ) ) ;
#374 = EDGE_CURVE ( 'NONE', #261, #171, #111, .T. ) ;
#375 = EDGE_LOOP ( 'NONE', ( #263, #338, #88, #6 ) ) ;
#376 = AXIS2_PLACEMENT_3D ( 'NONE', #252, #366, #310 ) ;
#377 = APPLICATION_PROTOCOL_DEFINITION ( 'international standard', 'config_control_design', 1994, #225 ) ;
#378 = ORIENTED_EDGE ( 'NONE', *, *, #264, .T. ) ;
#379 = DATE_AND_TIME ( #269, #192 ) ;
#380 = ORIENTED_EDGE ( 'NONE', *, *, #74, .T. ) ;
#381 = DIRECTION ( 'NONE',  ( -1.000000000000000000, 0.000000000000000000, 0.000000000000000000 ) ) ;
ENDSEC;
END-ISO-10303-21;
