ISO-10303-21;
HEADER;
FILE_DESCRIPTION (( 'STEP AP203' ),
    '1' );
FILE_NAME ('5f85.STEP',
    '2022-07-08T14:37:24',
    ( '' ),
    ( '' ),
    'SwSTEP 2.0',
    'SolidWorks 2019',
    '' );
FILE_SCHEMA (( 'CONFIG_CONTROL_DESIGN' ));
ENDSEC;

DATA;
#1 = DIRECTION ( 'NONE',  ( 0.000000000000000000, 0.000000000000000000, -1.000000000000000000 ) ) ;
#2 = ORIENTED_EDGE ( 'NONE', *, *, #132, .T. ) ;
#3 = CIRCLE ( 'NONE', #106, 4.000000000000000000 ) ;
#4 = PRODUCT_RELATED_PRODUCT_CATEGORY ( 'detail', '', ( #88 ) ) ;
#5 = AXIS2_PLACEMENT_3D ( 'NONE', #45, #157, #305 ) ;
#6 = VERTEX_POINT ( 'NONE', #237 ) ;
#7 = ORIENTED_EDGE ( 'NONE', *, *, #42, .T. ) ;
#8 = APPROVAL_DATE_TIME ( #81, #188 ) ;
#9 = VERTEX_POINT ( 'NONE', #34 ) ;
#10 = EDGE_CURVE ( 'NONE', #143, #6, #3, .T. ) ;
#11 = AXIS2_PLACEMENT_3D ( 'NONE', #86, #292, #269 ) ;
#12 = CARTESIAN_POINT ( 'NONE',  ( 0.000000000000000000, 0.000000000000000000, 557.0000000000000000 ) ) ;
#13 = CARTESIAN_POINT ( 'NONE',  ( -10.00000000000000000, 0.000000000000000000, 0.000000000000000000 ) ) ;
#14 = ORIENTED_EDGE ( 'NONE', *, *, #212, .F. ) ;
#15 = ADVANCED_FACE ( 'NONE', ( #39, #60 ), #275, .T. ) ;
#16 =( NAMED_UNIT ( * ) PLANE_ANGLE_UNIT ( ) SI_UNIT ( $, .RADIAN. ) );
#17 = DIRECTION ( 'NONE',  ( 1.000000000000000000, 0.000000000000000000, 0.000000000000000000 ) ) ;
#18 = APPROVAL ( #75, 'NEURÈENÝ' ) ;
#19 = SHAPE_DEFINITION_REPRESENTATION ( #35, #124 ) ;
#20 = DIRECTION ( 'NONE',  ( -0.000000000000000000, -0.000000000000000000, -1.000000000000000000 ) ) ;
#21 = CC_DESIGN_APPROVAL ( #188, ( #344 ) ) ;
#22 = CARTESIAN_POINT ( 'NONE',  ( 4.000000000000000000, 4.898587196589412829E-16, 0.000000000000000000 ) ) ;
#23 = COORDINATED_UNIVERSAL_TIME_OFFSET ( 1, 0, .AHEAD. ) ;
#24 = ADVANCED_FACE ( 'NONE', ( #364, #91 ), #361, .T. ) ;
#25 = CIRCLE ( 'NONE', #99, 6.700000000000001066 ) ;
#26 = AXIS2_PLACEMENT_3D ( 'NONE', #207, #215, #92 ) ;
#27 = ORIENTED_EDGE ( 'NONE', *, *, #117, .T. ) ;
#28 = CARTESIAN_POINT ( 'NONE',  ( 0.000000000000000000, 0.000000000000000000, 7.700000000000040146 ) ) ;
#29 = EDGE_LOOP ( 'NONE', ( #319, #225, #362, #108 ) ) ;
#30 = VERTEX_POINT ( 'NONE', #331 ) ;
#31 = APPROVAL_STATUS ( 'not_yet_approved' ) ;
#32 = ORIENTED_EDGE ( 'NONE', *, *, #54, .T. ) ;
#33 = FACE_BOUND ( 'NONE', #288, .T. ) ;
#34 = CARTESIAN_POINT ( 'NONE',  ( -6.000000000000000888, 0.000000000000000000, 557.0000000000000000 ) ) ;
#35 = PRODUCT_DEFINITION_SHAPE ( 'NONE', 'NONE',  #112 ) ;
#36 = DIRECTION ( 'NONE',  ( 0.000000000000000000, -1.000000000000000000, 0.000000000000000000 ) ) ;
#37 = CARTESIAN_POINT ( 'NONE',  ( 0.000000000000000000, 0.000000000000000000, 7.700000000000040146 ) ) ;
#38 = DIRECTION ( 'NONE',  ( 0.000000000000000000, 0.000000000000000000, 1.000000000000000000 ) ) ;
#39 = FACE_BOUND ( 'NONE', #111, .T. ) ;
#40 = AXIS2_PLACEMENT_3D ( 'NONE', #297, #205, #294 ) ;
#41 = LINE ( 'NONE', #116, #206 ) ;
#42 = EDGE_CURVE ( 'NONE', #9, #355, #329, .T. ) ;
#43 = CARTESIAN_POINT ( 'NONE',  ( -6.000000000000000888, 0.000000000000000000, 557.0000000000000000 ) ) ;
#44 = CIRCLE ( 'NONE', #304, 6.700000000000001066 ) ;
#45 = CARTESIAN_POINT ( 'NONE',  ( 0.000000000000000000, 0.000000000000000000, 0.000000000000000000 ) ) ;
#46 = DIRECTION ( 'NONE',  ( 1.000000000000000000, 0.000000000000000000, 0.000000000000000000 ) ) ;
#47 = CARTESIAN_POINT ( 'NONE',  ( 6.000000000000000888, 7.347880794884120722E-16, 557.0000000000000000 ) ) ;
#48 = ORIENTED_EDGE ( 'NONE', *, *, #278, .T. ) ;
#49 = PERSON_AND_ORGANIZATION ( #371, #71 ) ;
#50 = UNCERTAINTY_MEASURE_WITH_UNIT (LENGTH_MEASURE( 1.000000000000000082E-05 ), #303, 'distance_accuracy_value', 'NONE');
#51 = CIRCLE ( 'NONE', #208, 6.000000000000000888 ) ;
#52 = CARTESIAN_POINT ( 'NONE',  ( 0.000000000000000000, 0.000000000000000000, 557.0000000000000000 ) ) ;
#53 = VERTEX_POINT ( 'NONE', #203 ) ;
#54 = EDGE_CURVE ( 'NONE', #55, #53, #84, .T. ) ;
#55 = VERTEX_POINT ( 'NONE', #332 ) ;
#56 = ORIENTED_EDGE ( 'NONE', *, *, #104, .T. ) ;
#57 = ORIENTED_EDGE ( 'NONE', *, *, #246, .F. ) ;
#58 = PERSON_AND_ORGANIZATION ( #371, #71 ) ;
#59 = DIRECTION ( 'NONE',  ( 0.000000000000000000, 0.000000000000000000, 1.000000000000000000 ) ) ;
#60 = FACE_OUTER_BOUND ( 'NONE', #119, .T. ) ;
#61 = FACE_OUTER_BOUND ( 'NONE', #83, .T. ) ;
#62 = DIRECTION ( 'NONE',  ( 0.000000000000000000, 0.000000000000000000, 1.000000000000000000 ) ) ;
#63 = EDGE_CURVE ( 'NONE', #53, #6, #41, .T. ) ;
#64 = VERTEX_POINT ( 'NONE', #150 ) ;
#65 = ORIENTED_EDGE ( 'NONE', *, *, #283, .T. ) ;
#66 = EDGE_CURVE ( 'NONE', #64, #285, #301, .T. ) ;
#67 = DIRECTION ( 'NONE',  ( -0.000000000000000000, -0.000000000000000000, -1.000000000000000000 ) ) ;
#68 = CARTESIAN_POINT ( 'NONE',  ( 0.000000000000000000, 0.000000000000000000, 7.000000000000000000 ) ) ;
#69 = LINE ( 'NONE', #47, #336 ) ;
#70 = DIRECTION ( 'NONE',  ( 0.000000000000000000, 0.000000000000000000, -1.000000000000000000 ) ) ;
#71 = ORGANIZATION ( 'NEURÈENÝ', 'NEURÈENÝ', '' ) ;
#72 = DIRECTION ( 'NONE',  ( 0.000000000000000000, 0.000000000000000000, 1.000000000000000000 ) ) ;
#73 = DIRECTION ( 'NONE',  ( 1.000000000000000000, 0.000000000000000000, 0.000000000000000000 ) ) ;
#74 = ORIENTED_EDGE ( 'NONE', *, *, #250, .F. ) ;
#75 = APPROVAL_STATUS ( 'not_yet_approved' ) ;
#76 = AXIS2_PLACEMENT_3D ( 'NONE', #12, #120, #211 ) ;
#77 = EDGE_CURVE ( 'NONE', #64, #210, #335, .T. ) ;
#78 = ORIENTED_EDGE ( 'NONE', *, *, #132, .F. ) ;
#79 = VECTOR ( 'NONE', #67, 1000.000000000000000 ) ;
#80 = ORIENTED_EDGE ( 'NONE', *, *, #334, .T. ) ;
#81 = DATE_AND_TIME ( #194, #125 ) ;
#82 = EDGE_LOOP ( 'NONE', ( #56, #65 ) ) ;
#83 = EDGE_LOOP ( 'NONE', ( #317, #315, #2, #165 ) ) ;
#84 = CIRCLE ( 'NONE', #76, 4.000000000000000000 ) ;
#85 = ADVANCED_FACE ( 'NONE', ( #330 ), #293, .F. ) ;
#86 = CARTESIAN_POINT ( 'NONE',  ( 0.000000000000000000, 0.000000000000000000, 7.000000000000000000 ) ) ;
#87 = DIRECTION ( 'NONE',  ( 1.224646799147353207E-16, 1.000000000000000000, -0.000000000000000000 ) ) ;
#88 = PRODUCT ( '5f85', '5f85', '', ( #377 ) ) ;
#89 = DIRECTION ( 'NONE',  ( 0.000000000000000000, 0.000000000000000000, 1.000000000000000000 ) ) ;
#90 = CARTESIAN_POINT ( 'NONE',  ( 0.000000000000000000, 0.000000000000000000, 557.0000000000000000 ) ) ;
#91 = FACE_OUTER_BOUND ( 'NONE', #82, .T. ) ;
#92 = DIRECTION ( 'NONE',  ( -1.000000000000000000, 0.000000000000000000, 0.000000000000000000 ) ) ;
#93 = DIRECTION ( 'NONE',  ( 1.000000000000000000, 0.000000000000000000, 0.000000000000000000 ) ) ;
#94 = CARTESIAN_POINT ( 'NONE',  ( 0.000000000000000000, 0.000000000000000000, 7.000000000000000000 ) ) ;
#95 = CARTESIAN_POINT ( 'NONE',  ( 0.000000000000000000, 0.000000000000000000, 557.0000000000000000 ) ) ;
#96 = DIRECTION ( 'NONE',  ( -0.000000000000000000, -0.000000000000000000, -1.000000000000000000 ) ) ;
#97 = PERSON_AND_ORGANIZATION ( #371, #71 ) ;
#98 = DIRECTION ( 'NONE',  ( 1.000000000000000000, 0.000000000000000000, 0.000000000000000000 ) ) ;
#99 = AXIS2_PLACEMENT_3D ( 'NONE', #369, #96, #98 ) ;
#100 = LOCAL_TIME ( 16, 37, 24.00000000000000000, #23 ) ;
#101 = CARTESIAN_POINT ( 'NONE',  ( 4.000000000000000000, 4.898587196589412829E-16, 557.0000000000000000 ) ) ;
#102 = APPLICATION_CONTEXT ( 'configuration controlled 3d designs of mechanical parts and assemblies' ) ;
#103 = CARTESIAN_POINT ( 'NONE',  ( 0.000000000000000000, 0.000000000000000000, 0.000000000000000000 ) ) ;
#104 = EDGE_CURVE ( 'NONE', #30, #166, #363, .T. ) ;
#105 = EDGE_LOOP ( 'NONE', ( #135, #381, #346, #74 ) ) ;
#106 = AXIS2_PLACEMENT_3D ( 'NONE', #243, #149, #232 ) ;
#107 = AXIS2_PLACEMENT_3D ( 'NONE', #302, #148, #270 ) ;
#108 = ORIENTED_EDGE ( 'NONE', *, *, #77, .F. ) ;
#109 = DATE_AND_TIME ( #358, #236 ) ;
#110 = CC_DESIGN_SECURITY_CLASSIFICATION ( #161, ( #344 ) ) ;
#111 = EDGE_LOOP ( 'NONE', ( #57, #263 ) ) ;
#112 = PRODUCT_DEFINITION ( 'NEZNÁMÝ', '', #344, #253 ) ;
#113 = VERTEX_POINT ( 'NONE', #13 ) ;
#114 = DIRECTION ( 'NONE',  ( -0.000000000000000000, -0.000000000000000000, -1.000000000000000000 ) ) ;
#115 = VECTOR ( 'NONE', #339, 1000.000000000000000 ) ;
#116 = CARTESIAN_POINT ( 'NONE',  ( -4.000000000000000000, 0.000000000000000000, 557.0000000000000000 ) ) ;
#117 = EDGE_CURVE ( 'NONE', #113, #327, #176, .T. ) ;
#118 = DIRECTION ( 'NONE',  ( 1.000000000000000000, 0.000000000000000000, 0.000000000000000000 ) ) ;
#119 = EDGE_LOOP ( 'NONE', ( #7, #141 ) ) ;
#120 = DIRECTION ( 'NONE',  ( 0.000000000000000000, 0.000000000000000000, 1.000000000000000000 ) ) ;
#121 = LOCAL_TIME ( 16, 37, 24.00000000000000000, #228 ) ;
#122 = AXIS2_PLACEMENT_3D ( 'NONE', #324, #59, #169 ) ;
#123 = DIRECTION ( 'NONE',  ( 1.000000000000000000, 0.000000000000000000, 0.000000000000000000 ) ) ;
#124 = ADVANCED_BREP_SHAPE_REPRESENTATION ( '5f85', ( #186, #274 ), #244 ) ;
#125 = LOCAL_TIME ( 16, 37, 24.00000000000000000, #238 ) ;
#126 = EDGE_CURVE ( 'NONE', #210, #162, #25, .T. ) ;
#127 = DIRECTION ( 'NONE',  ( 1.000000000000000000, 0.000000000000000000, 0.000000000000000000 ) ) ;
#128 = APPLICATION_PROTOCOL_DEFINITION ( 'international standard', 'config_control_design', 1994, #333 ) ;
#129 = CARTESIAN_POINT ( 'NONE',  ( 10.00000000000000000, 1.224646799147353256E-15, 7.000000000000000000 ) ) ;
#130 = AXIS2_PLACEMENT_3D ( 'NONE', #90, #272, #93 ) ;
#131 = CYLINDRICAL_SURFACE ( 'NONE', #372, 6.000000000000000888 ) ;
#132 = EDGE_CURVE ( 'NONE', #9, #285, #217, .T. ) ;
#133 = VECTOR ( 'NONE', #313, 1000.000000000000000 ) ;
#134 = CYLINDRICAL_SURFACE ( 'NONE', #185, 4.000000000000000000 ) ;
#135 = ORIENTED_EDGE ( 'NONE', *, *, #290, .F. ) ;
#136 = DATE_TIME_ROLE ( 'creation_date' ) ;
#137 = CARTESIAN_POINT ( 'NONE',  ( 0.000000000000000000, 0.000000000000000000, 557.0000000000000000 ) ) ;
#138 = ORIENTED_EDGE ( 'NONE', *, *, #63, .F. ) ;
#139 = PERSON_AND_ORGANIZATION_ROLE ( 'classification_officer' ) ;
#140 = CLOSED_SHELL ( 'NONE', ( #198, #85, #326, #368, #180, #24, #360, #311, #15, #321, #354 ) ) ;
#141 = ORIENTED_EDGE ( 'NONE', *, *, #218, .T. ) ;
#142 = AXIS2_PLACEMENT_3D ( 'NONE', #137, #328, #171 ) ;
#143 = VERTEX_POINT ( 'NONE', #22 ) ;
#144 = APPROVAL_ROLE ( '' ) ;
#145 = ORIENTED_EDGE ( 'NONE', *, *, #126, .T. ) ;
#146 = PLANE ( 'NONE',  #209 ) ;
#147 = EDGE_CURVE ( 'NONE', #327, #113, #273, .T. ) ;
#148 = DIRECTION ( 'NONE',  ( 0.000000000000000000, 0.000000000000000000, 1.000000000000000000 ) ) ;
#149 = DIRECTION ( 'NONE',  ( -0.000000000000000000, -0.000000000000000000, -1.000000000000000000 ) ) ;
#150 = CARTESIAN_POINT ( 'NONE',  ( 6.000000000000000888, 7.347880794884120722E-16, 7.700000000000040146 ) ) ;
#151 = AXIS2_PLACEMENT_3D ( 'NONE', #94, #20, #343 ) ;
#152 = APPROVAL_PERSON_ORGANIZATION ( #97, #18, #306 ) ;
#153 = CARTESIAN_POINT ( 'NONE',  ( 0.000000000000000000, 0.000000000000000000, 557.0000000000000000 ) ) ;
#154 = FACE_OUTER_BOUND ( 'NONE', #258, .T. ) ;
#155 = DIRECTION ( 'NONE',  ( 1.000000000000000000, 0.000000000000000000, 0.000000000000000000 ) ) ;
#156 = APPROVAL ( #31, 'NEURÈENÝ' ) ;
#157 = DIRECTION ( 'NONE',  ( -0.000000000000000000, -0.000000000000000000, -1.000000000000000000 ) ) ;
#158 = DIRECTION ( 'NONE',  ( 1.000000000000000000, 0.000000000000000000, 0.000000000000000000 ) ) ;
#159 = ORIENTED_EDGE ( 'NONE', *, *, #147, .F. ) ;
#160 = CIRCLE ( 'NONE', #261, 10.00000000000000000 ) ;
#161 = SECURITY_CLASSIFICATION ( '', '', #231 ) ;
#162 = VERTEX_POINT ( 'NONE', #249 ) ;
#163 = PERSON_AND_ORGANIZATION_ROLE ( 'design_supplier' ) ;
#164 = DATE_TIME_ROLE ( 'classification_date' ) ;
#165 = ORIENTED_EDGE ( 'NONE', *, *, #340, .T. ) ;
#166 = VERTEX_POINT ( 'NONE', #129 ) ;
#167 = FACE_OUTER_BOUND ( 'NONE', #199, .T. ) ;
#168 = EDGE_CURVE ( 'NONE', #166, #327, #376, .T. ) ;
#169 = DIRECTION ( 'NONE',  ( 1.000000000000000000, 0.000000000000000000, 0.000000000000000000 ) ) ;
#170 = DIRECTION ( 'NONE',  ( 0.000000000000000000, 0.000000000000000000, 1.000000000000000000 ) ) ;
#171 = DIRECTION ( 'NONE',  ( -1.000000000000000000, 0.000000000000000000, 0.000000000000000000 ) ) ;
#172 = CC_DESIGN_APPROVAL ( #18, ( #112 ) ) ;
#173 = ORIENTED_EDGE ( 'NONE', *, *, #104, .F. ) ;
#174 = ORIENTED_EDGE ( 'NONE', *, *, #117, .F. ) ;
#175 = DIRECTION ( 'NONE',  ( 0.000000000000000000, 0.000000000000000000, -1.000000000000000000 ) ) ;
#176 = CIRCLE ( 'NONE', #191, 10.00000000000000000 ) ;
#177 = CARTESIAN_POINT ( 'NONE',  ( 6.700000000000001066, 0.000000000000000000, 7.000000000000020428 ) ) ;
#178 = VECTOR ( 'NONE', #248, 1000.000000000000000 ) ;
#179 = APPLICATION_PROTOCOL_DEFINITION ( 'international standard', 'config_control_design', 1994, #102 ) ;
#180 = ADVANCED_FACE ( 'NONE', ( #154 ), #378, .T. ) ;
#181 = APPROVAL_STATUS ( 'not_yet_approved' ) ;
#182 = FACE_OUTER_BOUND ( 'NONE', #255, .T. ) ;
#183 = AXIS2_PLACEMENT_3D ( 'NONE', #37, #170, #118 ) ;
#184 = CALENDAR_DATE ( 2022, 8, 7 ) ;
#185 = AXIS2_PLACEMENT_3D ( 'NONE', #52, #1, #224 ) ;
#186 = MANIFOLD_SOLID_BREP ( 'Odebrat vysunutím3', #140 ) ;
#187 = DIRECTION ( 'NONE',  ( 0.000000000000000000, 0.000000000000000000, 1.000000000000000000 ) ) ;
#188 = APPROVAL ( #181, 'NEURÈENÝ' ) ;
#189 = ORIENTED_EDGE ( 'NONE', *, *, #10, .F. ) ;
#190 = APPROVAL_DATE_TIME ( #219, #18 ) ;
#191 = AXIS2_PLACEMENT_3D ( 'NONE', #240, #62, #127 ) ;
#192 = FACE_OUTER_BOUND ( 'NONE', #105, .T. ) ;
#193 = EDGE_LOOP ( 'NONE', ( #260, #32, #352, #353 ) ) ;
#194 = CALENDAR_DATE ( 2022, 8, 7 ) ;
#195 = CC_DESIGN_APPROVAL ( #156, ( #161 ) ) ;
#196 = DIRECTION ( 'NONE',  ( 1.000000000000000000, 0.000000000000000000, 0.000000000000000000 ) ) ;
#197 = ORIENTED_EDGE ( 'NONE', *, *, #168, .T. ) ;
#198 = ADVANCED_FACE ( 'NONE', ( #182 ), #310, .F. ) ;
#199 = EDGE_LOOP ( 'NONE', ( #298, #48, #222, #78 ) ) ;
#200 = CIRCLE ( 'NONE', #5, 4.000000000000000000 ) ;
#201 = APPROVAL_PERSON_ORGANIZATION ( #287, #156, #144 ) ;
#202 = DIRECTION ( 'NONE',  ( 0.000000000000000000, 0.000000000000000000, -1.000000000000000000 ) ) ;
#203 = CARTESIAN_POINT ( 'NONE',  ( -4.000000000000000000, 0.000000000000000000, 557.0000000000000000 ) ) ;
#204 = DIRECTION ( 'NONE',  ( 0.000000000000000000, 0.000000000000000000, 1.000000000000000000 ) ) ;
#205 = DIRECTION ( 'NONE',  ( 0.000000000000000000, 0.000000000000000000, 1.000000000000000000 ) ) ;
#206 = VECTOR ( 'NONE', #175, 1000.000000000000000 ) ;
#207 = CARTESIAN_POINT ( 'NONE',  ( 0.000000000000000000, 0.000000000000000000, 7.000000000000000000 ) ) ;
#208 = AXIS2_PLACEMENT_3D ( 'NONE', #153, #276, #17 ) ;
#209 = AXIS2_PLACEMENT_3D ( 'NONE', #271, #38, #299 ) ;
#210 = VERTEX_POINT ( 'NONE', #177 ) ;
#211 = DIRECTION ( 'NONE',  ( 1.000000000000000000, 0.000000000000000000, 0.000000000000000000 ) ) ;
#212 = EDGE_CURVE ( 'NONE', #6, #143, #200, .T. ) ;
#213 = DIRECTION ( 'NONE',  ( 0.000000000000000000, 0.000000000000000000, 1.000000000000000000 ) ) ;
#214 = CIRCLE ( 'NONE', #268, 0.7000000000000000666 ) ;
#215 = DIRECTION ( 'NONE',  ( -0.000000000000000000, -0.000000000000000000, -1.000000000000000000 ) ) ;
#216 = CARTESIAN_POINT ( 'NONE',  ( -10.00000000000000000, 0.000000000000000000, 7.000000000000000000 ) ) ;
#217 = LINE ( 'NONE', #43, #79 ) ;
#218 = EDGE_CURVE ( 'NONE', #355, #9, #51, .T. ) ;
#219 = DATE_AND_TIME ( #184, #289 ) ;
#220 = DIRECTION ( 'NONE',  ( 0.000000000000000000, 0.000000000000000000, 1.000000000000000000 ) ) ;
#221 = CARTESIAN_POINT ( 'NONE',  ( -6.700000000000001066, 8.205133554287267548E-16, 7.700000000000040146 ) ) ;
#222 = ORIENTED_EDGE ( 'NONE', *, *, #66, .T. ) ;
#223 = CC_DESIGN_PERSON_AND_ORGANIZATION_ASSIGNMENT ( #233, #318, ( #344 ) ) ;
#224 = DIRECTION ( 'NONE',  ( -1.000000000000000000, 0.000000000000000000, 0.000000000000000000 ) ) ;
#225 = ORIENTED_EDGE ( 'NONE', *, *, #290, .T. ) ;
#226 = APPROVAL_ROLE ( '' ) ;
#227 = ORIENTED_EDGE ( 'NONE', *, *, #250, .T. ) ;
#228 = COORDINATED_UNIVERSAL_TIME_OFFSET ( 1, 0, .AHEAD. ) ;
#229 = ORIENTED_EDGE ( 'NONE', *, *, #256, .T. ) ;
#230 = CC_DESIGN_DATE_AND_TIME_ASSIGNMENT ( #284, #136, ( #112 ) ) ;
#231 = SECURITY_CLASSIFICATION_LEVEL ( 'unclassified' ) ;
#232 = DIRECTION ( 'NONE',  ( 1.000000000000000000, 0.000000000000000000, 0.000000000000000000 ) ) ;
#233 = PERSON_AND_ORGANIZATION ( #371, #71 ) ;
#234 = CARTESIAN_POINT ( 'NONE',  ( -6.000000000000000888, 0.000000000000000000, 7.700000000000040146 ) ) ;
#235 = CIRCLE ( 'NONE', #252, 4.000000000000000000 ) ;
#236 = LOCAL_TIME ( 16, 37, 24.00000000000000000, #259 ) ;
#237 = CARTESIAN_POINT ( 'NONE',  ( -4.000000000000000000, 0.000000000000000000, 0.000000000000000000 ) ) ;
#238 = COORDINATED_UNIVERSAL_TIME_OFFSET ( 1, 0, .AHEAD. ) ;
#239 = DIRECTION ( 'NONE',  ( -0.000000000000000000, -0.000000000000000000, -1.000000000000000000 ) ) ;
#240 = CARTESIAN_POINT ( 'NONE',  ( 0.000000000000000000, 0.000000000000000000, 0.000000000000000000 ) ) ;
#241 = FACE_OUTER_BOUND ( 'NONE', #348, .T. ) ;
#242 = CC_DESIGN_PERSON_AND_ORGANIZATION_ASSIGNMENT ( #58, #139, ( #161 ) ) ;
#243 = CARTESIAN_POINT ( 'NONE',  ( 0.000000000000000000, 0.000000000000000000, 0.000000000000000000 ) ) ;
#244 =( GEOMETRIC_REPRESENTATION_CONTEXT ( 3 ) GLOBAL_UNCERTAINTY_ASSIGNED_CONTEXT ( ( #50 ) ) GLOBAL_UNIT_ASSIGNED_CONTEXT ( ( #303, #16, #296 ) ) REPRESENTATION_CONTEXT ( 'NONE', 'WORKASPACE' ) );
#245 = ORIENTED_EDGE ( 'NONE', *, *, #147, .T. ) ;
#246 = EDGE_CURVE ( 'NONE', #53, #55, #235, .T. ) ;
#247 = AXIS2_PLACEMENT_3D ( 'NONE', #357, #36, #202 ) ;
#248 = DIRECTION ( 'NONE',  ( -0.000000000000000000, -0.000000000000000000, -1.000000000000000000 ) ) ;
#249 = CARTESIAN_POINT ( 'NONE',  ( -6.700000000000001066, 8.205133554287267548E-16, 7.000000000000020428 ) ) ;
#250 = EDGE_CURVE ( 'NONE', #162, #210, #44, .T. ) ;
#251 = CALENDAR_DATE ( 2022, 8, 7 ) ;
#252 = AXIS2_PLACEMENT_3D ( 'NONE', #95, #213, #338 ) ;
#253 = DESIGN_CONTEXT ( 'detailed design', #333, 'design' ) ;
#254 = CARTESIAN_POINT ( 'NONE',  ( 0.000000000000000000, 0.000000000000000000, 7.700000000000040146 ) ) ;
#255 = EDGE_LOOP ( 'NONE', ( #322, #80, #266, #138 ) ) ;
#256 = EDGE_CURVE ( 'NONE', #30, #113, #374, .T. ) ;
#257 = CARTESIAN_POINT ( 'NONE',  ( 10.00000000000000000, 1.224646799147353256E-15, 0.000000000000000000 ) ) ;
#258 = EDGE_LOOP ( 'NONE', ( #291, #173, #229, #27 ) ) ;
#259 = COORDINATED_UNIVERSAL_TIME_OFFSET ( 1, 0, .AHEAD. ) ;
#260 = ORIENTED_EDGE ( 'NONE', *, *, #334, .F. ) ;
#261 = AXIS2_PLACEMENT_3D ( 'NONE', #267, #204, #158 ) ;
#262 = ORIENTED_EDGE ( 'NONE', *, *, #283, .F. ) ;
#263 = ORIENTED_EDGE ( 'NONE', *, *, #54, .F. ) ;
#264 = CC_DESIGN_PERSON_AND_ORGANIZATION_ASSIGNMENT ( #49, #341, ( #112 ) ) ;
#265 = PERSON_AND_ORGANIZATION ( #371, #71 ) ;
#266 = ORIENTED_EDGE ( 'NONE', *, *, #10, .T. ) ;
#267 = CARTESIAN_POINT ( 'NONE',  ( 0.000000000000000000, 0.000000000000000000, 7.000000000000000000 ) ) ;
#268 = AXIS2_PLACEMENT_3D ( 'NONE', #221, #87, #347 ) ;
#269 = DIRECTION ( 'NONE',  ( 1.000000000000000000, 0.000000000000000000, 0.000000000000000000 ) ) ;
#270 = DIRECTION ( 'NONE',  ( 1.000000000000000000, 0.000000000000000000, -0.000000000000000000 ) ) ;
#271 = CARTESIAN_POINT ( 'NONE',  ( 0.000000000000000000, 0.000000000000000000, 0.000000000000000000 ) ) ;
#272 = DIRECTION ( 'NONE',  ( 0.000000000000000000, 0.000000000000000000, 1.000000000000000000 ) ) ;
#273 = CIRCLE ( 'NONE', #323, 10.00000000000000000 ) ;
#274 = AXIS2_PLACEMENT_3D ( 'NONE', #103, #72, #155 ) ;
#275 = PLANE ( 'NONE',  #107 ) ;
#276 = DIRECTION ( 'NONE',  ( 0.000000000000000000, 0.000000000000000000, 1.000000000000000000 ) ) ;
#277 = DIRECTION ( 'NONE',  ( -0.000000000000000000, -0.000000000000000000, -1.000000000000000000 ) ) ;
#278 = EDGE_CURVE ( 'NONE', #355, #64, #69, .T. ) ;
#279 = CARTESIAN_POINT ( 'NONE',  ( 0.000000000000000000, 0.000000000000000000, 557.0000000000000000 ) ) ;
#280 = PERSON_AND_ORGANIZATION ( #371, #71 ) ;
#281 = FACE_OUTER_BOUND ( 'NONE', #193, .T. ) ;
#282 = EDGE_LOOP ( 'NONE', ( #174, #159 ) ) ;
#283 = EDGE_CURVE ( 'NONE', #166, #30, #160, .T. ) ;
#284 = DATE_AND_TIME ( #251, #100 ) ;
#285 = VERTEX_POINT ( 'NONE', #234 ) ;
#286 = ORIENTED_EDGE ( 'NONE', *, *, #256, .F. ) ;
#287 = PERSON_AND_ORGANIZATION ( #371, #71 ) ;
#288 = EDGE_LOOP ( 'NONE', ( #14, #189 ) ) ;
#289 = LOCAL_TIME ( 16, 37, 24.00000000000000000, #375 ) ;
#290 = EDGE_CURVE ( 'NONE', #285, #162, #214, .T. ) ;
#291 = ORIENTED_EDGE ( 'NONE', *, *, #168, .F. ) ;
#292 = DIRECTION ( 'NONE',  ( 0.000000000000000000, 0.000000000000000000, 1.000000000000000000 ) ) ;
#293 = TOROIDAL_SURFACE ( 'NONE', #122, 6.700000000000001066, 0.6999999999999999556 ) ;
#294 = DIRECTION ( 'NONE',  ( 1.000000000000000000, 0.000000000000000000, -0.000000000000000000 ) ) ;
#295 = CC_DESIGN_DATE_AND_TIME_ASSIGNMENT ( #109, #164, ( #161 ) ) ;
#296 =( NAMED_UNIT ( * ) SI_UNIT ( $, .STERADIAN. ) SOLID_ANGLE_UNIT ( ) );
#297 = CARTESIAN_POINT ( 'NONE',  ( 0.000000000000000000, 0.000000000000000000, 7.000000000000000000 ) ) ;
#298 = ORIENTED_EDGE ( 'NONE', *, *, #218, .F. ) ;
#299 = DIRECTION ( 'NONE',  ( 1.000000000000000000, 0.000000000000000000, -0.000000000000000000 ) ) ;
#300 = CC_DESIGN_PERSON_AND_ORGANIZATION_ASSIGNMENT ( #280, #308, ( #88 ) ) ;
#301 = CIRCLE ( 'NONE', #183, 6.000000000000000888 ) ;
#302 = CARTESIAN_POINT ( 'NONE',  ( 0.000000000000000000, 0.000000000000000000, 557.0000000000000000 ) ) ;
#303 =( LENGTH_UNIT ( ) NAMED_UNIT ( * ) SI_UNIT ( .MILLI., .METRE. ) );
#304 = AXIS2_PLACEMENT_3D ( 'NONE', #68, #277, #123 ) ;
#305 = DIRECTION ( 'NONE',  ( 1.000000000000000000, 0.000000000000000000, 0.000000000000000000 ) ) ;
#306 = APPROVAL_ROLE ( '' ) ;
#307 = CARTESIAN_POINT ( 'NONE',  ( 0.000000000000000000, 0.000000000000000000, 0.000000000000000000 ) ) ;
#308 = PERSON_AND_ORGANIZATION_ROLE ( 'design_owner' ) ;
#309 = AXIS2_PLACEMENT_3D ( 'NONE', #28, #220, #196 ) ;
#310 = CYLINDRICAL_SURFACE ( 'NONE', #351, 4.000000000000000000 ) ;
#311 = ADVANCED_FACE ( 'NONE', ( #61 ), #131, .T. ) ;
#312 = EDGE_LOOP ( 'NONE', ( #145, #227 ) ) ;
#313 = DIRECTION ( 'NONE',  ( 0.000000000000000000, 0.000000000000000000, -1.000000000000000000 ) ) ;
#314 = TOROIDAL_SURFACE ( 'NONE', #366, 6.700000000000001066, 0.6999999999999999556 ) ;
#315 = ORIENTED_EDGE ( 'NONE', *, *, #42, .F. ) ;
#316 = CARTESIAN_POINT ( 'NONE',  ( 6.000000000000000888, 7.347880794884120722E-16, 557.0000000000000000 ) ) ;
#317 = ORIENTED_EDGE ( 'NONE', *, *, #278, .F. ) ;
#318 = PERSON_AND_ORGANIZATION_ROLE ( 'creator' ) ;
#319 = ORIENTED_EDGE ( 'NONE', *, *, #340, .F. ) ;
#320 = CALENDAR_DATE ( 2022, 8, 7 ) ;
#321 = ADVANCED_FACE ( 'NONE', ( #192 ), #314, .F. ) ;
#322 = ORIENTED_EDGE ( 'NONE', *, *, #246, .T. ) ;
#323 = AXIS2_PLACEMENT_3D ( 'NONE', #307, #187, #46 ) ;
#324 = CARTESIAN_POINT ( 'NONE',  ( 0.000000000000000000, 0.000000000000000000, 7.700000000000040146 ) ) ;
#325 = CARTESIAN_POINT ( 'NONE',  ( 0.000000000000000000, 0.000000000000000000, 557.0000000000000000 ) ) ;
#326 = ADVANCED_FACE ( 'NONE', ( #167 ), #380, .T. ) ;
#327 = VERTEX_POINT ( 'NONE', #257 ) ;
#328 = DIRECTION ( 'NONE',  ( -0.000000000000000000, -0.000000000000000000, -1.000000000000000000 ) ) ;
#329 = CIRCLE ( 'NONE', #130, 6.000000000000000888 ) ;
#330 = FACE_OUTER_BOUND ( 'NONE', #29, .T. ) ;
#331 = CARTESIAN_POINT ( 'NONE',  ( -10.00000000000000000, 0.000000000000000000, 7.000000000000000000 ) ) ;
#332 = CARTESIAN_POINT ( 'NONE',  ( 4.000000000000000000, 4.898587196589412829E-16, 557.0000000000000000 ) ) ;
#333 = APPLICATION_CONTEXT ( 'configuration controlled 3d designs of mechanical parts and assemblies' ) ;
#334 = EDGE_CURVE ( 'NONE', #55, #143, #379, .T. ) ;
#335 = CIRCLE ( 'NONE', #247, 0.7000000000000000666 ) ;
#336 = VECTOR ( 'NONE', #114, 1000.000000000000000 ) ;
#337 = APPROVAL_PERSON_ORGANIZATION ( #349, #188, #226 ) ;
#338 = DIRECTION ( 'NONE',  ( 1.000000000000000000, 0.000000000000000000, 0.000000000000000000 ) ) ;
#339 = DIRECTION ( 'NONE',  ( -0.000000000000000000, -0.000000000000000000, -1.000000000000000000 ) ) ;
#340 = EDGE_CURVE ( 'NONE', #285, #64, #359, .T. ) ;
#341 = PERSON_AND_ORGANIZATION_ROLE ( 'creator' ) ;
#342 = CARTESIAN_POINT ( 'NONE',  ( 10.00000000000000000, 1.224646799147353256E-15, 7.000000000000000000 ) ) ;
#343 = DIRECTION ( 'NONE',  ( -1.000000000000000000, 0.000000000000000000, 0.000000000000000000 ) ) ;
#344 = PRODUCT_DEFINITION_FORMATION_WITH_SPECIFIED_SOURCE ( 'LIBOVOLNÝ', '', #88, .NOT_KNOWN. ) ;
#345 = DIRECTION ( 'NONE',  ( -1.000000000000000000, 0.000000000000000000, 0.000000000000000000 ) ) ;
#346 = ORIENTED_EDGE ( 'NONE', *, *, #77, .T. ) ;
#347 = DIRECTION ( 'NONE',  ( -1.000000000000000000, 1.224646799147353454E-16, 0.000000000000000000 ) ) ;
#348 = EDGE_LOOP ( 'NONE', ( #262, #197, #245, #286 ) ) ;
#349 = PERSON_AND_ORGANIZATION ( #371, #71 ) ;
#350 = FACE_OUTER_BOUND ( 'NONE', #282, .T. ) ;
#351 = AXIS2_PLACEMENT_3D ( 'NONE', #279, #70, #370 ) ;
#352 = ORIENTED_EDGE ( 'NONE', *, *, #63, .T. ) ;
#353 = ORIENTED_EDGE ( 'NONE', *, *, #212, .T. ) ;
#354 = ADVANCED_FACE ( 'NONE', ( #281 ), #134, .F. ) ;
#355 = VERTEX_POINT ( 'NONE', #316 ) ;
#356 = DATE_AND_TIME ( #320, #121 ) ;
#357 = CARTESIAN_POINT ( 'NONE',  ( 6.700000000000001066, 0.000000000000000000, 7.700000000000040146 ) ) ;
#358 = CALENDAR_DATE ( 2022, 8, 7 ) ;
#359 = CIRCLE ( 'NONE', #309, 6.000000000000000888 ) ;
#360 = ADVANCED_FACE ( 'NONE', ( #33, #350 ), #146, .F. ) ;
#361 = PLANE ( 'NONE',  #40 ) ;
#362 = ORIENTED_EDGE ( 'NONE', *, *, #126, .F. ) ;
#363 = CIRCLE ( 'NONE', #11, 10.00000000000000000 ) ;
#364 = FACE_BOUND ( 'NONE', #312, .T. ) ;
#365 = CYLINDRICAL_SURFACE ( 'NONE', #26, 10.00000000000000000 ) ;
#366 = AXIS2_PLACEMENT_3D ( 'NONE', #254, #89, #73 ) ;
#367 = APPROVAL_DATE_TIME ( #356, #156 ) ;
#368 = ADVANCED_FACE ( 'NONE', ( #241 ), #365, .T. ) ;
#369 = CARTESIAN_POINT ( 'NONE',  ( 0.000000000000000000, 0.000000000000000000, 7.000000000000000000 ) ) ;
#370 = DIRECTION ( 'NONE',  ( -1.000000000000000000, 0.000000000000000000, 0.000000000000000000 ) ) ;
#371 = PERSON ( 'NEURÈENÝ', 'NEURÈENÝ', 'NEURÈENÝ', ('NEURÈENÝ'), ('NEURÈENÝ'), ('NEURÈENÝ') ) ;
#372 = AXIS2_PLACEMENT_3D ( 'NONE', #325, #239, #345 ) ;
#373 = CC_DESIGN_PERSON_AND_ORGANIZATION_ASSIGNMENT ( #265, #163, ( #344 ) ) ;
#374 = LINE ( 'NONE', #216, #115 ) ;
#375 = COORDINATED_UNIVERSAL_TIME_OFFSET ( 1, 0, .AHEAD. ) ;
#376 = LINE ( 'NONE', #342, #178 ) ;
#377 = MECHANICAL_CONTEXT ( 'NONE', #102, 'mechanical' ) ;
#378 = CYLINDRICAL_SURFACE ( 'NONE', #151, 10.00000000000000000 ) ;
#379 = LINE ( 'NONE', #101, #133 ) ;
#380 = CYLINDRICAL_SURFACE ( 'NONE', #142, 6.000000000000000888 ) ;
#381 = ORIENTED_EDGE ( 'NONE', *, *, #66, .F. ) ;
ENDSEC;
END-ISO-10303-21;
