ISO-10303-21;
HEADER;
FILE_DESCRIPTION (( 'STEP AP203' ),
    '1' );
FILE_NAME ('3b9f.STEP',
    '2022-07-08T15:49:47',
    ( '' ),
    ( '' ),
    'SwSTEP 2.0',
    'SolidWorks 2019',
    '' );
FILE_SCHEMA (( 'CONFIG_CONTROL_DESIGN' ));
ENDSEC;

DATA;
#1 = PERSON_AND_ORGANIZATION_ROLE ( 'design_owner' ) ;
#2 = CC_DESIGN_PERSON_AND_ORGANIZATION_ASSIGNMENT ( #151, #293, ( #67 ) ) ;
#3 = ORIENTED_EDGE ( 'NONE', *, *, #300, .F. ) ;
#4 = CIRCLE ( 'NONE', #133, 2.000000000000000000 ) ;
#5 = PERSON_AND_ORGANIZATION ( #359, #100 ) ;
#6 = DIRECTION ( 'NONE',  ( 0.000000000000000000, 0.000000000000000000, -1.000000000000000000 ) ) ;
#7 = LINE ( 'NONE', #126, #347 ) ;
#8 = ADVANCED_FACE ( 'NONE', ( #55, #380 ), #82, .T. ) ;
#9 = DATE_AND_TIME ( #266, #245 ) ;
#10 = DIRECTION ( 'NONE',  ( 0.000000000000000000, 0.000000000000000000, -1.000000000000000000 ) ) ;
#11 = AXIS2_PLACEMENT_3D ( 'NONE', #270, #153, #362 ) ;
#12 = SECURITY_CLASSIFICATION ( '', '', #154 ) ;
#13 = FACE_OUTER_BOUND ( 'NONE', #195, .T. ) ;
#14 = VERTEX_POINT ( 'NONE', #343 ) ;
#15 = DIRECTION ( 'NONE',  ( 1.224646799147353207E-16, 1.000000000000000000, -0.000000000000000000 ) ) ;
#16 = CIRCLE ( 'NONE', #378, 1.100000000000000089 ) ;
#17 = ORIENTED_EDGE ( 'NONE', *, *, #206, .T. ) ;
#18 = ORIENTED_EDGE ( 'NONE', *, *, #155, .F. ) ;
#19 = EDGE_CURVE ( 'NONE', #172, #14, #325, .T. ) ;
#20 =( NAMED_UNIT ( * ) PLANE_ANGLE_UNIT ( ) SI_UNIT ( $, .RADIAN. ) );
#21 = ORIENTED_EDGE ( 'NONE', *, *, #338, .F. ) ;
#22 = AXIS2_PLACEMENT_3D ( 'NONE', #224, #173, #111 ) ;
#23 = ORIENTED_EDGE ( 'NONE', *, *, #206, .F. ) ;
#24 = FACE_OUTER_BOUND ( 'NONE', #174, .T. ) ;
#25 = CARTESIAN_POINT ( 'NONE',  ( 0.000000000000000000, 0.000000000000000000, 0.000000000000000000 ) ) ;
#26 = CARTESIAN_POINT ( 'NONE',  ( -4.000000000000000000, 0.000000000000000000, 0.000000000000000000 ) ) ;
#27 = CLOSED_SHELL ( 'NONE', ( #59, #97, #329, #69, #129, #8, #322, #291, #315, #218, #234 ) ) ;
#28 = CYLINDRICAL_SURFACE ( 'NONE', #365, 4.000000000000000000 ) ;
#29 = AXIS2_PLACEMENT_3D ( 'NONE', #179, #319, #182 ) ;
#30 = APPROVAL_DATE_TIME ( #117, #260 ) ;
#31 = FACE_OUTER_BOUND ( 'NONE', #139, .T. ) ;
#32 = PERSON_AND_ORGANIZATION_ROLE ( 'creator' ) ;
#33 = DIRECTION ( 'NONE',  ( 0.000000000000000000, 0.000000000000000000, 1.000000000000000000 ) ) ;
#34 = CIRCLE ( 'NONE', #140, 0.2999999999999999334 ) ;
#35 = APPROVAL_STATUS ( 'not_yet_approved' ) ;
#36 = CARTESIAN_POINT ( 'NONE',  ( 4.000000000000000000, 4.898587196589412829E-16, 3.000000000000000000 ) ) ;
#37 = DIRECTION ( 'NONE',  ( 1.000000000000000000, 0.000000000000000000, 0.000000000000000000 ) ) ;
#38 = CIRCLE ( 'NONE', #285, 1.100000000000000089 ) ;
#39 = EDGE_CURVE ( 'NONE', #369, #81, #38, .T. ) ;
#40 = DIRECTION ( 'NONE',  ( 0.000000000000000000, 0.000000000000000000, -1.000000000000000000 ) ) ;
#41 = ORIENTED_EDGE ( 'NONE', *, *, #125, .T. ) ;
#42 = CARTESIAN_POINT ( 'NONE',  ( 0.000000000000000000, 0.000000000000000000, 253.0000000000000000 ) ) ;
#43 = EDGE_LOOP ( 'NONE', ( #135, #121 ) ) ;
#44 = VECTOR ( 'NONE', #282, 1000.000000000000000 ) ;
#45 = APPROVAL_PERSON_ORGANIZATION ( #62, #373, #94 ) ;
#46 = PRODUCT ( '3b9f', '3b9f', '', ( #115 ) ) ;
#47 = EDGE_CURVE ( 'NONE', #202, #364, #292, .T. ) ;
#48 = DIRECTION ( 'NONE',  ( 1.000000000000000000, 0.000000000000000000, 0.000000000000000000 ) ) ;
#49 = ORIENTED_EDGE ( 'NONE', *, *, #19, .T. ) ;
#50 = CARTESIAN_POINT ( 'NONE',  ( 0.000000000000000000, 0.000000000000000000, 3.000000000000000000 ) ) ;
#51 =( LENGTH_UNIT ( ) NAMED_UNIT ( * ) SI_UNIT ( .MILLI., .METRE. ) );
#52 = AXIS2_PLACEMENT_3D ( 'NONE', #254, #368, #231 ) ;
#53 = DIRECTION ( 'NONE',  ( -0.000000000000000000, -0.000000000000000000, -1.000000000000000000 ) ) ;
#54 = EDGE_CURVE ( 'NONE', #130, #171, #128, .T. ) ;
#55 = FACE_BOUND ( 'NONE', #230, .T. ) ;
#56 = DIRECTION ( 'NONE',  ( 1.000000000000000000, 0.000000000000000000, 0.000000000000000000 ) ) ;
#57 = APPROVAL_DATE_TIME ( #9, #143 ) ;
#58 = AXIS2_PLACEMENT_3D ( 'NONE', #50, #53, #345 ) ;
#59 = ADVANCED_FACE ( 'NONE', ( #24 ), #294, .F. ) ;
#60 = COORDINATED_UNIVERSAL_TIME_OFFSET ( 1, 0, .AHEAD. ) ;
#61 = DIRECTION ( 'NONE',  ( 0.000000000000000000, 0.000000000000000000, 1.000000000000000000 ) ) ;
#62 = PERSON_AND_ORGANIZATION ( #359, #100 ) ;
#63 = LINE ( 'NONE', #95, #109 ) ;
#64 = MANIFOLD_SOLID_BREP ( 'Odebrat vysunutím3', #27 ) ;
#65 = ORIENTED_EDGE ( 'NONE', *, *, #178, .T. ) ;
#66 =( GEOMETRIC_REPRESENTATION_CONTEXT ( 3 ) GLOBAL_UNCERTAINTY_ASSIGNED_CONTEXT ( ( #304 ) ) GLOBAL_UNIT_ASSIGNED_CONTEXT ( ( #51, #20, #318 ) ) REPRESENTATION_CONTEXT ( 'NONE', 'WORKASPACE' ) );
#67 = PRODUCT_DEFINITION_FORMATION_WITH_SPECIFIED_SOURCE ( 'LIBOVOLNÝ', '', #46, .NOT_KNOWN. ) ;
#68 = DATE_TIME_ROLE ( 'classification_date' ) ;
#69 = ADVANCED_FACE ( 'NONE', ( #31 ), #28, .T. ) ;
#70 = CARTESIAN_POINT ( 'NONE',  ( 2.000000000000000000, 2.449293598294706414E-16, 3.299999999999997158 ) ) ;
#71 = DIRECTION ( 'NONE',  ( 0.000000000000000000, 0.000000000000000000, 1.000000000000000000 ) ) ;
#72 = FACE_BOUND ( 'NONE', #259, .T. ) ;
#73 = ORIENTED_EDGE ( 'NONE', *, *, #279, .T. ) ;
#74 = CC_DESIGN_PERSON_AND_ORGANIZATION_ASSIGNMENT ( #243, #32, ( #67 ) ) ;
#75 = AXIS2_PLACEMENT_3D ( 'NONE', #159, #71, #37 ) ;
#76 = CARTESIAN_POINT ( 'NONE',  ( 2.000000000000000000, 2.449293598294706414E-16, 253.0000000000000000 ) ) ;
#77 = DIRECTION ( 'NONE',  ( 1.000000000000000000, 0.000000000000000000, 0.000000000000000000 ) ) ;
#78 = ORIENTED_EDGE ( 'NONE', *, *, #136, .F. ) ;
#79 = LOCAL_TIME ( 17, 49, 47.00000000000000000, #101 ) ;
#80 = DIRECTION ( 'NONE',  ( 0.000000000000000000, 0.000000000000000000, 1.000000000000000000 ) ) ;
#81 = VERTEX_POINT ( 'NONE', #262 ) ;
#82 = PLANE ( 'NONE',  #341 ) ;
#83 = CARTESIAN_POINT ( 'NONE',  ( -2.000000000000000000, 0.000000000000000000, 253.0000000000000000 ) ) ;
#84 = DIRECTION ( 'NONE',  ( 0.000000000000000000, 0.000000000000000000, -1.000000000000000000 ) ) ;
#85 = AXIS2_PLACEMENT_3D ( 'NONE', #290, #316, #56 ) ;
#86 = APPLICATION_CONTEXT ( 'configuration controlled 3d designs of mechanical parts and assemblies' ) ;
#87 = PRODUCT_DEFINITION ( 'NEZNÁMÝ', '', #67, #250 ) ;
#88 = EDGE_LOOP ( 'NONE', ( #241, #223 ) ) ;
#89 = CIRCLE ( 'NONE', #256, 2.299999999999999822 ) ;
#90 = PRODUCT_RELATED_PRODUCT_CATEGORY ( 'detail', '', ( #46 ) ) ;
#91 = COORDINATED_UNIVERSAL_TIME_OFFSET ( 1, 0, .AHEAD. ) ;
#92 = DIRECTION ( 'NONE',  ( 1.000000000000000000, 0.000000000000000000, 0.000000000000000000 ) ) ;
#93 = ORIENTED_EDGE ( 'NONE', *, *, #268, .F. ) ;
#94 = APPROVAL_ROLE ( '' ) ;
#95 = CARTESIAN_POINT ( 'NONE',  ( 1.100000000000000089, 1.347111479062088503E-16, 253.0000000000000000 ) ) ;
#96 = ORIENTED_EDGE ( 'NONE', *, *, #200, .T. ) ;
#97 = ADVANCED_FACE ( 'NONE', ( #237 ), #180, .F. ) ;
#98 = CALENDAR_DATE ( 2022, 8, 7 ) ;
#99 = DIRECTION ( 'NONE',  ( 0.000000000000000000, 0.000000000000000000, 1.000000000000000000 ) ) ;
#100 = ORGANIZATION ( 'NEURÈENÝ', 'NEURÈENÝ', '' ) ;
#101 = COORDINATED_UNIVERSAL_TIME_OFFSET ( 1, 0, .AHEAD. ) ;
#102 = DIRECTION ( 'NONE',  ( 1.000000000000000000, 0.000000000000000000, 0.000000000000000000 ) ) ;
#103 = CYLINDRICAL_SURFACE ( 'NONE', #22, 2.000000000000000000 ) ;
#104 = VECTOR ( 'NONE', #261, 1000.000000000000000 ) ;
#105 = CARTESIAN_POINT ( 'NONE',  ( -2.000000000000000000, 0.000000000000000000, 253.0000000000000000 ) ) ;
#106 = ORIENTED_EDGE ( 'NONE', *, *, #200, .F. ) ;
#107 = APPLICATION_CONTEXT ( 'configuration controlled 3d designs of mechanical parts and assemblies' ) ;
#108 = EDGE_LOOP ( 'NONE', ( #194, #314, #49, #21 ) ) ;
#109 = VECTOR ( 'NONE', #10, 1000.000000000000000 ) ;
#110 = ORIENTED_EDGE ( 'NONE', *, *, #178, .F. ) ;
#111 = DIRECTION ( 'NONE',  ( -1.000000000000000000, 0.000000000000000000, 0.000000000000000000 ) ) ;
#112 = LINE ( 'NONE', #203, #188 ) ;
#113 = DIRECTION ( 'NONE',  ( -1.000000000000000000, 0.000000000000000000, 0.000000000000000000 ) ) ;
#114 = AXIS2_PLACEMENT_3D ( 'NONE', #376, #84, #113 ) ;
#115 = MECHANICAL_CONTEXT ( 'NONE', #107, 'mechanical' ) ;
#116 = CARTESIAN_POINT ( 'NONE',  ( 0.000000000000000000, 0.000000000000000000, 3.000000000000000000 ) ) ;
#117 = DATE_AND_TIME ( #122, #79 ) ;
#118 = PERSON_AND_ORGANIZATION_ROLE ( 'classification_officer' ) ;
#119 = DIRECTION ( 'NONE',  ( 1.000000000000000000, 0.000000000000000000, 0.000000000000000000 ) ) ;
#120 = AXIS2_PLACEMENT_3D ( 'NONE', #267, #240, #6 ) ;
#121 = ORIENTED_EDGE ( 'NONE', *, *, #149, .T. ) ;
#122 = CALENDAR_DATE ( 2022, 8, 7 ) ;
#123 = DIRECTION ( 'NONE',  ( -0.000000000000000000, -0.000000000000000000, -1.000000000000000000 ) ) ;
#124 = ORIENTED_EDGE ( 'NONE', *, *, #54, .F. ) ;
#125 = EDGE_CURVE ( 'NONE', #239, #164, #16, .T. ) ;
#126 = CARTESIAN_POINT ( 'NONE',  ( -4.000000000000000000, 0.000000000000000000, 3.000000000000000000 ) ) ;
#127 = DIRECTION ( 'NONE',  ( 0.000000000000000000, 0.000000000000000000, 1.000000000000000000 ) ) ;
#128 = CIRCLE ( 'NONE', #58, 2.299999999999999822 ) ;
#129 = ADVANCED_FACE ( 'NONE', ( #264 ), #357, .T. ) ;
#130 = VERTEX_POINT ( 'NONE', #242 ) ;
#131 = CARTESIAN_POINT ( 'NONE',  ( 0.000000000000000000, 0.000000000000000000, 253.0000000000000000 ) ) ;
#132 = ORIENTED_EDGE ( 'NONE', *, *, #47, .T. ) ;
#133 = AXIS2_PLACEMENT_3D ( 'NONE', #327, #61, #119 ) ;
#134 = FACE_OUTER_BOUND ( 'NONE', #43, .T. ) ;
#135 = ORIENTED_EDGE ( 'NONE', *, *, #228, .T. ) ;
#136 = EDGE_CURVE ( 'NONE', #172, #171, #271, .T. ) ;
#137 = DIRECTION ( 'NONE',  ( -1.000000000000000000, 0.000000000000000000, 0.000000000000000000 ) ) ;
#138 = EDGE_LOOP ( 'NONE', ( #18, #330, #302, #335 ) ) ;
#139 = EDGE_LOOP ( 'NONE', ( #309, #144, #132, #23 ) ) ;
#140 = AXIS2_PLACEMENT_3D ( 'NONE', #331, #15, #340 ) ;
#141 = CC_DESIGN_SECURITY_CLASSIFICATION ( #12, ( #67 ) ) ;
#142 = DIRECTION ( 'NONE',  ( 0.000000000000000000, 0.000000000000000000, 1.000000000000000000 ) ) ;
#143 = APPROVAL ( #212, 'NEURÈENÝ' ) ;
#144 = ORIENTED_EDGE ( 'NONE', *, *, #348, .T. ) ;
#145 = DIRECTION ( 'NONE',  ( 1.000000000000000000, 0.000000000000000000, 0.000000000000000000 ) ) ;
#146 = DIRECTION ( 'NONE',  ( 1.000000000000000000, 0.000000000000000000, -0.000000000000000000 ) ) ;
#147 = DIRECTION ( 'NONE',  ( 0.000000000000000000, 0.000000000000000000, 1.000000000000000000 ) ) ;
#148 = DIRECTION ( 'NONE',  ( -0.000000000000000000, -0.000000000000000000, -1.000000000000000000 ) ) ;
#149 = EDGE_CURVE ( 'NONE', #255, #296, #4, .T. ) ;
#150 = ORIENTED_EDGE ( 'NONE', *, *, #125, .F. ) ;
#151 = PERSON_AND_ORGANIZATION ( #359, #100 ) ;
#152 = COORDINATED_UNIVERSAL_TIME_OFFSET ( 1, 0, .AHEAD. ) ;
#153 = DIRECTION ( 'NONE',  ( -0.000000000000000000, -0.000000000000000000, -1.000000000000000000 ) ) ;
#154 = SECURITY_CLASSIFICATION_LEVEL ( 'unclassified' ) ;
#155 = EDGE_CURVE ( 'NONE', #369, #239, #63, .T. ) ;
#156 = CIRCLE ( 'NONE', #249, 4.000000000000000000 ) ;
#157 = PERSON_AND_ORGANIZATION_ROLE ( 'creator' ) ;
#158 = SHAPE_DEFINITION_REPRESENTATION ( #288, #317 ) ;
#159 = CARTESIAN_POINT ( 'NONE',  ( 0.000000000000000000, 0.000000000000000000, 3.299999999999997158 ) ) ;
#160 = CC_DESIGN_PERSON_AND_ORGANIZATION_ASSIGNMENT ( #265, #1, ( #46 ) ) ;
#161 = TOROIDAL_SURFACE ( 'NONE', #75, 2.299999999999999822, 0.2999999999999999889 ) ;
#162 = CC_DESIGN_APPROVAL ( #373, ( #87 ) ) ;
#163 = PLANE ( 'NONE',  #52 ) ;
#164 = VERTEX_POINT ( 'NONE', #295 ) ;
#165 = LINE ( 'NONE', #248, #301 ) ;
#166 = EDGE_CURVE ( 'NONE', #364, #202, #306, .T. ) ;
#167 = VERTEX_POINT ( 'NONE', #299 ) ;
#168 = AXIS2_PLACEMENT_3D ( 'NONE', #42, #251, #48 ) ;
#169 = APPROVAL_PERSON_ORGANIZATION ( #321, #143, #353 ) ;
#170 = CC_DESIGN_APPROVAL ( #143, ( #67 ) ) ;
#171 = VERTEX_POINT ( 'NONE', #216 ) ;
#172 = VERTEX_POINT ( 'NONE', #70 ) ;
#173 = DIRECTION ( 'NONE',  ( -0.000000000000000000, -0.000000000000000000, -1.000000000000000000 ) ) ;
#174 = EDGE_LOOP ( 'NONE', ( #193, #275, #41, #93 ) ) ;
#175 = CIRCLE ( 'NONE', #324, 2.000000000000000000 ) ;
#176 = CARTESIAN_POINT ( 'NONE',  ( 0.000000000000000000, 0.000000000000000000, 253.0000000000000000 ) ) ;
#177 = DIRECTION ( 'NONE',  ( 1.000000000000000000, 0.000000000000000000, 0.000000000000000000 ) ) ;
#178 = EDGE_CURVE ( 'NONE', #171, #130, #89, .T. ) ;
#179 = CARTESIAN_POINT ( 'NONE',  ( 0.000000000000000000, 0.000000000000000000, 0.000000000000000000 ) ) ;
#180 = TOROIDAL_SURFACE ( 'NONE', #205, 2.299999999999999822, 0.2999999999999999889 ) ;
#181 = APPROVAL_DATE_TIME ( #350, #373 ) ;
#182 = DIRECTION ( 'NONE',  ( 1.000000000000000000, 0.000000000000000000, 0.000000000000000000 ) ) ;
#183 = DIRECTION ( 'NONE',  ( -0.000000000000000000, -0.000000000000000000, -1.000000000000000000 ) ) ;
#184 = APPLICATION_PROTOCOL_DEFINITION ( 'international standard', 'config_control_design', 1994, #86 ) ;
#185 = CARTESIAN_POINT ( 'NONE',  ( 0.000000000000000000, 0.000000000000000000, 0.000000000000000000 ) ) ;
#186 = APPROVAL_ROLE ( '' ) ;
#187 = DIRECTION ( 'NONE',  ( -0.000000000000000000, -0.000000000000000000, -1.000000000000000000 ) ) ;
#188 = VECTOR ( 'NONE', #379, 1000.000000000000000 ) ;
#189 = LOCAL_TIME ( 17, 49, 47.00000000000000000, #91 ) ;
#190 = APPROVAL_STATUS ( 'not_yet_approved' ) ;
#191 = ORIENTED_EDGE ( 'NONE', *, *, #19, .F. ) ;
#192 = CIRCLE ( 'NONE', #312, 4.000000000000000000 ) ;
#193 = ORIENTED_EDGE ( 'NONE', *, *, #253, .T. ) ;
#194 = ORIENTED_EDGE ( 'NONE', *, *, #149, .F. ) ;
#195 = EDGE_LOOP ( 'NONE', ( #232, #235 ) ) ;
#196 = FACE_OUTER_BOUND ( 'NONE', #371, .T. ) ;
#197 = EDGE_LOOP ( 'NONE', ( #252, #207, #17, #307 ) ) ;
#198 = AXIS2_PLACEMENT_3D ( 'NONE', #25, #147, #258 ) ;
#199 = ORIENTED_EDGE ( 'NONE', *, *, #338, .T. ) ;
#200 = EDGE_CURVE ( 'NONE', #14, #172, #332, .T. ) ;
#201 = CARTESIAN_POINT ( 'NONE',  ( 0.000000000000000000, 0.000000000000000000, 3.000000000000000000 ) ) ;
#202 = VERTEX_POINT ( 'NONE', #222 ) ;
#203 = CARTESIAN_POINT ( 'NONE',  ( 2.000000000000000000, 2.449293598294706414E-16, 253.0000000000000000 ) ) ;
#204 = DIRECTION ( 'NONE',  ( -1.000000000000000000, 0.000000000000000000, 0.000000000000000000 ) ) ;
#205 = AXIS2_PLACEMENT_3D ( 'NONE', #210, #99, #381 ) ;
#206 = EDGE_CURVE ( 'NONE', #167, #364, #7, .T. ) ;
#207 = ORIENTED_EDGE ( 'NONE', *, *, #361, .F. ) ;
#208 = CARTESIAN_POINT ( 'NONE',  ( 4.000000000000000000, 4.898587196589412829E-16, 3.000000000000000000 ) ) ;
#209 = CIRCLE ( 'NONE', #168, 1.100000000000000089 ) ;
#210 = CARTESIAN_POINT ( 'NONE',  ( 0.000000000000000000, 0.000000000000000000, 3.299999999999997158 ) ) ;
#211 = CC_DESIGN_DATE_AND_TIME_ASSIGNMENT ( #298, #221, ( #87 ) ) ;
#212 = APPROVAL_STATUS ( 'not_yet_approved' ) ;
#213 = CARTESIAN_POINT ( 'NONE',  ( 0.000000000000000000, 0.000000000000000000, 3.299999999999997158 ) ) ;
#214 = CC_DESIGN_PERSON_AND_ORGANIZATION_ASSIGNMENT ( #5, #118, ( #12 ) ) ;
#215 = CALENDAR_DATE ( 2022, 8, 7 ) ;
#216 = CARTESIAN_POINT ( 'NONE',  ( 2.299999999999999822, 0.000000000000000000, 2.999999999999998668 ) ) ;
#217 = PERSON_AND_ORGANIZATION ( #359, #100 ) ;
#218 = ADVANCED_FACE ( 'NONE', ( #328 ), #161, .F. ) ;
#219 = AXIS2_PLACEMENT_3D ( 'NONE', #229, #276, #370 ) ;
#220 = DIRECTION ( 'NONE',  ( 1.000000000000000000, 0.000000000000000000, 0.000000000000000000 ) ) ;
#221 = DATE_TIME_ROLE ( 'creation_date' ) ;
#222 = CARTESIAN_POINT ( 'NONE',  ( 4.000000000000000000, 4.898587196589412829E-16, 0.000000000000000000 ) ) ;
#223 = ORIENTED_EDGE ( 'NONE', *, *, #355, .T. ) ;
#224 = CARTESIAN_POINT ( 'NONE',  ( 0.000000000000000000, 0.000000000000000000, 253.0000000000000000 ) ) ;
#225 = VERTEX_POINT ( 'NONE', #36 ) ;
#226 = CARTESIAN_POINT ( 'NONE',  ( 1.100000000000000089, 1.347111479062088503E-16, 0.000000000000000000 ) ) ;
#227 = AXIS2_PLACEMENT_3D ( 'NONE', #366, #308, #137 ) ;
#228 = EDGE_CURVE ( 'NONE', #296, #255, #175, .T. ) ;
#229 = CARTESIAN_POINT ( 'NONE',  ( 0.000000000000000000, 0.000000000000000000, 0.000000000000000000 ) ) ;
#230 = EDGE_LOOP ( 'NONE', ( #65, #374 ) ) ;
#231 = DIRECTION ( 'NONE',  ( 1.000000000000000000, 0.000000000000000000, -0.000000000000000000 ) ) ;
#232 = ORIENTED_EDGE ( 'NONE', *, *, #166, .F. ) ;
#233 = DIRECTION ( 'NONE',  ( 0.000000000000000000, 0.000000000000000000, 1.000000000000000000 ) ) ;
#234 = ADVANCED_FACE ( 'NONE', ( #247 ), #333, .F. ) ;
#235 = ORIENTED_EDGE ( 'NONE', *, *, #47, .F. ) ;
#236 = CIRCLE ( 'NONE', #219, 1.100000000000000089 ) ;
#237 = FACE_OUTER_BOUND ( 'NONE', #346, .T. ) ;
#238 = LINE ( 'NONE', #208, #44 ) ;
#239 = VERTEX_POINT ( 'NONE', #226 ) ;
#240 = DIRECTION ( 'NONE',  ( 0.000000000000000000, -1.000000000000000000, 0.000000000000000000 ) ) ;
#241 = ORIENTED_EDGE ( 'NONE', *, *, #361, .T. ) ;
#242 = CARTESIAN_POINT ( 'NONE',  ( -2.299999999999999822, 2.816687638038912056E-16, 2.999999999999998668 ) ) ;
#243 = PERSON_AND_ORGANIZATION ( #359, #100 ) ;
#244 = AXIS2_PLACEMENT_3D ( 'NONE', #213, #33, #220 ) ;
#245 = LOCAL_TIME ( 17, 49, 47.00000000000000000, #356 ) ;
#246 = DIRECTION ( 'NONE',  ( 1.000000000000000000, 0.000000000000000000, -0.000000000000000000 ) ) ;
#247 = FACE_OUTER_BOUND ( 'NONE', #138, .T. ) ;
#248 = CARTESIAN_POINT ( 'NONE',  ( -1.100000000000000089, 0.000000000000000000, 253.0000000000000000 ) ) ;
#249 = AXIS2_PLACEMENT_3D ( 'NONE', #201, #372, #145 ) ;
#250 = DESIGN_CONTEXT ( 'detailed design', #86, 'design' ) ;
#251 = DIRECTION ( 'NONE',  ( 0.000000000000000000, 0.000000000000000000, 1.000000000000000000 ) ) ;
#252 = ORIENTED_EDGE ( 'NONE', *, *, #348, .F. ) ;
#253 = EDGE_CURVE ( 'NONE', #81, #369, #209, .T. ) ;
#254 = CARTESIAN_POINT ( 'NONE',  ( 0.000000000000000000, 0.000000000000000000, 253.0000000000000000 ) ) ;
#255 = VERTEX_POINT ( 'NONE', #76 ) ;
#256 = AXIS2_PLACEMENT_3D ( 'NONE', #351, #183, #323 ) ;
#257 = DIRECTION ( 'NONE',  ( 0.000000000000000000, 0.000000000000000000, 1.000000000000000000 ) ) ;
#258 = DIRECTION ( 'NONE',  ( 1.000000000000000000, 0.000000000000000000, 0.000000000000000000 ) ) ;
#259 = EDGE_LOOP ( 'NONE', ( #3, #150 ) ) ;
#260 = APPROVAL ( #190, 'NEURÈENÝ' ) ;
#261 = DIRECTION ( 'NONE',  ( -0.000000000000000000, -0.000000000000000000, -1.000000000000000000 ) ) ;
#262 = CARTESIAN_POINT ( 'NONE',  ( -1.100000000000000089, 0.000000000000000000, 253.0000000000000000 ) ) ;
#263 = DATE_AND_TIME ( #98, #342 ) ;
#264 = FACE_OUTER_BOUND ( 'NONE', #197, .T. ) ;
#265 = PERSON_AND_ORGANIZATION ( #359, #100 ) ;
#266 = CALENDAR_DATE ( 2022, 8, 7 ) ;
#267 = CARTESIAN_POINT ( 'NONE',  ( 2.299999999999999822, 0.000000000000000000, 3.299999999999997158 ) ) ;
#268 = EDGE_CURVE ( 'NONE', #81, #164, #165, .T. ) ;
#269 = CALENDAR_DATE ( 2022, 8, 7 ) ;
#270 = CARTESIAN_POINT ( 'NONE',  ( 0.000000000000000000, 0.000000000000000000, 3.000000000000000000 ) ) ;
#271 = CIRCLE ( 'NONE', #120, 0.2999999999999999334 ) ;
#272 = CARTESIAN_POINT ( 'NONE',  ( 0.000000000000000000, 0.000000000000000000, 253.0000000000000000 ) ) ;
#273 = CC_DESIGN_PERSON_AND_ORGANIZATION_ASSIGNMENT ( #326, #157, ( #87 ) ) ;
#274 = DIRECTION ( 'NONE',  ( -1.000000000000000000, 0.000000000000000000, 0.000000000000000000 ) ) ;
#275 = ORIENTED_EDGE ( 'NONE', *, *, #155, .T. ) ;
#276 = DIRECTION ( 'NONE',  ( -0.000000000000000000, -0.000000000000000000, -1.000000000000000000 ) ) ;
#277 = AXIS2_PLACEMENT_3D ( 'NONE', #272, #303, #274 ) ;
#278 = CC_DESIGN_APPROVAL ( #260, ( #12 ) ) ;
#279 = EDGE_CURVE ( 'NONE', #14, #130, #34, .T. ) ;
#280 = CYLINDRICAL_SURFACE ( 'NONE', #227, 2.000000000000000000 ) ;
#281 = ORIENTED_EDGE ( 'NONE', *, *, #279, .F. ) ;
#282 = DIRECTION ( 'NONE',  ( -0.000000000000000000, -0.000000000000000000, -1.000000000000000000 ) ) ;
#283 = EDGE_LOOP ( 'NONE', ( #367, #375 ) ) ;
#284 = LINE ( 'NONE', #83, #104 ) ;
#285 = AXIS2_PLACEMENT_3D ( 'NONE', #176, #286, #349 ) ;
#286 = DIRECTION ( 'NONE',  ( 0.000000000000000000, 0.000000000000000000, 1.000000000000000000 ) ) ;
#287 = CC_DESIGN_DATE_AND_TIME_ASSIGNMENT ( #263, #68, ( #12 ) ) ;
#288 = PRODUCT_DEFINITION_SHAPE ( 'NONE', 'NONE',  #87 ) ;
#289 = CARTESIAN_POINT ( 'NONE',  ( 1.100000000000000089, 1.347111479062088503E-16, 253.0000000000000000 ) ) ;
#290 = CARTESIAN_POINT ( 'NONE',  ( 0.000000000000000000, 0.000000000000000000, 3.299999999999997158 ) ) ;
#291 = ADVANCED_FACE ( 'NONE', ( #196 ), #280, .T. ) ;
#292 = CIRCLE ( 'NONE', #29, 4.000000000000000000 ) ;
#293 = PERSON_AND_ORGANIZATION_ROLE ( 'design_supplier' ) ;
#294 = CYLINDRICAL_SURFACE ( 'NONE', #114, 1.100000000000000089 ) ;
#295 = CARTESIAN_POINT ( 'NONE',  ( -1.100000000000000089, 0.000000000000000000, 0.000000000000000000 ) ) ;
#296 = VERTEX_POINT ( 'NONE', #105 ) ;
#297 = CARTESIAN_POINT ( 'NONE',  ( 0.000000000000000000, 0.000000000000000000, 0.000000000000000000 ) ) ;
#298 = DATE_AND_TIME ( #269, #189 ) ;
#299 = CARTESIAN_POINT ( 'NONE',  ( -4.000000000000000000, 0.000000000000000000, 3.000000000000000000 ) ) ;
#300 = EDGE_CURVE ( 'NONE', #164, #239, #236, .T. ) ;
#301 = VECTOR ( 'NONE', #40, 1000.000000000000000 ) ;
#302 = ORIENTED_EDGE ( 'NONE', *, *, #268, .T. ) ;
#303 = DIRECTION ( 'NONE',  ( 0.000000000000000000, 0.000000000000000000, -1.000000000000000000 ) ) ;
#304 = UNCERTAINTY_MEASURE_WITH_UNIT (LENGTH_MEASURE( 1.000000000000000082E-05 ), #51, 'distance_accuracy_value', 'NONE');
#305 = CARTESIAN_POINT ( 'NONE',  ( 0.000000000000000000, 0.000000000000000000, 0.000000000000000000 ) ) ;
#306 = CIRCLE ( 'NONE', #320, 4.000000000000000000 ) ;
#307 = ORIENTED_EDGE ( 'NONE', *, *, #166, .T. ) ;
#308 = DIRECTION ( 'NONE',  ( -0.000000000000000000, -0.000000000000000000, -1.000000000000000000 ) ) ;
#309 = ORIENTED_EDGE ( 'NONE', *, *, #355, .F. ) ;
#310 = CARTESIAN_POINT ( 'NONE',  ( 0.000000000000000000, 0.000000000000000000, 3.000000000000000000 ) ) ;
#311 = CARTESIAN_POINT ( 'NONE',  ( 0.000000000000000000, 0.000000000000000000, 3.000000000000000000 ) ) ;
#312 = AXIS2_PLACEMENT_3D ( 'NONE', #310, #142, #177 ) ;
#313 = APPLICATION_PROTOCOL_DEFINITION ( 'international standard', 'config_control_design', 1994, #107 ) ;
#314 = ORIENTED_EDGE ( 'NONE', *, *, #344, .T. ) ;
#315 = ADVANCED_FACE ( 'NONE', ( #336, #134 ), #163, .T. ) ;
#316 = DIRECTION ( 'NONE',  ( 0.000000000000000000, 0.000000000000000000, 1.000000000000000000 ) ) ;
#317 = ADVANCED_BREP_SHAPE_REPRESENTATION ( '3b9f', ( #64, #198 ), #66 ) ;
#318 =( NAMED_UNIT ( * ) SI_UNIT ( $, .STERADIAN. ) SOLID_ANGLE_UNIT ( ) );
#319 = DIRECTION ( 'NONE',  ( 0.000000000000000000, 0.000000000000000000, 1.000000000000000000 ) ) ;
#320 = AXIS2_PLACEMENT_3D ( 'NONE', #297, #127, #92 ) ;
#321 = PERSON_AND_ORGANIZATION ( #359, #100 ) ;
#322 = ADVANCED_FACE ( 'NONE', ( #72, #13 ), #339, .F. ) ;
#323 = DIRECTION ( 'NONE',  ( 1.000000000000000000, 0.000000000000000000, 0.000000000000000000 ) ) ;
#324 = AXIS2_PLACEMENT_3D ( 'NONE', #131, #233, #77 ) ;
#325 = CIRCLE ( 'NONE', #85, 2.000000000000000000 ) ;
#326 = PERSON_AND_ORGANIZATION ( #359, #100 ) ;
#327 = CARTESIAN_POINT ( 'NONE',  ( 0.000000000000000000, 0.000000000000000000, 253.0000000000000000 ) ) ;
#328 = FACE_OUTER_BOUND ( 'NONE', #377, .T. ) ;
#329 = ADVANCED_FACE ( 'NONE', ( #363 ), #103, .T. ) ;
#330 = ORIENTED_EDGE ( 'NONE', *, *, #39, .T. ) ;
#331 = CARTESIAN_POINT ( 'NONE',  ( -2.299999999999999822, 2.816687638038912056E-16, 3.299999999999997158 ) ) ;
#332 = CIRCLE ( 'NONE', #244, 2.000000000000000000 ) ;
#333 = CYLINDRICAL_SURFACE ( 'NONE', #277, 1.100000000000000089 ) ;
#334 = LOCAL_TIME ( 17, 49, 47.00000000000000000, #152 ) ;
#335 = ORIENTED_EDGE ( 'NONE', *, *, #300, .T. ) ;
#336 = FACE_BOUND ( 'NONE', #283, .T. ) ;
#337 = ORIENTED_EDGE ( 'NONE', *, *, #228, .F. ) ;
#338 = EDGE_CURVE ( 'NONE', #296, #14, #284, .T. ) ;
#339 = PLANE ( 'NONE',  #352 ) ;
#340 = DIRECTION ( 'NONE',  ( -1.000000000000000000, 1.224646799147353207E-16, 0.000000000000000000 ) ) ;
#341 = AXIS2_PLACEMENT_3D ( 'NONE', #116, #257, #146 ) ;
#342 = LOCAL_TIME ( 17, 49, 47.00000000000000000, #60 ) ;
#343 = CARTESIAN_POINT ( 'NONE',  ( -2.000000000000000000, 0.000000000000000000, 3.299999999999997158 ) ) ;
#344 = EDGE_CURVE ( 'NONE', #255, #172, #112, .T. ) ;
#345 = DIRECTION ( 'NONE',  ( 1.000000000000000000, 0.000000000000000000, 0.000000000000000000 ) ) ;
#346 = EDGE_LOOP ( 'NONE', ( #106, #73, #110, #78 ) ) ;
#347 = VECTOR ( 'NONE', #123, 1000.000000000000000 ) ;
#348 = EDGE_CURVE ( 'NONE', #225, #202, #238, .T. ) ;
#349 = DIRECTION ( 'NONE',  ( 1.000000000000000000, 0.000000000000000000, 0.000000000000000000 ) ) ;
#350 = DATE_AND_TIME ( #215, #334 ) ;
#351 = CARTESIAN_POINT ( 'NONE',  ( 0.000000000000000000, 0.000000000000000000, 3.000000000000000000 ) ) ;
#352 = AXIS2_PLACEMENT_3D ( 'NONE', #305, #80, #246 ) ;
#353 = APPROVAL_ROLE ( '' ) ;
#354 = ORIENTED_EDGE ( 'NONE', *, *, #344, .F. ) ;
#355 = EDGE_CURVE ( 'NONE', #225, #167, #192, .T. ) ;
#356 = COORDINATED_UNIVERSAL_TIME_OFFSET ( 1, 0, .AHEAD. ) ;
#357 = CYLINDRICAL_SURFACE ( 'NONE', #11, 4.000000000000000000 ) ;
#358 = ORIENTED_EDGE ( 'NONE', *, *, #136, .T. ) ;
#359 = PERSON ( 'NEURÈENÝ', 'NEURÈENÝ', 'NEURÈENÝ', ('NEURÈENÝ'), ('NEURÈENÝ'), ('NEURÈENÝ') ) ;
#360 = APPROVAL_PERSON_ORGANIZATION ( #217, #260, #186 ) ;
#361 = EDGE_CURVE ( 'NONE', #167, #225, #156, .T. ) ;
#362 = DIRECTION ( 'NONE',  ( -1.000000000000000000, 0.000000000000000000, 0.000000000000000000 ) ) ;
#363 = FACE_OUTER_BOUND ( 'NONE', #108, .T. ) ;
#364 = VERTEX_POINT ( 'NONE', #26 ) ;
#365 = AXIS2_PLACEMENT_3D ( 'NONE', #311, #148, #204 ) ;
#366 = CARTESIAN_POINT ( 'NONE',  ( 0.000000000000000000, 0.000000000000000000, 253.0000000000000000 ) ) ;
#367 = ORIENTED_EDGE ( 'NONE', *, *, #253, .F. ) ;
#368 = DIRECTION ( 'NONE',  ( 0.000000000000000000, 0.000000000000000000, 1.000000000000000000 ) ) ;
#369 = VERTEX_POINT ( 'NONE', #289 ) ;
#370 = DIRECTION ( 'NONE',  ( 1.000000000000000000, 0.000000000000000000, 0.000000000000000000 ) ) ;
#371 = EDGE_LOOP ( 'NONE', ( #354, #337, #199, #96 ) ) ;
#372 = DIRECTION ( 'NONE',  ( 0.000000000000000000, 0.000000000000000000, 1.000000000000000000 ) ) ;
#373 = APPROVAL ( #35, 'NEURÈENÝ' ) ;
#374 = ORIENTED_EDGE ( 'NONE', *, *, #54, .T. ) ;
#375 = ORIENTED_EDGE ( 'NONE', *, *, #39, .F. ) ;
#376 = CARTESIAN_POINT ( 'NONE',  ( 0.000000000000000000, 0.000000000000000000, 253.0000000000000000 ) ) ;
#377 = EDGE_LOOP ( 'NONE', ( #281, #191, #358, #124 ) ) ;
#378 = AXIS2_PLACEMENT_3D ( 'NONE', #185, #187, #102 ) ;
#379 = DIRECTION ( 'NONE',  ( -0.000000000000000000, -0.000000000000000000, -1.000000000000000000 ) ) ;
#380 = FACE_OUTER_BOUND ( 'NONE', #88, .T. ) ;
#381 = DIRECTION ( 'NONE',  ( 1.000000000000000000, 0.000000000000000000, 0.000000000000000000 ) ) ;
ENDSEC;
END-ISO-10303-21;
