ISO-10303-21;
HEADER;
FILE_DESCRIPTION (( 'STEP AP203' ),
    '1' );
FILE_NAME ('1470.STEP',
    '2022-07-08T15:21:19',
    ( '' ),
    ( '' ),
    'SwSTEP 2.0',
    'SolidWorks 2019',
    '' );
FILE_SCHEMA (( 'CONFIG_CONTROL_DESIGN' ));
ENDSEC;

DATA;
#1 = CARTESIAN_POINT ( 'NONE',  ( 0.000000000000000000, 0.000000000000000000, 80.00000000000000000 ) ) ;
#2 = ORGANIZATION ( 'NEURÈENÝ', 'NEURÈENÝ', '' ) ;
#3 = DIRECTION ( 'NONE',  ( 0.000000000000000000, 0.000000000000000000, 1.000000000000000000 ) ) ;
#4 = APPROVAL_ROLE ( '' ) ;
#5 = CARTESIAN_POINT ( 'NONE',  ( -4.000000000000000000, 0.000000000000000000, 5.500000000000005329 ) ) ;
#6 = DIRECTION ( 'NONE',  ( -1.000000000000000000, 0.000000000000000000, 0.000000000000000000 ) ) ;
#7 = AXIS2_PLACEMENT_3D ( 'NONE', #53, #165, #289 ) ;
#8 = VERTEX_POINT ( 'NONE', #126 ) ;
#9 = DATE_AND_TIME ( #151, #107 ) ;
#10 = CARTESIAN_POINT ( 'NONE',  ( -2.500000000000000000, 0.000000000000000000, 0.000000000000000000 ) ) ;
#11 = AXIS2_PLACEMENT_3D ( 'NONE', #337, #230, #343 ) ;
#12 = PERSON_AND_ORGANIZATION ( #379, #2 ) ;
#13 = CYLINDRICAL_SURFACE ( 'NONE', #140, 4.000000000000000000 ) ;
#14 = EDGE_LOOP ( 'NONE', ( #123, #55, #98, #188 ) ) ;
#15 = COORDINATED_UNIVERSAL_TIME_OFFSET ( 1, 0, .AHEAD. ) ;
#16 = AXIS2_PLACEMENT_3D ( 'NONE', #29, #258, #377 ) ;
#17 = ORIENTED_EDGE ( 'NONE', *, *, #69, .T. ) ;
#18 = ORIENTED_EDGE ( 'NONE', *, *, #150, .T. ) ;
#19 = ORIENTED_EDGE ( 'NONE', *, *, #259, .F. ) ;
#20 = EDGE_CURVE ( 'NONE', #221, #41, #32, .T. ) ;
#21 = LOCAL_TIME ( 17, 21, 19.00000000000000000, #293 ) ;
#22 = CARTESIAN_POINT ( 'NONE',  ( 0.000000000000000000, 0.000000000000000000, 80.00000000000000000 ) ) ;
#23 = ADVANCED_FACE ( 'NONE', ( #79, #290 ), #281, .F. ) ;
#24 = ADVANCED_FACE ( 'NONE', ( #164, #313 ), #196, .T. ) ;
#25 = VERTEX_POINT ( 'NONE', #103 ) ;
#26 = PERSON_AND_ORGANIZATION ( #379, #2 ) ;
#27 = ORIENTED_EDGE ( 'NONE', *, *, #340, .T. ) ;
#28 = CARTESIAN_POINT ( 'NONE',  ( 0.000000000000000000, 0.000000000000000000, 5.500000000000005329 ) ) ;
#29 = CARTESIAN_POINT ( 'NONE',  ( 0.000000000000000000, 0.000000000000000000, 5.500000000000005329 ) ) ;
#30 = AXIS2_PLACEMENT_3D ( 'NONE', #81, #109, #354 ) ;
#31 = CARTESIAN_POINT ( 'NONE',  ( 0.000000000000000000, 0.000000000000000000, 0.000000000000000000 ) ) ;
#32 = CIRCLE ( 'NONE', #292, 0.5000000000000004441 ) ;
#33 = CARTESIAN_POINT ( 'NONE',  ( 0.000000000000000000, 0.000000000000000000, 5.500000000000005329 ) ) ;
#34 = CALENDAR_DATE ( 2022, 8, 7 ) ;
#35 = CARTESIAN_POINT ( 'NONE',  ( 0.000000000000000000, 0.000000000000000000, 0.000000000000000000 ) ) ;
#36 = DIRECTION ( 'NONE',  ( 1.000000000000000000, 0.000000000000000000, 0.000000000000000000 ) ) ;
#37 = VERTEX_POINT ( 'NONE', #286 ) ;
#38 = DIRECTION ( 'NONE',  ( 0.000000000000000000, 0.000000000000000000, 1.000000000000000000 ) ) ;
#39 = CC_DESIGN_DATE_AND_TIME_ASSIGNMENT ( #115, #327, ( #96 ) ) ;
#40 = AXIS2_PLACEMENT_3D ( 'NONE', #116, #205, #265 ) ;
#41 = VERTEX_POINT ( 'NONE', #104 ) ;
#42 = PERSON_AND_ORGANIZATION ( #379, #2 ) ;
#43 = VECTOR ( 'NONE', #220, 1000.000000000000000 ) ;
#44 = DATE_AND_TIME ( #179, #247 ) ;
#45 = EDGE_LOOP ( 'NONE', ( #277, #210, #239, #19 ) ) ;
#46 = DIRECTION ( 'NONE',  ( -0.000000000000000000, -0.000000000000000000, -1.000000000000000000 ) ) ;
#47 = CIRCLE ( 'NONE', #84, 7.000000000000000000 ) ;
#48 = AXIS2_PLACEMENT_3D ( 'NONE', #342, #311, #257 ) ;
#49 = FACE_BOUND ( 'NONE', #273, .T. ) ;
#50 = ORIENTED_EDGE ( 'NONE', *, *, #305, .F. ) ;
#51 =( NAMED_UNIT ( * ) PLANE_ANGLE_UNIT ( ) SI_UNIT ( $, .RADIAN. ) );
#52 = PRODUCT_RELATED_PRODUCT_CATEGORY ( 'detail', '', ( #226 ) ) ;
#53 = CARTESIAN_POINT ( 'NONE',  ( 4.500000000000000888, 0.000000000000000000, 5.500000000000005329 ) ) ;
#54 = EDGE_CURVE ( 'NONE', #153, #333, #326, .T. ) ;
#55 = ORIENTED_EDGE ( 'NONE', *, *, #176, .T. ) ;
#56 = ADVANCED_BREP_SHAPE_REPRESENTATION ( '1470', ( #256, #161 ), #319 ) ;
#57 = DIRECTION ( 'NONE',  ( 0.000000000000000000, 0.000000000000000000, 1.000000000000000000 ) ) ;
#58 = AXIS2_PLACEMENT_3D ( 'NONE', #1, #234, #132 ) ;
#59 = LINE ( 'NONE', #209, #73 ) ;
#60 = EDGE_LOOP ( 'NONE', ( #189, #306, #248, #200 ) ) ;
#61 = MECHANICAL_CONTEXT ( 'NONE', #245, 'mechanical' ) ;
#62 = CYLINDRICAL_SURFACE ( 'NONE', #125, 7.000000000000000000 ) ;
#63 = EDGE_CURVE ( 'NONE', #344, #134, #155, .T. ) ;
#64 = COORDINATED_UNIVERSAL_TIME_OFFSET ( 1, 0, .AHEAD. ) ;
#65 = ORIENTED_EDGE ( 'NONE', *, *, #213, .T. ) ;
#66 = APPROVAL_STATUS ( 'not_yet_approved' ) ;
#67 = FACE_OUTER_BOUND ( 'NONE', #14, .T. ) ;
#68 = EDGE_LOOP ( 'NONE', ( #27, #278, #170, #145 ) ) ;
#69 = EDGE_CURVE ( 'NONE', #221, #344, #249, .T. ) ;
#70 = PERSON_AND_ORGANIZATION ( #379, #2 ) ;
#71 = CARTESIAN_POINT ( 'NONE',  ( 0.000000000000000000, 0.000000000000000000, 5.000000000000000000 ) ) ;
#72 = CYLINDRICAL_SURFACE ( 'NONE', #174, 7.000000000000000000 ) ;
#73 = VECTOR ( 'NONE', #136, 1000.000000000000000 ) ;
#74 = VERTEX_POINT ( 'NONE', #212 ) ;
#75 = FACE_OUTER_BOUND ( 'NONE', #68, .T. ) ;
#76 = VERTEX_POINT ( 'NONE', #110 ) ;
#77 = CIRCLE ( 'NONE', #100, 4.000000000000000000 ) ;
#78 = ORIENTED_EDGE ( 'NONE', *, *, #369, .F. ) ;
#79 = FACE_BOUND ( 'NONE', #108, .T. ) ;
#80 = CARTESIAN_POINT ( 'NONE',  ( 0.000000000000000000, 0.000000000000000000, 80.00000000000000000 ) ) ;
#81 = CARTESIAN_POINT ( 'NONE',  ( 0.000000000000000000, 0.000000000000000000, 0.000000000000000000 ) ) ;
#82 = EDGE_LOOP ( 'NONE', ( #222, #186 ) ) ;
#83 =( NAMED_UNIT ( * ) SI_UNIT ( $, .STERADIAN. ) SOLID_ANGLE_UNIT ( ) );
#84 = AXIS2_PLACEMENT_3D ( 'NONE', #111, #378, #235 ) ;
#85 = DIRECTION ( 'NONE',  ( 0.000000000000000000, 0.000000000000000000, 1.000000000000000000 ) ) ;
#86 = EDGE_CURVE ( 'NONE', #158, #25, #231, .T. ) ;
#87 = CARTESIAN_POINT ( 'NONE',  ( 0.000000000000000000, 0.000000000000000000, 5.000000000000000000 ) ) ;
#88 = PERSON_AND_ORGANIZATION_ROLE ( 'creator' ) ;
#89 = AXIS2_PLACEMENT_3D ( 'NONE', #353, #143, #6 ) ;
#90 = CARTESIAN_POINT ( 'NONE',  ( -2.500000000000000000, 0.000000000000000000, 80.00000000000000000 ) ) ;
#91 = DIRECTION ( 'NONE',  ( -0.000000000000000000, -0.000000000000000000, -1.000000000000000000 ) ) ;
#92 = ORIENTED_EDGE ( 'NONE', *, *, #334, .F. ) ;
#93 = ORIENTED_EDGE ( 'NONE', *, *, #315, .T. ) ;
#94 = APPROVAL_STATUS ( 'not_yet_approved' ) ;
#95 = LINE ( 'NONE', #272, #43 ) ;
#96 = PRODUCT_DEFINITION ( 'NEZNÁMÝ', '', #127, #120 ) ;
#97 = ORIENTED_EDGE ( 'NONE', *, *, #374, .F. ) ;
#98 = ORIENTED_EDGE ( 'NONE', *, *, #374, .T. ) ;
#99 = ORIENTED_EDGE ( 'NONE', *, *, #334, .T. ) ;
#100 = AXIS2_PLACEMENT_3D ( 'NONE', #28, #287, #380 ) ;
#101 = FACE_OUTER_BOUND ( 'NONE', #302, .T. ) ;
#102 = CARTESIAN_POINT ( 'NONE',  ( 0.000000000000000000, 0.000000000000000000, 5.000000000000000000 ) ) ;
#103 = CARTESIAN_POINT ( 'NONE',  ( 7.000000000000000000, 8.572527594031473190E-16, 0.000000000000000000 ) ) ;
#104 = CARTESIAN_POINT ( 'NONE',  ( -4.500000000000000888, 5.510910596163088569E-16, 5.000000000000002665 ) ) ;
#105 = ADVANCED_FACE ( 'NONE', ( #67 ), #357, .T. ) ;
#106 = AXIS2_PLACEMENT_3D ( 'NONE', #87, #91, #262 ) ;
#107 = LOCAL_TIME ( 17, 21, 19.00000000000000000, #64 ) ;
#108 = EDGE_LOOP ( 'NONE', ( #78, #233 ) ) ;
#109 = DIRECTION ( 'NONE',  ( -0.000000000000000000, -0.000000000000000000, -1.000000000000000000 ) ) ;
#110 = CARTESIAN_POINT ( 'NONE',  ( 4.000000000000000000, 4.898587196589412829E-16, 80.00000000000000000 ) ) ;
#111 = CARTESIAN_POINT ( 'NONE',  ( 0.000000000000000000, 0.000000000000000000, 0.000000000000000000 ) ) ;
#112 = APPROVAL_PERSON_ORGANIZATION ( #175, #228, #365 ) ;
#113 = DATE_AND_TIME ( #34, #21 ) ;
#114 = CARTESIAN_POINT ( 'NONE',  ( 0.000000000000000000, 0.000000000000000000, 5.000000000000000000 ) ) ;
#115 = DATE_AND_TIME ( #172, #219 ) ;
#116 = CARTESIAN_POINT ( 'NONE',  ( 0.000000000000000000, 0.000000000000000000, 5.000000000000000000 ) ) ;
#117 = ORIENTED_EDGE ( 'NONE', *, *, #122, .F. ) ;
#118 = CC_DESIGN_APPROVAL ( #228, ( #142 ) ) ;
#119 = PERSON_AND_ORGANIZATION_ROLE ( 'design_supplier' ) ;
#120 = DESIGN_CONTEXT ( 'detailed design', #317, 'design' ) ;
#121 = ORIENTED_EDGE ( 'NONE', *, *, #213, .F. ) ;
#122 = EDGE_CURVE ( 'NONE', #74, #8, #208, .T. ) ;
#123 = ORIENTED_EDGE ( 'NONE', *, *, #321, .F. ) ;
#124 = ORIENTED_EDGE ( 'NONE', *, *, #315, .F. ) ;
#125 = AXIS2_PLACEMENT_3D ( 'NONE', #325, #297, #171 ) ;
#126 = CARTESIAN_POINT ( 'NONE',  ( 7.000000000000000000, 8.572527594031473190E-16, 5.000000000000000000 ) ) ;
#127 = PRODUCT_DEFINITION_FORMATION_WITH_SPECIFIED_SOURCE ( 'LIBOVOLNÝ', '', #226, .NOT_KNOWN. ) ;
#128 = DIRECTION ( 'NONE',  ( -1.000000000000000000, 0.000000000000000000, 0.000000000000000000 ) ) ;
#129 = DIRECTION ( 'NONE',  ( 1.224646799147353207E-16, 1.000000000000000000, -0.000000000000000000 ) ) ;
#130 = APPROVAL_STATUS ( 'not_yet_approved' ) ;
#131 = EDGE_CURVE ( 'NONE', #8, #25, #294, .T. ) ;
#132 = DIRECTION ( 'NONE',  ( 1.000000000000000000, 0.000000000000000000, 0.000000000000000000 ) ) ;
#133 = AXIS2_PLACEMENT_3D ( 'NONE', #322, #57, #318 ) ;
#134 = VERTEX_POINT ( 'NONE', #328 ) ;
#135 = DIRECTION ( 'NONE',  ( 0.000000000000000000, 0.000000000000000000, 1.000000000000000000 ) ) ;
#136 = DIRECTION ( 'NONE',  ( -0.000000000000000000, -0.000000000000000000, -1.000000000000000000 ) ) ;
#137 = PERSON_AND_ORGANIZATION_ROLE ( 'design_owner' ) ;
#138 = DIRECTION ( 'NONE',  ( -0.000000000000000000, -0.000000000000000000, -1.000000000000000000 ) ) ;
#139 = ORIENTED_EDGE ( 'NONE', *, *, #20, .F. ) ;
#140 = AXIS2_PLACEMENT_3D ( 'NONE', #22, #299, #253 ) ;
#141 = PERSON_AND_ORGANIZATION ( #379, #2 ) ;
#142 = SECURITY_CLASSIFICATION ( '', '', #241 ) ;
#143 = DIRECTION ( 'NONE',  ( -0.000000000000000000, -0.000000000000000000, -1.000000000000000000 ) ) ;
#144 = CARTESIAN_POINT ( 'NONE',  ( -7.000000000000000000, 0.000000000000000000, 5.000000000000000000 ) ) ;
#145 = ORIENTED_EDGE ( 'NONE', *, *, #229, .F. ) ;
#146 = PERSON_AND_ORGANIZATION_ROLE ( 'creator' ) ;
#147 = DIRECTION ( 'NONE',  ( -0.000000000000000000, -0.000000000000000000, -1.000000000000000000 ) ) ;
#148 = ORIENTED_EDGE ( 'NONE', *, *, #176, .F. ) ;
#149 = DIRECTION ( 'NONE',  ( 1.000000000000000000, 0.000000000000000000, -0.000000000000000000 ) ) ;
#150 = EDGE_CURVE ( 'NONE', #8, #74, #201, .T. ) ;
#151 = CALENDAR_DATE ( 2022, 8, 7 ) ;
#152 = ADVANCED_FACE ( 'NONE', ( #323 ), #62, .T. ) ;
#153 = VERTEX_POINT ( 'NONE', #177 ) ;
#154 = DIRECTION ( 'NONE',  ( -1.000000000000000000, 0.000000000000000000, 0.000000000000000000 ) ) ;
#155 = CIRCLE ( 'NONE', #7, 0.5000000000000004441 ) ;
#156 = CIRCLE ( 'NONE', #11, 4.000000000000000000 ) ;
#157 = ORIENTED_EDGE ( 'NONE', *, *, #340, .F. ) ;
#158 = VERTEX_POINT ( 'NONE', #291 ) ;
#159 = PRODUCT_DEFINITION_SHAPE ( 'NONE', 'NONE',  #96 ) ;
#160 = VERTEX_POINT ( 'NONE', #173 ) ;
#161 = AXIS2_PLACEMENT_3D ( 'NONE', #31, #135, #261 ) ;
#162 = CC_DESIGN_PERSON_AND_ORGANIZATION_ASSIGNMENT ( #206, #137, ( #226 ) ) ;
#163 = APPLICATION_PROTOCOL_DEFINITION ( 'international standard', 'config_control_design', 1994, #317 ) ;
#164 = FACE_BOUND ( 'NONE', #218, .T. ) ;
#165 = DIRECTION ( 'NONE',  ( 0.000000000000000000, -1.000000000000000000, 0.000000000000000000 ) ) ;
#166 = AXIS2_PLACEMENT_3D ( 'NONE', #254, #375, #232 ) ;
#167 = DIRECTION ( 'NONE',  ( -1.000000000000000000, 1.224646799147351482E-16, 0.000000000000000000 ) ) ;
#168 = AXIS2_PLACEMENT_3D ( 'NONE', #217, #276, #128 ) ;
#169 = CARTESIAN_POINT ( 'NONE',  ( 0.000000000000000000, 0.000000000000000000, 5.500000000000005329 ) ) ;
#170 = ORIENTED_EDGE ( 'NONE', *, *, #54, .T. ) ;
#171 = DIRECTION ( 'NONE',  ( -1.000000000000000000, 0.000000000000000000, 0.000000000000000000 ) ) ;
#172 = CALENDAR_DATE ( 2022, 8, 7 ) ;
#173 = CARTESIAN_POINT ( 'NONE',  ( -4.000000000000000000, 0.000000000000000000, 80.00000000000000000 ) ) ;
#174 = AXIS2_PLACEMENT_3D ( 'NONE', #102, #185, #154 ) ;
#175 = PERSON_AND_ORGANIZATION ( #379, #2 ) ;
#176 = EDGE_CURVE ( 'NONE', #76, #344, #59, .T. ) ;
#177 = CARTESIAN_POINT ( 'NONE',  ( 2.500000000000000000, 3.061616997868383141E-16, 0.000000000000000000 ) ) ;
#178 = EDGE_LOOP ( 'NONE', ( #139, #97, #250, #121 ) ) ;
#179 = CALENDAR_DATE ( 2022, 8, 7 ) ;
#180 = DIRECTION ( 'NONE',  ( 0.000000000000000000, 0.000000000000000000, 1.000000000000000000 ) ) ;
#181 = UNCERTAINTY_MEASURE_WITH_UNIT (LENGTH_MEASURE( 1.000000000000000082E-05 ), #199, 'distance_accuracy_value', 'NONE');
#182 = ORIENTED_EDGE ( 'NONE', *, *, #264, .T. ) ;
#183 = SHAPE_DEFINITION_REPRESENTATION ( #159, #56 ) ;
#184 = AXIS2_PLACEMENT_3D ( 'NONE', #71, #180, #149 ) ;
#185 = DIRECTION ( 'NONE',  ( -0.000000000000000000, -0.000000000000000000, -1.000000000000000000 ) ) ;
#186 = ORIENTED_EDGE ( 'NONE', *, *, #335, .F. ) ;
#187 = CYLINDRICAL_SURFACE ( 'NONE', #168, 2.500000000000000000 ) ;
#188 = ORIENTED_EDGE ( 'NONE', *, *, #264, .F. ) ;
#189 = ORIENTED_EDGE ( 'NONE', *, *, #69, .F. ) ;
#190 = AXIS2_PLACEMENT_3D ( 'NONE', #169, #350, #351 ) ;
#191 = EDGE_LOOP ( 'NONE', ( #50, #99, #368, #192 ) ) ;
#192 = ORIENTED_EDGE ( 'NONE', *, *, #369, .T. ) ;
#193 = DIRECTION ( 'NONE',  ( -1.000000000000000000, 0.000000000000000000, 0.000000000000000000 ) ) ;
#194 = DIRECTION ( 'NONE',  ( 0.000000000000000000, 0.000000000000000000, 1.000000000000000000 ) ) ;
#195 = AXIS2_PLACEMENT_3D ( 'NONE', #80, #194, #312 ) ;
#196 = PLANE ( 'NONE',  #166 ) ;
#197 = CC_DESIGN_PERSON_AND_ORGANIZATION_ASSIGNMENT ( #70, #88, ( #96 ) ) ;
#198 = DIRECTION ( 'NONE',  ( -0.000000000000000000, -0.000000000000000000, -1.000000000000000000 ) ) ;
#199 =( LENGTH_UNIT ( ) NAMED_UNIT ( * ) SI_UNIT ( .MILLI., .METRE. ) );
#200 = ORIENTED_EDGE ( 'NONE', *, *, #63, .F. ) ;
#201 = CIRCLE ( 'NONE', #40, 7.000000000000000000 ) ;
#202 = DIRECTION ( 'NONE',  ( 1.000000000000000000, 0.000000000000000000, 0.000000000000000000 ) ) ;
#203 = LOCAL_TIME ( 17, 21, 19.00000000000000000, #271 ) ;
#204 = APPLICATION_PROTOCOL_DEFINITION ( 'international standard', 'config_control_design', 1994, #245 ) ;
#205 = DIRECTION ( 'NONE',  ( 0.000000000000000000, 0.000000000000000000, 1.000000000000000000 ) ) ;
#206 = PERSON_AND_ORGANIZATION ( #379, #2 ) ;
#207 = LINE ( 'NONE', #144, #266 ) ;
#208 = CIRCLE ( 'NONE', #370, 7.000000000000000000 ) ;
#209 = CARTESIAN_POINT ( 'NONE',  ( 4.000000000000000000, 4.898587196589412829E-16, 80.00000000000000000 ) ) ;
#210 = ORIENTED_EDGE ( 'NONE', *, *, #131, .T. ) ;
#211 = CIRCLE ( 'NONE', #195, 4.000000000000000000 ) ;
#212 = CARTESIAN_POINT ( 'NONE',  ( -7.000000000000000000, 0.000000000000000000, 5.000000000000000000 ) ) ;
#213 = EDGE_CURVE ( 'NONE', #41, #134, #355, .T. ) ;
#214 = CARTESIAN_POINT ( 'NONE',  ( 0.000000000000000000, 0.000000000000000000, 5.000000000000000000 ) ) ;
#215 = ORIENTED_EDGE ( 'NONE', *, *, #259, .T. ) ;
#216 = APPROVAL_DATE_TIME ( #113, #228 ) ;
#217 = CARTESIAN_POINT ( 'NONE',  ( 0.000000000000000000, 0.000000000000000000, 80.00000000000000000 ) ) ;
#218 = EDGE_LOOP ( 'NONE', ( #157, #92 ) ) ;
#219 = LOCAL_TIME ( 17, 21, 19.00000000000000000, #267 ) ;
#220 = DIRECTION ( 'NONE',  ( 0.000000000000000000, 0.000000000000000000, -1.000000000000000000 ) ) ;
#221 = VERTEX_POINT ( 'NONE', #5 ) ;
#222 = ORIENTED_EDGE ( 'NONE', *, *, #86, .F. ) ;
#223 = AXIS2_PLACEMENT_3D ( 'NONE', #35, #38, #360 ) ;
#224 = ORIENTED_EDGE ( 'NONE', *, *, #122, .T. ) ;
#225 = CIRCLE ( 'NONE', #30, 2.500000000000000000 ) ;
#226 = PRODUCT ( '1470', '1470', '', ( #61 ) ) ;
#227 = CYLINDRICAL_SURFACE ( 'NONE', #376, 2.500000000000000000 ) ;
#228 = APPROVAL ( #94, 'NEURÈENÝ' ) ;
#229 = EDGE_CURVE ( 'NONE', #308, #333, #381, .T. ) ;
#230 = DIRECTION ( 'NONE',  ( 0.000000000000000000, 0.000000000000000000, 1.000000000000000000 ) ) ;
#231 = CIRCLE ( 'NONE', #223, 7.000000000000000000 ) ;
#232 = DIRECTION ( 'NONE',  ( 1.000000000000000000, 0.000000000000000000, -0.000000000000000000 ) ) ;
#233 = ORIENTED_EDGE ( 'NONE', *, *, #54, .F. ) ;
#234 = DIRECTION ( 'NONE',  ( 0.000000000000000000, 0.000000000000000000, 1.000000000000000000 ) ) ;
#235 = DIRECTION ( 'NONE',  ( 1.000000000000000000, 0.000000000000000000, 0.000000000000000000 ) ) ;
#236 = FACE_OUTER_BOUND ( 'NONE', #60, .T. ) ;
#237 = CC_DESIGN_SECURITY_CLASSIFICATION ( #142, ( #127 ) ) ;
#238 = ADVANCED_FACE ( 'NONE', ( #236 ), #283, .F. ) ;
#239 = ORIENTED_EDGE ( 'NONE', *, *, #335, .T. ) ;
#240 = AXIS2_PLACEMENT_3D ( 'NONE', #214, #46, #373 ) ;
#241 = SECURITY_CLASSIFICATION_LEVEL ( 'unclassified' ) ;
#242 = EDGE_LOOP ( 'NONE', ( #93, #304 ) ) ;
#243 = PERSON_AND_ORGANIZATION_ROLE ( 'classification_officer' ) ;
#244 = APPROVAL ( #66, 'NEURÈENÝ' ) ;
#245 = APPLICATION_CONTEXT ( 'configuration controlled 3d designs of mechanical parts and assemblies' ) ;
#246 = AXIS2_PLACEMENT_3D ( 'NONE', #33, #3, #36 ) ;
#247 = LOCAL_TIME ( 17, 21, 19.00000000000000000, #15 ) ;
#248 = ORIENTED_EDGE ( 'NONE', *, *, #280, .F. ) ;
#249 = CIRCLE ( 'NONE', #16, 4.000000000000000000 ) ;
#250 = ORIENTED_EDGE ( 'NONE', *, *, #63, .T. ) ;
#251 = LINE ( 'NONE', #332, #367 ) ;
#252 = CC_DESIGN_APPROVAL ( #345, ( #96 ) ) ;
#253 = DIRECTION ( 'NONE',  ( -1.000000000000000000, 0.000000000000000000, 0.000000000000000000 ) ) ;
#254 = CARTESIAN_POINT ( 'NONE',  ( 0.000000000000000000, 0.000000000000000000, 80.00000000000000000 ) ) ;
#255 = APPROVAL_ROLE ( '' ) ;
#256 = MANIFOLD_SOLID_BREP ( 'Odebrat vysunutím3', #275 ) ;
#257 = DIRECTION ( 'NONE',  ( 1.000000000000000000, 0.000000000000000000, -0.000000000000000000 ) ) ;
#258 = DIRECTION ( 'NONE',  ( 0.000000000000000000, 0.000000000000000000, 1.000000000000000000 ) ) ;
#259 = EDGE_CURVE ( 'NONE', #74, #158, #207, .T. ) ;
#260 = ADVANCED_FACE ( 'NONE', ( #364 ), #187, .F. ) ;
#261 = DIRECTION ( 'NONE',  ( 1.000000000000000000, 0.000000000000000000, 0.000000000000000000 ) ) ;
#262 = DIRECTION ( 'NONE',  ( 1.000000000000000000, 0.000000000000000000, 0.000000000000000000 ) ) ;
#263 = ADVANCED_FACE ( 'NONE', ( #274 ), #13, .T. ) ;
#264 = EDGE_CURVE ( 'NONE', #160, #221, #251, .T. ) ;
#265 = DIRECTION ( 'NONE',  ( 1.000000000000000000, 0.000000000000000000, 0.000000000000000000 ) ) ;
#266 = VECTOR ( 'NONE', #282, 1000.000000000000000 ) ;
#267 = COORDINATED_UNIVERSAL_TIME_OFFSET ( 1, 0, .AHEAD. ) ;
#268 = EDGE_LOOP ( 'NONE', ( #148, #124, #182, #17 ) ) ;
#269 = VECTOR ( 'NONE', #138, 1000.000000000000000 ) ;
#270 = CIRCLE ( 'NONE', #133, 2.500000000000000000 ) ;
#271 = COORDINATED_UNIVERSAL_TIME_OFFSET ( 1, 0, .AHEAD. ) ;
#272 = CARTESIAN_POINT ( 'NONE',  ( 2.500000000000000000, 3.061616997868383141E-16, 80.00000000000000000 ) ) ;
#273 = EDGE_LOOP ( 'NONE', ( #331, #65 ) ) ;
#274 = FACE_OUTER_BOUND ( 'NONE', #268, .T. ) ;
#275 = CLOSED_SHELL ( 'NONE', ( #303, #238, #105, #152, #288, #295, #23, #263, #24, #346, #260 ) ) ;
#276 = DIRECTION ( 'NONE',  ( 0.000000000000000000, 0.000000000000000000, -1.000000000000000000 ) ) ;
#277 = ORIENTED_EDGE ( 'NONE', *, *, #150, .F. ) ;
#278 = ORIENTED_EDGE ( 'NONE', *, *, #305, .T. ) ;
#279 = CC_DESIGN_PERSON_AND_ORGANIZATION_ASSIGNMENT ( #359, #243, ( #142 ) ) ;
#280 = EDGE_CURVE ( 'NONE', #134, #41, #348, .T. ) ;
#281 = PLANE ( 'NONE',  #48 ) ;
#282 = DIRECTION ( 'NONE',  ( -0.000000000000000000, -0.000000000000000000, -1.000000000000000000 ) ) ;
#283 = TOROIDAL_SURFACE ( 'NONE', #246, 4.500000000000000888, 0.5000000000000000000 ) ;
#284 = CC_DESIGN_APPROVAL ( #244, ( #127 ) ) ;
#285 = CC_DESIGN_PERSON_AND_ORGANIZATION_ASSIGNMENT ( #12, #119, ( #127 ) ) ;
#286 = CARTESIAN_POINT ( 'NONE',  ( 2.500000000000000000, 3.061616997868383141E-16, 80.00000000000000000 ) ) ;
#287 = DIRECTION ( 'NONE',  ( 0.000000000000000000, 0.000000000000000000, 1.000000000000000000 ) ) ;
#288 = ADVANCED_FACE ( 'NONE', ( #366 ), #72, .T. ) ;
#289 = DIRECTION ( 'NONE',  ( 0.000000000000000000, 0.000000000000000000, -1.000000000000000000 ) ) ;
#290 = FACE_OUTER_BOUND ( 'NONE', #82, .T. ) ;
#291 = CARTESIAN_POINT ( 'NONE',  ( -7.000000000000000000, 0.000000000000000000, 0.000000000000000000 ) ) ;
#292 = AXIS2_PLACEMENT_3D ( 'NONE', #309, #129, #167 ) ;
#293 = COORDINATED_UNIVERSAL_TIME_OFFSET ( 1, 0, .AHEAD. ) ;
#294 = LINE ( 'NONE', #320, #269 ) ;
#295 = ADVANCED_FACE ( 'NONE', ( #49, #101 ), #330, .T. ) ;
#296 = DIRECTION ( 'NONE',  ( 0.000000000000000000, 0.000000000000000000, -1.000000000000000000 ) ) ;
#297 = DIRECTION ( 'NONE',  ( -0.000000000000000000, -0.000000000000000000, -1.000000000000000000 ) ) ;
#298 = APPROVAL_DATE_TIME ( #44, #244 ) ;
#299 = DIRECTION ( 'NONE',  ( -0.000000000000000000, -0.000000000000000000, -1.000000000000000000 ) ) ;
#300 = ORIENTED_EDGE ( 'NONE', *, *, #131, .F. ) ;
#301 = DIRECTION ( 'NONE',  ( 0.000000000000000000, 0.000000000000000000, -1.000000000000000000 ) ) ;
#302 = EDGE_LOOP ( 'NONE', ( #224, #18 ) ) ;
#303 = ADVANCED_FACE ( 'NONE', ( #75 ), #227, .F. ) ;
#304 = ORIENTED_EDGE ( 'NONE', *, *, #321, .T. ) ;
#305 = EDGE_CURVE ( 'NONE', #37, #153, #95, .T. ) ;
#306 = ORIENTED_EDGE ( 'NONE', *, *, #20, .T. ) ;
#307 = VECTOR ( 'NONE', #296, 1000.000000000000000 ) ;
#308 = VERTEX_POINT ( 'NONE', #310 ) ;
#309 = CARTESIAN_POINT ( 'NONE',  ( -4.500000000000000888, 5.510910596163089556E-16, 5.500000000000005329 ) ) ;
#310 = CARTESIAN_POINT ( 'NONE',  ( -2.500000000000000000, 0.000000000000000000, 80.00000000000000000 ) ) ;
#311 = DIRECTION ( 'NONE',  ( 0.000000000000000000, 0.000000000000000000, 1.000000000000000000 ) ) ;
#312 = DIRECTION ( 'NONE',  ( 1.000000000000000000, 0.000000000000000000, 0.000000000000000000 ) ) ;
#313 = FACE_OUTER_BOUND ( 'NONE', #242, .T. ) ;
#314 = FACE_OUTER_BOUND ( 'NONE', #178, .T. ) ;
#315 = EDGE_CURVE ( 'NONE', #160, #76, #156, .T. ) ;
#316 = DIRECTION ( 'NONE',  ( 1.000000000000000000, 0.000000000000000000, 0.000000000000000000 ) ) ;
#317 = APPLICATION_CONTEXT ( 'configuration controlled 3d designs of mechanical parts and assemblies' ) ;
#318 = DIRECTION ( 'NONE',  ( 1.000000000000000000, 0.000000000000000000, 0.000000000000000000 ) ) ;
#319 =( GEOMETRIC_REPRESENTATION_CONTEXT ( 3 ) GLOBAL_UNCERTAINTY_ASSIGNED_CONTEXT ( ( #181 ) ) GLOBAL_UNIT_ASSIGNED_CONTEXT ( ( #199, #51, #83 ) ) REPRESENTATION_CONTEXT ( 'NONE', 'WORKASPACE' ) );
#320 = CARTESIAN_POINT ( 'NONE',  ( 7.000000000000000000, 8.572527594031473190E-16, 5.000000000000000000 ) ) ;
#321 = EDGE_CURVE ( 'NONE', #76, #160, #211, .T. ) ;
#322 = CARTESIAN_POINT ( 'NONE',  ( 0.000000000000000000, 0.000000000000000000, 80.00000000000000000 ) ) ;
#323 = FACE_OUTER_BOUND ( 'NONE', #45, .T. ) ;
#324 = APPROVAL_DATE_TIME ( #358, #345 ) ;
#325 = CARTESIAN_POINT ( 'NONE',  ( 0.000000000000000000, 0.000000000000000000, 5.000000000000000000 ) ) ;
#326 = CIRCLE ( 'NONE', #339, 2.500000000000000000 ) ;
#327 = DATE_TIME_ROLE ( 'creation_date' ) ;
#328 = CARTESIAN_POINT ( 'NONE',  ( 4.500000000000000888, 0.000000000000000000, 5.000000000000002665 ) ) ;
#329 = CALENDAR_DATE ( 2022, 8, 7 ) ;
#330 = PLANE ( 'NONE',  #184 ) ;
#331 = ORIENTED_EDGE ( 'NONE', *, *, #280, .T. ) ;
#332 = CARTESIAN_POINT ( 'NONE',  ( -4.000000000000000000, 0.000000000000000000, 80.00000000000000000 ) ) ;
#333 = VERTEX_POINT ( 'NONE', #10 ) ;
#334 = EDGE_CURVE ( 'NONE', #37, #308, #361, .T. ) ;
#335 = EDGE_CURVE ( 'NONE', #25, #158, #47, .T. ) ;
#336 = TOROIDAL_SURFACE ( 'NONE', #190, 4.500000000000000888, 0.5000000000000000000 ) ;
#337 = CARTESIAN_POINT ( 'NONE',  ( 0.000000000000000000, 0.000000000000000000, 80.00000000000000000 ) ) ;
#338 = EDGE_LOOP ( 'NONE', ( #300, #117, #215, #371 ) ) ;
#339 = AXIS2_PLACEMENT_3D ( 'NONE', #349, #198, #316 ) ;
#340 = EDGE_CURVE ( 'NONE', #308, #37, #270, .T. ) ;
#341 = CARTESIAN_POINT ( 'NONE',  ( 0.000000000000000000, 0.000000000000000000, 80.00000000000000000 ) ) ;
#342 = CARTESIAN_POINT ( 'NONE',  ( 0.000000000000000000, 0.000000000000000000, 0.000000000000000000 ) ) ;
#343 = DIRECTION ( 'NONE',  ( 1.000000000000000000, 0.000000000000000000, 0.000000000000000000 ) ) ;
#344 = VERTEX_POINT ( 'NONE', #347 ) ;
#345 = APPROVAL ( #130, 'NEURÈENÝ' ) ;
#346 = ADVANCED_FACE ( 'NONE', ( #314 ), #336, .F. ) ;
#347 = CARTESIAN_POINT ( 'NONE',  ( 4.000000000000000000, 4.898587196589412829E-16, 5.500000000000005329 ) ) ;
#348 = CIRCLE ( 'NONE', #240, 4.500000000000000888 ) ;
#349 = CARTESIAN_POINT ( 'NONE',  ( 0.000000000000000000, 0.000000000000000000, 0.000000000000000000 ) ) ;
#350 = DIRECTION ( 'NONE',  ( 0.000000000000000000, 0.000000000000000000, 1.000000000000000000 ) ) ;
#351 = DIRECTION ( 'NONE',  ( 1.000000000000000000, 0.000000000000000000, 0.000000000000000000 ) ) ;
#352 = CC_DESIGN_PERSON_AND_ORGANIZATION_ASSIGNMENT ( #42, #146, ( #127 ) ) ;
#353 = CARTESIAN_POINT ( 'NONE',  ( 0.000000000000000000, 0.000000000000000000, 80.00000000000000000 ) ) ;
#354 = DIRECTION ( 'NONE',  ( 1.000000000000000000, 0.000000000000000000, 0.000000000000000000 ) ) ;
#355 = CIRCLE ( 'NONE', #106, 4.500000000000000888 ) ;
#356 = APPROVAL_PERSON_ORGANIZATION ( #141, #244, #4 ) ;
#357 = CYLINDRICAL_SURFACE ( 'NONE', #89, 4.000000000000000000 ) ;
#358 = DATE_AND_TIME ( #329, #203 ) ;
#359 = PERSON_AND_ORGANIZATION ( #379, #2 ) ;
#360 = DIRECTION ( 'NONE',  ( 1.000000000000000000, 0.000000000000000000, 0.000000000000000000 ) ) ;
#361 = CIRCLE ( 'NONE', #58, 2.500000000000000000 ) ;
#362 = DATE_TIME_ROLE ( 'classification_date' ) ;
#363 = CC_DESIGN_DATE_AND_TIME_ASSIGNMENT ( #9, #362, ( #142 ) ) ;
#364 = FACE_OUTER_BOUND ( 'NONE', #191, .T. ) ;
#365 = APPROVAL_ROLE ( '' ) ;
#366 = FACE_OUTER_BOUND ( 'NONE', #338, .T. ) ;
#367 = VECTOR ( 'NONE', #147, 1000.000000000000000 ) ;
#368 = ORIENTED_EDGE ( 'NONE', *, *, #229, .T. ) ;
#369 = EDGE_CURVE ( 'NONE', #333, #153, #225, .T. ) ;
#370 = AXIS2_PLACEMENT_3D ( 'NONE', #114, #85, #202 ) ;
#371 = ORIENTED_EDGE ( 'NONE', *, *, #86, .T. ) ;
#372 = APPROVAL_PERSON_ORGANIZATION ( #26, #345, #255 ) ;
#373 = DIRECTION ( 'NONE',  ( 1.000000000000000000, 0.000000000000000000, 0.000000000000000000 ) ) ;
#374 = EDGE_CURVE ( 'NONE', #344, #221, #77, .T. ) ;
#375 = DIRECTION ( 'NONE',  ( 0.000000000000000000, 0.000000000000000000, 1.000000000000000000 ) ) ;
#376 = AXIS2_PLACEMENT_3D ( 'NONE', #341, #301, #193 ) ;
#377 = DIRECTION ( 'NONE',  ( 1.000000000000000000, 0.000000000000000000, 0.000000000000000000 ) ) ;
#378 = DIRECTION ( 'NONE',  ( 0.000000000000000000, 0.000000000000000000, 1.000000000000000000 ) ) ;
#379 = PERSON ( 'NEURÈENÝ', 'NEURÈENÝ', 'NEURÈENÝ', ('NEURÈENÝ'), ('NEURÈENÝ'), ('NEURÈENÝ') ) ;
#380 = DIRECTION ( 'NONE',  ( 1.000000000000000000, 0.000000000000000000, 0.000000000000000000 ) ) ;
#381 = LINE ( 'NONE', #90, #307 ) ;
ENDSEC;
END-ISO-10303-21;
