ISO-10303-21;
HEADER;
FILE_DESCRIPTION (( 'STEP AP203' ),
    '1' );
FILE_NAME ('5936.STEP',
    '2022-07-08T14:56:18',
    ( '' ),
    ( '' ),
    'SwSTEP 2.0',
    'SolidWorks 2019',
    '' );
FILE_SCHEMA (( 'CONFIG_CONTROL_DESIGN' ));
ENDSEC;

DATA;
#1 = CYLINDRICAL_SURFACE ( 'NONE', #123, 8.000000000000000000 ) ;
#2 = AXIS2_PLACEMENT_3D ( 'NONE', #133, #135, #105 ) ;
#3 = CARTESIAN_POINT ( 'NONE',  ( 0.000000000000000000, 0.000000000000000000, 5.499999999999949374 ) ) ;
#4 = ADVANCED_FACE ( 'NONE', ( #113, #347 ), #176, .F. ) ;
#5 = ORIENTED_EDGE ( 'NONE', *, *, #378, .T. ) ;
#6 = MECHANICAL_CONTEXT ( 'NONE', #77, 'mechanical' ) ;
#7 = VERTEX_POINT ( 'NONE', #144 ) ;
#8 = LINE ( 'NONE', #319, #320 ) ;
#9 = DIRECTION ( 'NONE',  ( 1.000000000000000000, 0.000000000000000000, -0.000000000000000000 ) ) ;
#10 = DESIGN_CONTEXT ( 'detailed design', #188, 'design' ) ;
#11 = DIRECTION ( 'NONE',  ( 0.000000000000000000, 0.000000000000000000, -1.000000000000000000 ) ) ;
#12 = CARTESIAN_POINT ( 'NONE',  ( -3.000000000000000444, 0.000000000000000000, 605.0000000000000000 ) ) ;
#13 = EDGE_CURVE ( 'NONE', #55, #53, #204, .T. ) ;
#14 = COORDINATED_UNIVERSAL_TIME_OFFSET ( 1, 0, .AHEAD. ) ;
#15 = AXIS2_PLACEMENT_3D ( 'NONE', #276, #23, #307 ) ;
#16 = EDGE_CURVE ( 'NONE', #53, #247, #310, .T. ) ;
#17 = DATE_AND_TIME ( #183, #83 ) ;
#18 = PERSON_AND_ORGANIZATION ( #174, #260 ) ;
#19 = LOCAL_TIME ( 16, 56, 18.00000000000000000, #265 ) ;
#20 = EDGE_CURVE ( 'NONE', #53, #298, #380, .T. ) ;
#21 = CARTESIAN_POINT ( 'NONE',  ( 0.000000000000000000, 0.000000000000000000, 605.0000000000000000 ) ) ;
#22 = ORIENTED_EDGE ( 'NONE', *, *, #99, .F. ) ;
#23 = DIRECTION ( 'NONE',  ( -0.000000000000000000, -0.000000000000000000, -1.000000000000000000 ) ) ;
#24 = ORIENTED_EDGE ( 'NONE', *, *, #245, .T. ) ;
#25 = DIRECTION ( 'NONE',  ( -1.000000000000000000, 0.000000000000000000, 0.000000000000000000 ) ) ;
#26 = AXIS2_PLACEMENT_3D ( 'NONE', #181, #263, #210 ) ;
#27 = EDGE_LOOP ( 'NONE', ( #267, #141 ) ) ;
#28 = CIRCLE ( 'NONE', #15, 5.500000000000000000 ) ;
#29 = CARTESIAN_POINT ( 'NONE',  ( -8.000000000000000000, 0.000000000000000000, 5.000000000000000000 ) ) ;
#30 = DIRECTION ( 'NONE',  ( 0.000000000000000000, 0.000000000000000000, 1.000000000000000000 ) ) ;
#31 = CYLINDRICAL_SURFACE ( 'NONE', #346, 5.000000000000000000 ) ;
#32 = CARTESIAN_POINT ( 'NONE',  ( 0.000000000000000000, 0.000000000000000000, 5.499999999999949374 ) ) ;
#33 = CC_DESIGN_SECURITY_CLASSIFICATION ( #170, ( #61 ) ) ;
#34 = EDGE_LOOP ( 'NONE', ( #22, #239, #195, #226 ) ) ;
#35 = EDGE_LOOP ( 'NONE', ( #217, #376 ) ) ;
#36 = PERSON_AND_ORGANIZATION_ROLE ( 'design_owner' ) ;
#37 = VERTEX_POINT ( 'NONE', #172 ) ;
#38 = CYLINDRICAL_SURFACE ( 'NONE', #368, 8.000000000000000000 ) ;
#39 = TOROIDAL_SURFACE ( 'NONE', #194, 5.500000000000000000, 0.5000000000000000000 ) ;
#40 = ADVANCED_FACE ( 'NONE', ( #278 ), #31, .T. ) ;
#41 = CARTESIAN_POINT ( 'NONE',  ( 0.000000000000000000, 0.000000000000000000, 0.000000000000000000 ) ) ;
#42 = PERSON_AND_ORGANIZATION ( #174, #260 ) ;
#43 = LOCAL_TIME ( 16, 56, 18.00000000000000000, #95 ) ;
#44 = DATE_TIME_ROLE ( 'creation_date' ) ;
#45 = PERSON_AND_ORGANIZATION ( #174, #260 ) ;
#46 = CARTESIAN_POINT ( 'NONE',  ( -5.000000000000000000, 0.000000000000000000, 605.0000000000000000 ) ) ;
#47 = EDGE_CURVE ( 'NONE', #247, #81, #136, .T. ) ;
#48 = EDGE_LOOP ( 'NONE', ( #50, #91 ) ) ;
#49 = FACE_OUTER_BOUND ( 'NONE', #358, .T. ) ;
#50 = ORIENTED_EDGE ( 'NONE', *, *, #52, .F. ) ;
#51 = PLANE ( 'NONE',  #180 ) ;
#52 = EDGE_CURVE ( 'NONE', #197, #201, #200, .T. ) ;
#53 = VERTEX_POINT ( 'NONE', #293 ) ;
#54 = FACE_OUTER_BOUND ( 'NONE', #161, .T. ) ;
#55 = VERTEX_POINT ( 'NONE', #46 ) ;
#56 = DIRECTION ( 'NONE',  ( 0.000000000000000000, 0.000000000000000000, -1.000000000000000000 ) ) ;
#57 = CARTESIAN_POINT ( 'NONE',  ( -5.500000000000000000, 6.735557395310442023E-16, 5.499999999999949374 ) ) ;
#58 = EDGE_CURVE ( 'NONE', #298, #81, #374, .T. ) ;
#59 = AXIS2_PLACEMENT_3D ( 'NONE', #155, #214, #268 ) ;
#60 = DIRECTION ( 'NONE',  ( 0.000000000000000000, 0.000000000000000000, 1.000000000000000000 ) ) ;
#61 = PRODUCT_DEFINITION_FORMATION_WITH_SPECIFIED_SOURCE ( 'LIBOVOLNÝ', '', #288, .NOT_KNOWN. ) ;
#62 = ORIENTED_EDGE ( 'NONE', *, *, #58, .T. ) ;
#63 = DIRECTION ( 'NONE',  ( 0.000000000000000000, 0.000000000000000000, 1.000000000000000000 ) ) ;
#64 = DIRECTION ( 'NONE',  ( 0.000000000000000000, 0.000000000000000000, -1.000000000000000000 ) ) ;
#65 = AXIS2_PLACEMENT_3D ( 'NONE', #233, #359, #114 ) ;
#66 = DIRECTION ( 'NONE',  ( -0.000000000000000000, -0.000000000000000000, -1.000000000000000000 ) ) ;
#67 = LINE ( 'NONE', #184, #349 ) ;
#68 = EDGE_CURVE ( 'NONE', #7, #85, #335, .T. ) ;
#69 = ORIENTED_EDGE ( 'NONE', *, *, #338, .T. ) ;
#70 = CIRCLE ( 'NONE', #98, 3.000000000000000444 ) ;
#71 = PERSON_AND_ORGANIZATION ( #174, #260 ) ;
#72 = ORIENTED_EDGE ( 'NONE', *, *, #361, .T. ) ;
#73 = PERSON_AND_ORGANIZATION ( #174, #260 ) ;
#74 = ADVANCED_FACE ( 'NONE', ( #152 ), #360, .T. ) ;
#75 = EDGE_LOOP ( 'NONE', ( #139, #342, #5, #367 ) ) ;
#76 = CARTESIAN_POINT ( 'NONE',  ( 5.500000000000000000, 0.000000000000000000, 4.999999999999975131 ) ) ;
#77 = APPLICATION_CONTEXT ( 'configuration controlled 3d designs of mechanical parts and assemblies' ) ;
#78 = LINE ( 'NONE', #29, #117 ) ;
#79 = EDGE_CURVE ( 'NONE', #37, #302, #259, .T. ) ;
#80 = CARTESIAN_POINT ( 'NONE',  ( 5.000000000000000000, 6.123233995736766282E-16, 5.499999999999949374 ) ) ;
#81 = VERTEX_POINT ( 'NONE', #76 ) ;
#82 = CARTESIAN_POINT ( 'NONE',  ( 0.000000000000000000, 0.000000000000000000, 605.0000000000000000 ) ) ;
#83 = LOCAL_TIME ( 16, 56, 18.00000000000000000, #14 ) ;
#84 = FACE_OUTER_BOUND ( 'NONE', #75, .T. ) ;
#85 = VERTEX_POINT ( 'NONE', #221 ) ;
#86 = PRODUCT_DEFINITION_SHAPE ( 'NONE', 'NONE',  #134 ) ;
#87 = ORIENTED_EDGE ( 'NONE', *, *, #238, .T. ) ;
#88 = APPLICATION_PROTOCOL_DEFINITION ( 'international standard', 'config_control_design', 1994, #77 ) ;
#89 = ORIENTED_EDGE ( 'NONE', *, *, #13, .T. ) ;
#90 =( LENGTH_UNIT ( ) NAMED_UNIT ( * ) SI_UNIT ( .MILLI., .METRE. ) );
#91 = ORIENTED_EDGE ( 'NONE', *, *, #378, .F. ) ;
#92 = EDGE_CURVE ( 'NONE', #372, #55, #150, .T. ) ;
#93 = APPROVAL_PERSON_ORGANIZATION ( #42, #236, #295 ) ;
#94 = DIRECTION ( 'NONE',  ( 1.000000000000000000, 0.000000000000000000, 0.000000000000000000 ) ) ;
#95 = COORDINATED_UNIVERSAL_TIME_OFFSET ( 1, 0, .AHEAD. ) ;
#96 = EDGE_LOOP ( 'NONE', ( #286, #251 ) ) ;
#97 = CALENDAR_DATE ( 2022, 8, 7 ) ;
#98 = AXIS2_PLACEMENT_3D ( 'NONE', #82, #311, #348 ) ;
#99 = EDGE_CURVE ( 'NONE', #37, #201, #67, .T. ) ;
#100 = DIRECTION ( 'NONE',  ( -1.000000000000000000, 0.000000000000000000, 0.000000000000000000 ) ) ;
#101 = DIRECTION ( 'NONE',  ( 1.000000000000000000, 0.000000000000000000, 0.000000000000000000 ) ) ;
#102 = ORIENTED_EDGE ( 'NONE', *, *, #16, .F. ) ;
#103 = ORIENTED_EDGE ( 'NONE', *, *, #175, .F. ) ;
#104 = APPROVAL ( #216, 'NEURÈENÝ' ) ;
#105 = DIRECTION ( 'NONE',  ( 1.000000000000000000, 0.000000000000000000, 0.000000000000000000 ) ) ;
#106 = ORIENTED_EDGE ( 'NONE', *, *, #285, .F. ) ;
#107 = CARTESIAN_POINT ( 'NONE',  ( 0.000000000000000000, 0.000000000000000000, 5.499999999999949374 ) ) ;
#108 = ORIENTED_EDGE ( 'NONE', *, *, #238, .F. ) ;
#109 = DIRECTION ( 'NONE',  ( 1.000000000000000000, 0.000000000000000000, -0.000000000000000000 ) ) ;
#110 = CARTESIAN_POINT ( 'NONE',  ( -8.000000000000000000, 0.000000000000000000, 0.000000000000000000 ) ) ;
#111 = EDGE_CURVE ( 'NONE', #199, #132, #179, .T. ) ;
#112 = CARTESIAN_POINT ( 'NONE',  ( 0.000000000000000000, 0.000000000000000000, 0.000000000000000000 ) ) ;
#113 = FACE_BOUND ( 'NONE', #169, .T. ) ;
#114 = DIRECTION ( 'NONE',  ( 1.000000000000000000, 0.000000000000000000, 0.000000000000000000 ) ) ;
#115 = DIRECTION ( 'NONE',  ( 1.224646799147353207E-16, 1.000000000000000000, -0.000000000000000000 ) ) ;
#116 = EDGE_CURVE ( 'NONE', #302, #37, #313, .T. ) ;
#117 = VECTOR ( 'NONE', #140, 1000.000000000000000 ) ;
#118 = DIRECTION ( 'NONE',  ( 1.000000000000000000, 0.000000000000000000, 0.000000000000000000 ) ) ;
#119 = UNCERTAINTY_MEASURE_WITH_UNIT (LENGTH_MEASURE( 1.000000000000000082E-05 ), #90, 'distance_accuracy_value', 'NONE');
#120 = ADVANCED_FACE ( 'NONE', ( #222, #193 ), #336, .T. ) ;
#121 = AXIS2_PLACEMENT_3D ( 'NONE', #324, #178, #64 ) ;
#122 = CALENDAR_DATE ( 2022, 8, 7 ) ;
#123 = AXIS2_PLACEMENT_3D ( 'NONE', #273, #229, #138 ) ;
#124 = CALENDAR_DATE ( 2022, 8, 7 ) ;
#125 = COORDINATED_UNIVERSAL_TIME_OFFSET ( 1, 0, .AHEAD. ) ;
#126 = CC_DESIGN_PERSON_AND_ORGANIZATION_ASSIGNMENT ( #284, #36, ( #288 ) ) ;
#127 = APPLICATION_PROTOCOL_DEFINITION ( 'international standard', 'config_control_design', 1994, #188 ) ;
#128 = LOCAL_TIME ( 16, 56, 18.00000000000000000, #125 ) ;
#129 = ORIENTED_EDGE ( 'NONE', *, *, #13, .F. ) ;
#130 = APPROVAL_ROLE ( '' ) ;
#131 = DIRECTION ( 'NONE',  ( -0.000000000000000000, -0.000000000000000000, -1.000000000000000000 ) ) ;
#132 = VERTEX_POINT ( 'NONE', #12 ) ;
#133 = CARTESIAN_POINT ( 'NONE',  ( 0.000000000000000000, 0.000000000000000000, 605.0000000000000000 ) ) ;
#134 = PRODUCT_DEFINITION ( 'NEZNÁMÝ', '', #61, #10 ) ;
#135 = DIRECTION ( 'NONE',  ( 0.000000000000000000, 0.000000000000000000, 1.000000000000000000 ) ) ;
#136 = CIRCLE ( 'NONE', #355, 5.500000000000000000 ) ;
#137 = AXIS2_PLACEMENT_3D ( 'NONE', #21, #246, #262 ) ;
#138 = DIRECTION ( 'NONE',  ( -1.000000000000000000, 0.000000000000000000, 0.000000000000000000 ) ) ;
#139 = ORIENTED_EDGE ( 'NONE', *, *, #79, .F. ) ;
#140 = DIRECTION ( 'NONE',  ( -0.000000000000000000, -0.000000000000000000, -1.000000000000000000 ) ) ;
#141 = ORIENTED_EDGE ( 'NONE', *, *, #47, .T. ) ;
#142 = CC_DESIGN_PERSON_AND_ORGANIZATION_ASSIGNMENT ( #18, #330, ( #61 ) ) ;
#143 = FACE_OUTER_BOUND ( 'NONE', #34, .T. ) ;
#144 = CARTESIAN_POINT ( 'NONE',  ( -3.000000000000000444, 0.000000000000000000, 0.000000000000000000 ) ) ;
#145 = CC_DESIGN_APPROVAL ( #232, ( #170 ) ) ;
#146 = ORIENTED_EDGE ( 'NONE', *, *, #175, .T. ) ;
#147 = ADVANCED_FACE ( 'NONE', ( #54 ), #343, .F. ) ;
#148 = DIRECTION ( 'NONE',  ( -1.000000000000000000, 1.224646799147351482E-16, 0.000000000000000000 ) ) ;
#149 = DIRECTION ( 'NONE',  ( 0.000000000000000000, 0.000000000000000000, 1.000000000000000000 ) ) ;
#150 = CIRCLE ( 'NONE', #290, 5.000000000000000000 ) ;
#151 = AXIS2_PLACEMENT_3D ( 'NONE', #303, #149, #9 ) ;
#152 = FACE_OUTER_BOUND ( 'NONE', #223, .T. ) ;
#153 = ORIENTED_EDGE ( 'NONE', *, *, #16, .T. ) ;
#154 = DATE_AND_TIME ( #97, #43 ) ;
#155 = CARTESIAN_POINT ( 'NONE',  ( 0.000000000000000000, 0.000000000000000000, 605.0000000000000000 ) ) ;
#156 = EDGE_LOOP ( 'NONE', ( #321, #106, #89, #381 ) ) ;
#157 = PERSON_AND_ORGANIZATION_ROLE ( 'design_supplier' ) ;
#158 = CC_DESIGN_DATE_AND_TIME_ASSIGNMENT ( #366, #218, ( #170 ) ) ;
#159 = DATE_AND_TIME ( #299, #202 ) ;
#160 = AXIS2_PLACEMENT_3D ( 'NONE', #230, #256, #254 ) ;
#161 = EDGE_LOOP ( 'NONE', ( #69, #72, #146, #206 ) ) ;
#162 = SHAPE_DEFINITION_REPRESENTATION ( #86, #344 ) ;
#163 = CIRCLE ( 'NONE', #328, 3.000000000000000444 ) ;
#164 = PRODUCT_RELATED_PRODUCT_CATEGORY ( 'detail', '', ( #288 ) ) ;
#165 = CARTESIAN_POINT ( 'NONE',  ( 0.000000000000000000, 0.000000000000000000, 605.0000000000000000 ) ) ;
#166 = ORIENTED_EDGE ( 'NONE', *, *, #111, .T. ) ;
#167 = DIRECTION ( 'NONE',  ( -0.000000000000000000, -0.000000000000000000, -1.000000000000000000 ) ) ;
#168 = ORIENTED_EDGE ( 'NONE', *, *, #79, .T. ) ;
#169 = EDGE_LOOP ( 'NONE', ( #270, #103 ) ) ;
#170 = SECURITY_CLASSIFICATION ( '', '', #240 ) ;
#171 = CARTESIAN_POINT ( 'NONE',  ( 0.000000000000000000, 0.000000000000000000, 0.000000000000000000 ) ) ;
#172 = CARTESIAN_POINT ( 'NONE',  ( 8.000000000000000000, 9.797174393178825657E-16, 5.000000000000000000 ) ) ;
#173 = CARTESIAN_POINT ( 'NONE',  ( 0.000000000000000000, 0.000000000000000000, 605.0000000000000000 ) ) ;
#174 = PERSON ( 'NEURÈENÝ', 'NEURÈENÝ', 'NEURÈENÝ', ('NEURÈENÝ'), ('NEURÈENÝ'), ('NEURÈENÝ') ) ;
#175 = EDGE_CURVE ( 'NONE', #85, #7, #163, .T. ) ;
#176 = PLANE ( 'NONE',  #160 ) ;
#177 = FACE_OUTER_BOUND ( 'NONE', #275, .T. ) ;
#178 = DIRECTION ( 'NONE',  ( 0.000000000000000000, -1.000000000000000000, 0.000000000000000000 ) ) ;
#179 = CIRCLE ( 'NONE', #137, 3.000000000000000444 ) ;
#180 = AXIS2_PLACEMENT_3D ( 'NONE', #277, #30, #109 ) ;
#181 = CARTESIAN_POINT ( 'NONE',  ( 0.000000000000000000, 0.000000000000000000, 0.000000000000000000 ) ) ;
#182 = EDGE_CURVE ( 'NONE', #132, #7, #253, .T. ) ;
#183 = CALENDAR_DATE ( 2022, 8, 7 ) ;
#184 = CARTESIAN_POINT ( 'NONE',  ( 8.000000000000000000, 9.797174393178825657E-16, 5.000000000000000000 ) ) ;
#185 = COORDINATED_UNIVERSAL_TIME_OFFSET ( 1, 0, .AHEAD. ) ;
#186 = AXIS2_PLACEMENT_3D ( 'NONE', #3, #318, #209 ) ;
#187 = APPROVAL_DATE_TIME ( #159, #104 ) ;
#188 = APPLICATION_CONTEXT ( 'configuration controlled 3d designs of mechanical parts and assemblies' ) ;
#189 = APPROVAL_STATUS ( 'not_yet_approved' ) ;
#190 = EDGE_LOOP ( 'NONE', ( #337, #168 ) ) ;
#191 = APPROVAL_DATE_TIME ( #369, #232 ) ;
#192 = DIRECTION ( 'NONE',  ( 1.000000000000000000, 0.000000000000000000, 0.000000000000000000 ) ) ;
#193 = FACE_OUTER_BOUND ( 'NONE', #190, .T. ) ;
#194 = AXIS2_PLACEMENT_3D ( 'NONE', #287, #60, #118 ) ;
#195 = ORIENTED_EDGE ( 'NONE', *, *, #215, .T. ) ;
#196 = DIRECTION ( 'NONE',  ( 0.000000000000000000, 0.000000000000000000, 1.000000000000000000 ) ) ;
#197 = VERTEX_POINT ( 'NONE', #110 ) ;
#198 = CARTESIAN_POINT ( 'NONE',  ( 0.000000000000000000, 0.000000000000000000, 605.0000000000000000 ) ) ;
#199 = VERTEX_POINT ( 'NONE', #352 ) ;
#200 = CIRCLE ( 'NONE', #26, 8.000000000000000000 ) ;
#201 = VERTEX_POINT ( 'NONE', #269 ) ;
#202 = LOCAL_TIME ( 16, 56, 18.00000000000000000, #185 ) ;
#203 = DIRECTION ( 'NONE',  ( 0.000000000000000000, 0.000000000000000000, -1.000000000000000000 ) ) ;
#204 = LINE ( 'NONE', #316, #296 ) ;
#205 = DIRECTION ( 'NONE',  ( 0.000000000000000000, 0.000000000000000000, -1.000000000000000000 ) ) ;
#206 = ORIENTED_EDGE ( 'NONE', *, *, #182, .F. ) ;
#207 = ORIENTED_EDGE ( 'NONE', *, *, #68, .T. ) ;
#208 = CIRCLE ( 'NONE', #65, 8.000000000000000000 ) ;
#209 = DIRECTION ( 'NONE',  ( 1.000000000000000000, 0.000000000000000000, 0.000000000000000000 ) ) ;
#210 = DIRECTION ( 'NONE',  ( 1.000000000000000000, 0.000000000000000000, 0.000000000000000000 ) ) ;
#211 = DIRECTION ( 'NONE',  ( 0.000000000000000000, 0.000000000000000000, 1.000000000000000000 ) ) ;
#212 = APPROVAL_STATUS ( 'not_yet_approved' ) ;
#213 = AXIS2_PLACEMENT_3D ( 'NONE', #165, #205, #25 ) ;
#214 = DIRECTION ( 'NONE',  ( -0.000000000000000000, -0.000000000000000000, -1.000000000000000000 ) ) ;
#215 = EDGE_CURVE ( 'NONE', #302, #197, #78, .T. ) ;
#216 = APPROVAL_STATUS ( 'not_yet_approved' ) ;
#217 = ORIENTED_EDGE ( 'NONE', *, *, #338, .F. ) ;
#218 = DATE_TIME_ROLE ( 'classification_date' ) ;
#219 = VECTOR ( 'NONE', #203, 1000.000000000000000 ) ;
#220 = APPROVAL_DATE_TIME ( #17, #236 ) ;
#221 = CARTESIAN_POINT ( 'NONE',  ( 3.000000000000000444, 3.673940397442060361E-16, 0.000000000000000000 ) ) ;
#222 = FACE_BOUND ( 'NONE', #27, .T. ) ;
#223 = EDGE_LOOP ( 'NONE', ( #308, #24, #87, #129 ) ) ;
#224 = DIRECTION ( 'NONE',  ( 1.000000000000000000, 0.000000000000000000, 0.000000000000000000 ) ) ;
#225 = APPROVAL_PERSON_ORGANIZATION ( #364, #104, #130 ) ;
#226 = ORIENTED_EDGE ( 'NONE', *, *, #52, .T. ) ;
#227 = CC_DESIGN_PERSON_AND_ORGANIZATION_ASSIGNMENT ( #266, #331, ( #134 ) ) ;
#228 = CARTESIAN_POINT ( 'NONE',  ( -8.000000000000000000, 0.000000000000000000, 5.000000000000000000 ) ) ;
#229 = DIRECTION ( 'NONE',  ( -0.000000000000000000, -0.000000000000000000, -1.000000000000000000 ) ) ;
#230 = CARTESIAN_POINT ( 'NONE',  ( 0.000000000000000000, 0.000000000000000000, 0.000000000000000000 ) ) ;
#231 = AXIS2_PLACEMENT_3D ( 'NONE', #112, #354, #258 ) ;
#232 = APPROVAL ( #189, 'NEURÈENÝ' ) ;
#233 = CARTESIAN_POINT ( 'NONE',  ( 0.000000000000000000, 0.000000000000000000, 0.000000000000000000 ) ) ;
#234 = AXIS2_PLACEMENT_3D ( 'NONE', #370, #326, #101 ) ;
#235 = CARTESIAN_POINT ( 'NONE',  ( 5.000000000000000000, 6.123233995736766282E-16, 605.0000000000000000 ) ) ;
#236 = APPROVAL ( #212, 'NEURÈENÝ' ) ;
#237 =( NAMED_UNIT ( * ) SI_UNIT ( $, .STERADIAN. ) SOLID_ANGLE_UNIT ( ) );
#238 = EDGE_CURVE ( 'NONE', #298, #53, #274, .T. ) ;
#239 = ORIENTED_EDGE ( 'NONE', *, *, #116, .F. ) ;
#240 = SECURITY_CLASSIFICATION_LEVEL ( 'unclassified' ) ;
#241 = AXIS2_PLACEMENT_3D ( 'NONE', #57, #115, #148 ) ;
#242 = PERSON_AND_ORGANIZATION_ROLE ( 'classification_officer' ) ;
#243 = CARTESIAN_POINT ( 'NONE',  ( 0.000000000000000000, 0.000000000000000000, 5.000000000000000000 ) ) ;
#244 = CC_DESIGN_APPROVAL ( #104, ( #134 ) ) ;
#245 = EDGE_CURVE ( 'NONE', #372, #298, #375, .T. ) ;
#246 = DIRECTION ( 'NONE',  ( 0.000000000000000000, 0.000000000000000000, 1.000000000000000000 ) ) ;
#247 = VERTEX_POINT ( 'NONE', #250 ) ;
#248 = DIRECTION ( 'NONE',  ( 1.000000000000000000, 0.000000000000000000, 0.000000000000000000 ) ) ;
#249 = ORIENTED_EDGE ( 'NONE', *, *, #361, .F. ) ;
#250 = CARTESIAN_POINT ( 'NONE',  ( -5.500000000000000000, 6.735557395310442023E-16, 4.999999999999975131 ) ) ;
#251 = ORIENTED_EDGE ( 'NONE', *, *, #92, .T. ) ;
#252 = EDGE_CURVE ( 'NONE', #81, #247, #28, .T. ) ;
#253 = LINE ( 'NONE', #340, #219 ) ;
#254 = DIRECTION ( 'NONE',  ( 1.000000000000000000, 0.000000000000000000, -0.000000000000000000 ) ) ;
#255 = CC_DESIGN_PERSON_AND_ORGANIZATION_ASSIGNMENT ( #73, #242, ( #170 ) ) ;
#256 = DIRECTION ( 'NONE',  ( 0.000000000000000000, 0.000000000000000000, 1.000000000000000000 ) ) ;
#257 =( GEOMETRIC_REPRESENTATION_CONTEXT ( 3 ) GLOBAL_UNCERTAINTY_ASSIGNED_CONTEXT ( ( #119 ) ) GLOBAL_UNIT_ASSIGNED_CONTEXT ( ( #90, #292, #237 ) ) REPRESENTATION_CONTEXT ( 'NONE', 'WORKASPACE' ) );
#258 = DIRECTION ( 'NONE',  ( 1.000000000000000000, 0.000000000000000000, 0.000000000000000000 ) ) ;
#259 = CIRCLE ( 'NONE', #312, 8.000000000000000000 ) ;
#260 = ORGANIZATION ( 'NEURÈENÝ', 'NEURÈENÝ', '' ) ;
#261 = DIRECTION ( 'NONE',  ( 1.000000000000000000, 0.000000000000000000, 0.000000000000000000 ) ) ;
#262 = DIRECTION ( 'NONE',  ( 1.000000000000000000, 0.000000000000000000, 0.000000000000000000 ) ) ;
#263 = DIRECTION ( 'NONE',  ( 0.000000000000000000, 0.000000000000000000, 1.000000000000000000 ) ) ;
#264 = DIRECTION ( 'NONE',  ( 0.000000000000000000, 0.000000000000000000, 1.000000000000000000 ) ) ;
#265 = COORDINATED_UNIVERSAL_TIME_OFFSET ( 1, 0, .AHEAD. ) ;
#266 = PERSON_AND_ORGANIZATION ( #174, #260 ) ;
#267 = ORIENTED_EDGE ( 'NONE', *, *, #252, .T. ) ;
#268 = DIRECTION ( 'NONE',  ( -1.000000000000000000, 0.000000000000000000, 0.000000000000000000 ) ) ;
#269 = CARTESIAN_POINT ( 'NONE',  ( 8.000000000000000000, 9.797174393178825657E-16, 0.000000000000000000 ) ) ;
#270 = ORIENTED_EDGE ( 'NONE', *, *, #68, .F. ) ;
#271 = DIRECTION ( 'NONE',  ( -1.000000000000000000, 0.000000000000000000, 0.000000000000000000 ) ) ;
#272 = ORIENTED_EDGE ( 'NONE', *, *, #182, .T. ) ;
#273 = CARTESIAN_POINT ( 'NONE',  ( 0.000000000000000000, 0.000000000000000000, 5.000000000000000000 ) ) ;
#274 = CIRCLE ( 'NONE', #304, 5.000000000000000000 ) ;
#275 = EDGE_LOOP ( 'NONE', ( #334, #153, #322, #305 ) ) ;
#276 = CARTESIAN_POINT ( 'NONE',  ( 0.000000000000000000, 0.000000000000000000, 5.000000000000000000 ) ) ;
#277 = CARTESIAN_POINT ( 'NONE',  ( 0.000000000000000000, 0.000000000000000000, 605.0000000000000000 ) ) ;
#278 = FACE_OUTER_BOUND ( 'NONE', #156, .T. ) ;
#279 = ADVANCED_FACE ( 'NONE', ( #49 ), #379, .F. ) ;
#280 = DIRECTION ( 'NONE',  ( -1.000000000000000000, 0.000000000000000000, 0.000000000000000000 ) ) ;
#281 = DIRECTION ( 'NONE',  ( -0.000000000000000000, -0.000000000000000000, -1.000000000000000000 ) ) ;
#282 = DIRECTION ( 'NONE',  ( -0.000000000000000000, -0.000000000000000000, -1.000000000000000000 ) ) ;
#283 = DIRECTION ( 'NONE',  ( -0.000000000000000000, -0.000000000000000000, -1.000000000000000000 ) ) ;
#284 = PERSON_AND_ORGANIZATION ( #174, #260 ) ;
#285 = EDGE_CURVE ( 'NONE', #55, #372, #339, .T. ) ;
#286 = ORIENTED_EDGE ( 'NONE', *, *, #285, .T. ) ;
#287 = CARTESIAN_POINT ( 'NONE',  ( 0.000000000000000000, 0.000000000000000000, 5.499999999999949374 ) ) ;
#288 = PRODUCT ( '5936', '5936', '', ( #6 ) ) ;
#289 = CARTESIAN_POINT ( 'NONE',  ( 0.000000000000000000, 0.000000000000000000, 605.0000000000000000 ) ) ;
#290 = AXIS2_PLACEMENT_3D ( 'NONE', #289, #211, #192 ) ;
#291 = AXIS2_PLACEMENT_3D ( 'NONE', #198, #56, #271 ) ;
#292 =( NAMED_UNIT ( * ) PLANE_ANGLE_UNIT ( ) SI_UNIT ( $, .RADIAN. ) );
#293 = CARTESIAN_POINT ( 'NONE',  ( -5.000000000000000000, 0.000000000000000000, 5.499999999999949374 ) ) ;
#294 = CC_DESIGN_DATE_AND_TIME_ASSIGNMENT ( #154, #44, ( #134 ) ) ;
#295 = APPROVAL_ROLE ( '' ) ;
#296 = VECTOR ( 'NONE', #283, 1000.000000000000000 ) ;
#297 = APPROVAL_ROLE ( '' ) ;
#298 = VERTEX_POINT ( 'NONE', #80 ) ;
#299 = CALENDAR_DATE ( 2022, 8, 7 ) ;
#300 = DIRECTION ( 'NONE',  ( -0.000000000000000000, -0.000000000000000000, -1.000000000000000000 ) ) ;
#301 = AXIS2_PLACEMENT_3D ( 'NONE', #41, #131, #94 ) ;
#302 = VERTEX_POINT ( 'NONE', #228 ) ;
#303 = CARTESIAN_POINT ( 'NONE',  ( 0.000000000000000000, 0.000000000000000000, 5.000000000000000000 ) ) ;
#304 = AXIS2_PLACEMENT_3D ( 'NONE', #107, #196, #248 ) ;
#305 = ORIENTED_EDGE ( 'NONE', *, *, #58, .F. ) ;
#306 = ADVANCED_FACE ( 'NONE', ( #345, #309 ), #51, .T. ) ;
#307 = DIRECTION ( 'NONE',  ( 1.000000000000000000, 0.000000000000000000, 0.000000000000000000 ) ) ;
#308 = ORIENTED_EDGE ( 'NONE', *, *, #92, .F. ) ;
#309 = FACE_OUTER_BOUND ( 'NONE', #96, .T. ) ;
#310 = CIRCLE ( 'NONE', #241, 0.5000000000000004441 ) ;
#311 = DIRECTION ( 'NONE',  ( 0.000000000000000000, 0.000000000000000000, 1.000000000000000000 ) ) ;
#312 = AXIS2_PLACEMENT_3D ( 'NONE', #333, #264, #329 ) ;
#313 = CIRCLE ( 'NONE', #234, 8.000000000000000000 ) ;
#314 = ORIENTED_EDGE ( 'NONE', *, *, #47, .F. ) ;
#315 = CARTESIAN_POINT ( 'NONE',  ( 5.000000000000000000, 6.123233995736766282E-16, 605.0000000000000000 ) ) ;
#316 = CARTESIAN_POINT ( 'NONE',  ( -5.000000000000000000, 0.000000000000000000, 605.0000000000000000 ) ) ;
#317 = ADVANCED_FACE ( 'NONE', ( #143 ), #1, .T. ) ;
#318 = DIRECTION ( 'NONE',  ( 0.000000000000000000, 0.000000000000000000, 1.000000000000000000 ) ) ;
#319 = CARTESIAN_POINT ( 'NONE',  ( 3.000000000000000444, 3.673940397442060361E-16, 605.0000000000000000 ) ) ;
#320 = VECTOR ( 'NONE', #11, 1000.000000000000000 ) ;
#321 = ORIENTED_EDGE ( 'NONE', *, *, #245, .F. ) ;
#322 = ORIENTED_EDGE ( 'NONE', *, *, #252, .F. ) ;
#323 = CARTESIAN_POINT ( 'NONE',  ( 0.000000000000000000, 0.000000000000000000, 5.000000000000000000 ) ) ;
#324 = CARTESIAN_POINT ( 'NONE',  ( 5.500000000000000000, 0.000000000000000000, 5.499999999999949374 ) ) ;
#325 = CLOSED_SHELL ( 'NONE', ( #147, #371, #74, #350, #317, #120, #4, #40, #306, #365, #279 ) ) ;
#326 = DIRECTION ( 'NONE',  ( 0.000000000000000000, 0.000000000000000000, 1.000000000000000000 ) ) ;
#327 = CC_DESIGN_PERSON_AND_ORGANIZATION_ASSIGNMENT ( #45, #157, ( #61 ) ) ;
#328 = AXIS2_PLACEMENT_3D ( 'NONE', #171, #377, #224 ) ;
#329 = DIRECTION ( 'NONE',  ( 1.000000000000000000, 0.000000000000000000, 0.000000000000000000 ) ) ;
#330 = PERSON_AND_ORGANIZATION_ROLE ( 'creator' ) ;
#331 = PERSON_AND_ORGANIZATION_ROLE ( 'creator' ) ;
#332 = TOROIDAL_SURFACE ( 'NONE', #341, 5.500000000000000000, 0.5000000000000000000 ) ;
#333 = CARTESIAN_POINT ( 'NONE',  ( 0.000000000000000000, 0.000000000000000000, 5.000000000000000000 ) ) ;
#334 = ORIENTED_EDGE ( 'NONE', *, *, #20, .F. ) ;
#335 = CIRCLE ( 'NONE', #301, 3.000000000000000444 ) ;
#336 = PLANE ( 'NONE',  #151 ) ;
#337 = ORIENTED_EDGE ( 'NONE', *, *, #116, .T. ) ;
#338 = EDGE_CURVE ( 'NONE', #132, #199, #70, .T. ) ;
#339 = CIRCLE ( 'NONE', #2, 5.000000000000000000 ) ;
#340 = CARTESIAN_POINT ( 'NONE',  ( -3.000000000000000444, 0.000000000000000000, 605.0000000000000000 ) ) ;
#341 = AXIS2_PLACEMENT_3D ( 'NONE', #32, #63, #261 ) ;
#342 = ORIENTED_EDGE ( 'NONE', *, *, #99, .T. ) ;
#343 = CYLINDRICAL_SURFACE ( 'NONE', #213, 3.000000000000000444 ) ;
#344 = ADVANCED_BREP_SHAPE_REPRESENTATION ( '5936', ( #373, #231 ), #257 ) ;
#345 = FACE_BOUND ( 'NONE', #35, .T. ) ;
#346 = AXIS2_PLACEMENT_3D ( 'NONE', #173, #281, #100 ) ;
#347 = FACE_OUTER_BOUND ( 'NONE', #48, .T. ) ;
#348 = DIRECTION ( 'NONE',  ( 1.000000000000000000, 0.000000000000000000, 0.000000000000000000 ) ) ;
#349 = VECTOR ( 'NONE', #300, 1000.000000000000000 ) ;
#350 = ADVANCED_FACE ( 'NONE', ( #84 ), #38, .T. ) ;
#351 = APPROVAL_PERSON_ORGANIZATION ( #71, #232, #297 ) ;
#352 = CARTESIAN_POINT ( 'NONE',  ( 3.000000000000000444, 3.673940397442060361E-16, 605.0000000000000000 ) ) ;
#353 = EDGE_LOOP ( 'NONE', ( #102, #108, #62, #314 ) ) ;
#354 = DIRECTION ( 'NONE',  ( 0.000000000000000000, 0.000000000000000000, 1.000000000000000000 ) ) ;
#355 = AXIS2_PLACEMENT_3D ( 'NONE', #243, #66, #362 ) ;
#356 = FACE_OUTER_BOUND ( 'NONE', #353, .T. ) ;
#357 = CC_DESIGN_APPROVAL ( #236, ( #61 ) ) ;
#358 = EDGE_LOOP ( 'NONE', ( #249, #166, #272, #207 ) ) ;
#359 = DIRECTION ( 'NONE',  ( 0.000000000000000000, 0.000000000000000000, 1.000000000000000000 ) ) ;
#360 = CYLINDRICAL_SURFACE ( 'NONE', #59, 5.000000000000000000 ) ;
#361 = EDGE_CURVE ( 'NONE', #199, #85, #8, .T. ) ;
#362 = DIRECTION ( 'NONE',  ( 1.000000000000000000, 0.000000000000000000, 0.000000000000000000 ) ) ;
#363 = VECTOR ( 'NONE', #167, 1000.000000000000000 ) ;
#364 = PERSON_AND_ORGANIZATION ( #174, #260 ) ;
#365 = ADVANCED_FACE ( 'NONE', ( #356 ), #332, .F. ) ;
#366 = DATE_AND_TIME ( #122, #128 ) ;
#367 = ORIENTED_EDGE ( 'NONE', *, *, #215, .F. ) ;
#368 = AXIS2_PLACEMENT_3D ( 'NONE', #323, #282, #280 ) ;
#369 = DATE_AND_TIME ( #124, #19 ) ;
#370 = CARTESIAN_POINT ( 'NONE',  ( 0.000000000000000000, 0.000000000000000000, 5.000000000000000000 ) ) ;
#371 = ADVANCED_FACE ( 'NONE', ( #177 ), #39, .F. ) ;
#372 = VERTEX_POINT ( 'NONE', #235 ) ;
#373 = MANIFOLD_SOLID_BREP ( 'Odebrat vysunutím3', #325 ) ;
#374 = CIRCLE ( 'NONE', #121, 0.5000000000000004441 ) ;
#375 = LINE ( 'NONE', #315, #363 ) ;
#376 = ORIENTED_EDGE ( 'NONE', *, *, #111, .F. ) ;
#377 = DIRECTION ( 'NONE',  ( -0.000000000000000000, -0.000000000000000000, -1.000000000000000000 ) ) ;
#378 = EDGE_CURVE ( 'NONE', #201, #197, #208, .T. ) ;
#379 = CYLINDRICAL_SURFACE ( 'NONE', #291, 3.000000000000000444 ) ;
#380 = CIRCLE ( 'NONE', #186, 5.000000000000000000 ) ;
#381 = ORIENTED_EDGE ( 'NONE', *, *, #20, .T. ) ;
ENDSEC;
END-ISO-10303-21;
