ISO-10303-21;
HEADER;
FILE_DESCRIPTION (( 'STEP AP203' ),
    '1' );
FILE_NAME ('e595.STEP',
    '2022-07-08T15:20:35',
    ( '' ),
    ( '' ),
    'SwSTEP 2.0',
    'SolidWorks 2019',
    '' );
FILE_SCHEMA (( 'CONFIG_CONTROL_DESIGN' ));
ENDSEC;

DATA;
#1 = ORIENTED_EDGE ( 'NONE', *, *, #372, .F. ) ;
#2 = CYLINDRICAL_SURFACE ( 'NONE', #276, 2.500000000000000000 ) ;
#3 = CC_DESIGN_PERSON_AND_ORGANIZATION_ASSIGNMENT ( #362, #118, ( #108 ) ) ;
#4 = DIRECTION ( 'NONE',  ( 0.000000000000000000, 0.000000000000000000, -1.000000000000000000 ) ) ;
#5 = TOROIDAL_SURFACE ( 'NONE', #144, 4.500000000000000888, 0.5000000000000000000 ) ;
#6 = LOCAL_TIME ( 17, 20, 35.00000000000000000, #93 ) ;
#7 = CARTESIAN_POINT ( 'NONE',  ( -4.000000000000000000, 0.000000000000000000, 180.0000000000000000 ) ) ;
#8 = EDGE_CURVE ( 'NONE', #336, #284, #228, .T. ) ;
#9 = DIRECTION ( 'NONE',  ( 1.000000000000000000, 0.000000000000000000, -0.000000000000000000 ) ) ;
#10 = AXIS2_PLACEMENT_3D ( 'NONE', #151, #40, #214 ) ;
#11 = CIRCLE ( 'NONE', #197, 7.000000000000000000 ) ;
#12 = COORDINATED_UNIVERSAL_TIME_OFFSET ( 1, 0, .AHEAD. ) ;
#13 = FACE_BOUND ( 'NONE', #103, .T. ) ;
#14 = PRODUCT ( 'e595', 'e595', '', ( #291 ) ) ;
#15 = PLANE ( 'NONE',  #373 ) ;
#16 = ORIENTED_EDGE ( 'NONE', *, *, #126, .F. ) ;
#17 = DIRECTION ( 'NONE',  ( 0.000000000000000000, 0.000000000000000000, -1.000000000000000000 ) ) ;
#18 = AXIS2_PLACEMENT_3D ( 'NONE', #246, #247, #123 ) ;
#19 = VECTOR ( 'NONE', #285, 1000.000000000000000 ) ;
#20 = CYLINDRICAL_SURFACE ( 'NONE', #308, 4.000000000000000000 ) ;
#21 = FACE_OUTER_BOUND ( 'NONE', #233, .T. ) ;
#22 = DIRECTION ( 'NONE',  ( 0.000000000000000000, 0.000000000000000000, -1.000000000000000000 ) ) ;
#23 = CARTESIAN_POINT ( 'NONE',  ( 0.000000000000000000, 0.000000000000000000, 0.000000000000000000 ) ) ;
#24 = CIRCLE ( 'NONE', #207, 2.500000000000000000 ) ;
#25 = LOCAL_TIME ( 17, 20, 35.00000000000000000, #232 ) ;
#26 = DIRECTION ( 'NONE',  ( 0.000000000000000000, 0.000000000000000000, -1.000000000000000000 ) ) ;
#27 = APPLICATION_CONTEXT ( 'configuration controlled 3d designs of mechanical parts and assemblies' ) ;
#28 = PERSON_AND_ORGANIZATION ( #332, #65 ) ;
#29 = EDGE_LOOP ( 'NONE', ( #198, #92, #97, #253 ) ) ;
#30 = CIRCLE ( 'NONE', #18, 2.500000000000000000 ) ;
#31 = CARTESIAN_POINT ( 'NONE',  ( 0.000000000000000000, 0.000000000000000000, 5.000000000000000000 ) ) ;
#32 = VERTEX_POINT ( 'NONE', #376 ) ;
#33 = ADVANCED_FACE ( 'NONE', ( #195 ), #315, .T. ) ;
#34 =( NAMED_UNIT ( * ) SI_UNIT ( $, .STERADIAN. ) SOLID_ANGLE_UNIT ( ) );
#35 = APPROVAL_PERSON_ORGANIZATION ( #300, #219, #212 ) ;
#36 = DATE_TIME_ROLE ( 'creation_date' ) ;
#37 = CARTESIAN_POINT ( 'NONE',  ( 0.000000000000000000, 0.000000000000000000, 180.0000000000000000 ) ) ;
#38 = ADVANCED_FACE ( 'NONE', ( #71 ), #68, .T. ) ;
#39 = DIRECTION ( 'NONE',  ( 0.000000000000000000, 0.000000000000000000, 1.000000000000000000 ) ) ;
#40 = DIRECTION ( 'NONE',  ( 0.000000000000000000, 0.000000000000000000, 1.000000000000000000 ) ) ;
#41 = AXIS2_PLACEMENT_3D ( 'NONE', #242, #208, #209 ) ;
#42 = AXIS2_PLACEMENT_3D ( 'NONE', #381, #112, #202 ) ;
#43 = DIRECTION ( 'NONE',  ( -0.000000000000000000, -0.000000000000000000, -1.000000000000000000 ) ) ;
#44 = EDGE_LOOP ( 'NONE', ( #168, #223, #339, #1 ) ) ;
#45 = PRODUCT_DEFINITION ( 'NEZNÁMÝ', '', #108, #163 ) ;
#46 = CARTESIAN_POINT ( 'NONE',  ( 2.500000000000000000, 3.061616997868382648E-16, 0.000000000000000000 ) ) ;
#47 = EDGE_LOOP ( 'NONE', ( #201, #160 ) ) ;
#48 = LINE ( 'NONE', #375, #288 ) ;
#49 = CARTESIAN_POINT ( 'NONE',  ( 0.000000000000000000, 0.000000000000000000, 5.000000000000000000 ) ) ;
#50 = CIRCLE ( 'NONE', #79, 2.500000000000000000 ) ;
#51 = CIRCLE ( 'NONE', #374, 4.000000000000000000 ) ;
#52 = FACE_OUTER_BOUND ( 'NONE', #47, .T. ) ;
#53 = VERTEX_POINT ( 'NONE', #154 ) ;
#54 = CC_DESIGN_PERSON_AND_ORGANIZATION_ASSIGNMENT ( #262, #320, ( #14 ) ) ;
#55 = CARTESIAN_POINT ( 'NONE',  ( 0.000000000000000000, 0.000000000000000000, 5.500000000000005329 ) ) ;
#56 = ORIENTED_EDGE ( 'NONE', *, *, #171, .T. ) ;
#57 =( LENGTH_UNIT ( ) NAMED_UNIT ( * ) SI_UNIT ( .MILLI., .METRE. ) );
#58 = ORIENTED_EDGE ( 'NONE', *, *, #357, .F. ) ;
#59 = VECTOR ( 'NONE', #147, 1000.000000000000000 ) ;
#60 = CIRCLE ( 'NONE', #119, 0.5000000000000004441 ) ;
#61 = DIRECTION ( 'NONE',  ( 1.000000000000000000, 0.000000000000000000, 0.000000000000000000 ) ) ;
#62 = EDGE_CURVE ( 'NONE', #348, #347, #50, .T. ) ;
#63 = LINE ( 'NONE', #176, #59 ) ;
#64 = DIRECTION ( 'NONE',  ( -1.000000000000000000, 0.000000000000000000, 0.000000000000000000 ) ) ;
#65 = ORGANIZATION ( 'NEURÈENÝ', 'NEURÈENÝ', '' ) ;
#66 = AXIS2_PLACEMENT_3D ( 'NONE', #55, #379, #61 ) ;
#67 = EDGE_CURVE ( 'NONE', #289, #107, #24, .T. ) ;
#68 = CYLINDRICAL_SURFACE ( 'NONE', #41, 4.000000000000000000 ) ;
#69 = DIRECTION ( 'NONE',  ( 0.000000000000000000, -1.000000000000000000, 0.000000000000000000 ) ) ;
#70 = APPROVAL ( #245, 'NEURÈENÝ' ) ;
#71 = FACE_OUTER_BOUND ( 'NONE', #282, .T. ) ;
#72 = CARTESIAN_POINT ( 'NONE',  ( 7.000000000000000000, 8.572527594031473190E-16, 5.000000000000000000 ) ) ;
#73 = APPLICATION_CONTEXT ( 'configuration controlled 3d designs of mechanical parts and assemblies' ) ;
#74 = ORIENTED_EDGE ( 'NONE', *, *, #114, .F. ) ;
#75 = DIRECTION ( 'NONE',  ( 0.000000000000000000, 0.000000000000000000, 1.000000000000000000 ) ) ;
#76 = ORIENTED_EDGE ( 'NONE', *, *, #130, .T. ) ;
#77 = ORIENTED_EDGE ( 'NONE', *, *, #200, .F. ) ;
#78 = DIRECTION ( 'NONE',  ( -1.000000000000000000, 0.000000000000000000, 0.000000000000000000 ) ) ;
#79 = AXIS2_PLACEMENT_3D ( 'NONE', #267, #39, #96 ) ;
#80 = AXIS2_PLACEMENT_3D ( 'NONE', #31, #292, #324 ) ;
#81 = VERTEX_POINT ( 'NONE', #7 ) ;
#82 = ORIENTED_EDGE ( 'NONE', *, *, #200, .T. ) ;
#83 = PRODUCT_RELATED_PRODUCT_CATEGORY ( 'detail', '', ( #14 ) ) ;
#84 = VECTOR ( 'NONE', #124, 1000.000000000000000 ) ;
#85 = CIRCLE ( 'NONE', #137, 7.000000000000000000 ) ;
#86 = DIRECTION ( 'NONE',  ( 1.000000000000000000, 0.000000000000000000, 0.000000000000000000 ) ) ;
#87 = VECTOR ( 'NONE', #303, 1000.000000000000000 ) ;
#88 = PERSON_AND_ORGANIZATION ( #332, #65 ) ;
#89 = AXIS2_PLACEMENT_3D ( 'NONE', #354, #346, #86 ) ;
#90 = CARTESIAN_POINT ( 'NONE',  ( 7.000000000000000000, 8.572527594031473190E-16, 5.000000000000000000 ) ) ;
#91 = DIRECTION ( 'NONE',  ( 1.000000000000000000, 0.000000000000000000, 0.000000000000000000 ) ) ;
#92 = ORIENTED_EDGE ( 'NONE', *, *, #338, .F. ) ;
#93 = COORDINATED_UNIVERSAL_TIME_OFFSET ( 1, 0, .AHEAD. ) ;
#94 = CARTESIAN_POINT ( 'NONE',  ( 4.000000000000000000, 4.898587196589412829E-16, 5.500000000000005329 ) ) ;
#95 = AXIS2_PLACEMENT_3D ( 'NONE', #127, #370, #101 ) ;
#96 = DIRECTION ( 'NONE',  ( 1.000000000000000000, 0.000000000000000000, 0.000000000000000000 ) ) ;
#97 = ORIENTED_EDGE ( 'NONE', *, *, #372, .T. ) ;
#98 = DIRECTION ( 'NONE',  ( 0.000000000000000000, 0.000000000000000000, 1.000000000000000000 ) ) ;
#99 = EDGE_CURVE ( 'NONE', #347, #348, #293, .T. ) ;
#100 = EDGE_LOOP ( 'NONE', ( #16, #286, #192, #122 ) ) ;
#101 = DIRECTION ( 'NONE',  ( 1.000000000000000000, 0.000000000000000000, -0.000000000000000000 ) ) ;
#102 = CC_DESIGN_APPROVAL ( #219, ( #222 ) ) ;
#103 = EDGE_LOOP ( 'NONE', ( #305, #234 ) ) ;
#104 = FACE_OUTER_BOUND ( 'NONE', #378, .T. ) ;
#105 = MANIFOLD_SOLID_BREP ( 'Odebrat vysunutím3', #236 ) ;
#106 = DIRECTION ( 'NONE',  ( -0.000000000000000000, -0.000000000000000000, -1.000000000000000000 ) ) ;
#107 = VERTEX_POINT ( 'NONE', #331 ) ;
#108 = PRODUCT_DEFINITION_FORMATION_WITH_SPECIFIED_SOURCE ( 'LIBOVOLNÝ', '', #14, .NOT_KNOWN. ) ;
#109 = PERSON_AND_ORGANIZATION_ROLE ( 'creator' ) ;
#110 = EDGE_CURVE ( 'NONE', #152, #139, #220, .T. ) ;
#111 = EDGE_LOOP ( 'NONE', ( #345, #82, #367, #250 ) ) ;
#112 = DIRECTION ( 'NONE',  ( 0.000000000000000000, 0.000000000000000000, 1.000000000000000000 ) ) ;
#113 = PERSON_AND_ORGANIZATION ( #332, #65 ) ;
#114 = EDGE_CURVE ( 'NONE', #81, #53, #150, .T. ) ;
#115 = DATE_AND_TIME ( #187, #270 ) ;
#116 = CARTESIAN_POINT ( 'NONE',  ( 0.000000000000000000, 0.000000000000000000, 5.000000000000000000 ) ) ;
#117 = AXIS2_PLACEMENT_3D ( 'NONE', #361, #210, #274 ) ;
#118 = PERSON_AND_ORGANIZATION_ROLE ( 'design_supplier' ) ;
#119 = AXIS2_PLACEMENT_3D ( 'NONE', #131, #157, #196 ) ;
#120 = CARTESIAN_POINT ( 'NONE',  ( 0.000000000000000000, 0.000000000000000000, 5.000000000000000000 ) ) ;
#121 = EDGE_CURVE ( 'NONE', #107, #289, #30, .T. ) ;
#122 = ORIENTED_EDGE ( 'NONE', *, *, #349, .T. ) ;
#123 = DIRECTION ( 'NONE',  ( 1.000000000000000000, 0.000000000000000000, 0.000000000000000000 ) ) ;
#124 = DIRECTION ( 'NONE',  ( -0.000000000000000000, -0.000000000000000000, -1.000000000000000000 ) ) ;
#125 = DIRECTION ( 'NONE',  ( 0.000000000000000000, 0.000000000000000000, 1.000000000000000000 ) ) ;
#126 = EDGE_CURVE ( 'NONE', #231, #152, #63, .T. ) ;
#127 = CARTESIAN_POINT ( 'NONE',  ( 0.000000000000000000, 0.000000000000000000, 180.0000000000000000 ) ) ;
#128 = CARTESIAN_POINT ( 'NONE',  ( 0.000000000000000000, 0.000000000000000000, 0.000000000000000000 ) ) ;
#129 = DIRECTION ( 'NONE',  ( 0.000000000000000000, 0.000000000000000000, 1.000000000000000000 ) ) ;
#130 = EDGE_CURVE ( 'NONE', #231, #81, #321, .T. ) ;
#131 = CARTESIAN_POINT ( 'NONE',  ( -4.500000000000000888, 5.510910596163089556E-16, 5.500000000000005329 ) ) ;
#132 = ORIENTED_EDGE ( 'NONE', *, *, #126, .T. ) ;
#133 = DIRECTION ( 'NONE',  ( 1.000000000000000000, 0.000000000000000000, 0.000000000000000000 ) ) ;
#134 = ORIENTED_EDGE ( 'NONE', *, *, #99, .F. ) ;
#135 = CARTESIAN_POINT ( 'NONE',  ( 0.000000000000000000, 0.000000000000000000, 180.0000000000000000 ) ) ;
#136 = ORIENTED_EDGE ( 'NONE', *, *, #254, .T. ) ;
#137 = AXIS2_PLACEMENT_3D ( 'NONE', #128, #343, #194 ) ;
#138 = CARTESIAN_POINT ( 'NONE',  ( -7.000000000000000000, 0.000000000000000000, 5.000000000000000000 ) ) ;
#139 = VERTEX_POINT ( 'NONE', #327 ) ;
#140 = LINE ( 'NONE', #138, #19 ) ;
#141 = CARTESIAN_POINT ( 'NONE',  ( -2.500000000000000000, 0.000000000000000000, 180.0000000000000000 ) ) ;
#142 = ADVANCED_BREP_SHAPE_REPRESENTATION ( 'e595', ( #105, #42 ), #341 ) ;
#143 = CC_DESIGN_PERSON_AND_ORGANIZATION_ASSIGNMENT ( #28, #109, ( #45 ) ) ;
#144 = AXIS2_PLACEMENT_3D ( 'NONE', #377, #306, #344 ) ;
#145 = APPROVAL_ROLE ( '' ) ;
#146 = PERSON_AND_ORGANIZATION ( #332, #65 ) ;
#147 = DIRECTION ( 'NONE',  ( -0.000000000000000000, -0.000000000000000000, -1.000000000000000000 ) ) ;
#148 = ADVANCED_FACE ( 'NONE', ( #271 ), #301, .T. ) ;
#149 = CIRCLE ( 'NONE', #89, 7.000000000000000000 ) ;
#150 = LINE ( 'NONE', #239, #84 ) ;
#151 = CARTESIAN_POINT ( 'NONE',  ( 0.000000000000000000, 0.000000000000000000, 180.0000000000000000 ) ) ;
#152 = VERTEX_POINT ( 'NONE', #94 ) ;
#153 = DATE_TIME_ROLE ( 'classification_date' ) ;
#154 = CARTESIAN_POINT ( 'NONE',  ( -4.000000000000000000, 0.000000000000000000, 5.500000000000005329 ) ) ;
#155 = EDGE_LOOP ( 'NONE', ( #302, #134 ) ) ;
#156 = EDGE_CURVE ( 'NONE', #244, #336, #356, .T. ) ;
#157 = DIRECTION ( 'NONE',  ( 1.224646799147353207E-16, 1.000000000000000000, -0.000000000000000000 ) ) ;
#158 = APPROVAL_PERSON_ORGANIZATION ( #88, #70, #241 ) ;
#159 = DIRECTION ( 'NONE',  ( 0.000000000000000000, 0.000000000000000000, -1.000000000000000000 ) ) ;
#160 = ORIENTED_EDGE ( 'NONE', *, *, #8, .F. ) ;
#161 = CARTESIAN_POINT ( 'NONE',  ( 0.000000000000000000, 0.000000000000000000, 5.500000000000005329 ) ) ;
#162 = CC_DESIGN_DATE_AND_TIME_ASSIGNMENT ( #206, #36, ( #45 ) ) ;
#163 = DESIGN_CONTEXT ( 'detailed design', #27, 'design' ) ;
#164 = CIRCLE ( 'NONE', #203, 4.500000000000000888 ) ;
#165 = CIRCLE ( 'NONE', #80, 4.500000000000000888 ) ;
#166 = ORIENTED_EDGE ( 'NONE', *, *, #229, .T. ) ;
#167 = PLANE ( 'NONE',  #251 ) ;
#168 = ORIENTED_EDGE ( 'NONE', *, *, #254, .F. ) ;
#169 = APPROVAL_DATE_TIME ( #172, #328 ) ;
#170 = ORIENTED_EDGE ( 'NONE', *, *, #110, .F. ) ;
#171 = EDGE_CURVE ( 'NONE', #81, #231, #173, .T. ) ;
#172 = DATE_AND_TIME ( #264, #174 ) ;
#173 = CIRCLE ( 'NONE', #10, 4.000000000000000000 ) ;
#174 = LOCAL_TIME ( 17, 20, 35.00000000000000000, #238 ) ;
#175 = CARTESIAN_POINT ( 'NONE',  ( 7.000000000000000000, 8.572527594031473190E-16, 0.000000000000000000 ) ) ;
#176 = CARTESIAN_POINT ( 'NONE',  ( 4.000000000000000000, 4.898587196589412829E-16, 180.0000000000000000 ) ) ;
#177 = APPLICATION_PROTOCOL_DEFINITION ( 'international standard', 'config_control_design', 1994, #73 ) ;
#178 = ADVANCED_FACE ( 'NONE', ( #13, #272 ), #15, .T. ) ;
#179 = TOROIDAL_SURFACE ( 'NONE', #66, 4.500000000000000888, 0.5000000000000000000 ) ;
#180 = EDGE_CURVE ( 'NONE', #139, #32, #164, .T. ) ;
#181 = COORDINATED_UNIVERSAL_TIME_OFFSET ( 1, 0, .AHEAD. ) ;
#182 = CARTESIAN_POINT ( 'NONE',  ( 0.000000000000000000, 0.000000000000000000, 5.000000000000000000 ) ) ;
#183 = SECURITY_CLASSIFICATION_LEVEL ( 'unclassified' ) ;
#184 = DIRECTION ( 'NONE',  ( -0.000000000000000000, -0.000000000000000000, -1.000000000000000000 ) ) ;
#185 = DATE_AND_TIME ( #355, #333 ) ;
#186 = DIRECTION ( 'NONE',  ( -1.000000000000000000, 0.000000000000000000, 0.000000000000000000 ) ) ;
#187 = CALENDAR_DATE ( 2022, 8, 7 ) ;
#188 = DIRECTION ( 'NONE',  ( -0.000000000000000000, -0.000000000000000000, -1.000000000000000000 ) ) ;
#189 = ADVANCED_FACE ( 'NONE', ( #329 ), #5, .F. ) ;
#190 = CARTESIAN_POINT ( 'NONE',  ( 0.000000000000000000, 0.000000000000000000, 5.000000000000000000 ) ) ;
#191 = CARTESIAN_POINT ( 'NONE',  ( -7.000000000000000000, 0.000000000000000000, 0.000000000000000000 ) ) ;
#192 = ORIENTED_EDGE ( 'NONE', *, *, #114, .T. ) ;
#193 = CARTESIAN_POINT ( 'NONE',  ( 4.000000000000000000, 4.898587196589412829E-16, 180.0000000000000000 ) ) ;
#194 = DIRECTION ( 'NONE',  ( 1.000000000000000000, 0.000000000000000000, 0.000000000000000000 ) ) ;
#195 = FACE_OUTER_BOUND ( 'NONE', #29, .T. ) ;
#196 = DIRECTION ( 'NONE',  ( -1.000000000000000000, 1.224646799147351482E-16, 0.000000000000000000 ) ) ;
#197 = AXIS2_PLACEMENT_3D ( 'NONE', #190, #98, #218 ) ;
#198 = ORIENTED_EDGE ( 'NONE', *, *, #156, .F. ) ;
#199 = EDGE_LOOP ( 'NONE', ( #322, #227 ) ) ;
#200 = EDGE_CURVE ( 'NONE', #347, #289, #48, .T. ) ;
#201 = ORIENTED_EDGE ( 'NONE', *, *, #266, .F. ) ;
#202 = DIRECTION ( 'NONE',  ( 1.000000000000000000, 0.000000000000000000, 0.000000000000000000 ) ) ;
#203 = AXIS2_PLACEMENT_3D ( 'NONE', #120, #335, #91 ) ;
#204 =( NAMED_UNIT ( * ) PLANE_ANGLE_UNIT ( ) SI_UNIT ( $, .RADIAN. ) );
#205 = EDGE_CURVE ( 'NONE', #53, #32, #60, .T. ) ;
#206 = DATE_AND_TIME ( #243, #25 ) ;
#207 = AXIS2_PLACEMENT_3D ( 'NONE', #359, #184, #216 ) ;
#208 = DIRECTION ( 'NONE',  ( -0.000000000000000000, -0.000000000000000000, -1.000000000000000000 ) ) ;
#209 = DIRECTION ( 'NONE',  ( -1.000000000000000000, 0.000000000000000000, 0.000000000000000000 ) ) ;
#210 = DIRECTION ( 'NONE',  ( 0.000000000000000000, 0.000000000000000000, 1.000000000000000000 ) ) ;
#211 = EDGE_LOOP ( 'NONE', ( #256, #311, #217, #170 ) ) ;
#212 = APPROVAL_ROLE ( '' ) ;
#213 = CIRCLE ( 'NONE', #263, 4.000000000000000000 ) ;
#214 = DIRECTION ( 'NONE',  ( 1.000000000000000000, 0.000000000000000000, 0.000000000000000000 ) ) ;
#215 = ADVANCED_FACE ( 'NONE', ( #226 ), #20, .T. ) ;
#216 = DIRECTION ( 'NONE',  ( 1.000000000000000000, 0.000000000000000000, 0.000000000000000000 ) ) ;
#217 = ORIENTED_EDGE ( 'NONE', *, *, #180, .F. ) ;
#218 = DIRECTION ( 'NONE',  ( 1.000000000000000000, 0.000000000000000000, 0.000000000000000000 ) ) ;
#219 = APPROVAL ( #360, 'NEURÈENÝ' ) ;
#220 = CIRCLE ( 'NONE', #280, 0.5000000000000004441 ) ;
#221 = FACE_OUTER_BOUND ( 'NONE', #371, .T. ) ;
#222 = SECURITY_CLASSIFICATION ( '', '', #183 ) ;
#223 = ORIENTED_EDGE ( 'NONE', *, *, #156, .T. ) ;
#224 = CYLINDRICAL_SURFACE ( 'NONE', #281, 2.500000000000000000 ) ;
#225 = ORIENTED_EDGE ( 'NONE', *, *, #240, .F. ) ;
#226 = FACE_OUTER_BOUND ( 'NONE', #100, .T. ) ;
#227 = ORIENTED_EDGE ( 'NONE', *, *, #67, .F. ) ;
#228 = CIRCLE ( 'NONE', #257, 7.000000000000000000 ) ;
#229 = EDGE_CURVE ( 'NONE', #348, #107, #310, .T. ) ;
#230 = AXIS2_PLACEMENT_3D ( 'NONE', #37, #269, #365 ) ;
#231 = VERTEX_POINT ( 'NONE', #193 ) ;
#232 = COORDINATED_UNIVERSAL_TIME_OFFSET ( 1, 0, .AHEAD. ) ;
#233 = EDGE_LOOP ( 'NONE', ( #56, #76 ) ) ;
#234 = ORIENTED_EDGE ( 'NONE', *, *, #357, .T. ) ;
#235 = ADVANCED_FACE ( 'NONE', ( #255, #52 ), #167, .F. ) ;
#236 = CLOSED_SHELL ( 'NONE', ( #380, #189, #38, #148, #33, #178, #235, #215, #298, #317, #249 ) ) ;
#237 = CC_DESIGN_APPROVAL ( #70, ( #108 ) ) ;
#238 = COORDINATED_UNIVERSAL_TIME_OFFSET ( 1, 0, .AHEAD. ) ;
#239 = CARTESIAN_POINT ( 'NONE',  ( -4.000000000000000000, 0.000000000000000000, 180.0000000000000000 ) ) ;
#240 = EDGE_CURVE ( 'NONE', #152, #53, #213, .T. ) ;
#241 = APPROVAL_ROLE ( '' ) ;
#242 = CARTESIAN_POINT ( 'NONE',  ( 0.000000000000000000, 0.000000000000000000, 180.0000000000000000 ) ) ;
#243 = CALENDAR_DATE ( 2022, 8, 7 ) ;
#244 = VERTEX_POINT ( 'NONE', #72 ) ;
#245 = APPROVAL_STATUS ( 'not_yet_approved' ) ;
#246 = CARTESIAN_POINT ( 'NONE',  ( 0.000000000000000000, 0.000000000000000000, 0.000000000000000000 ) ) ;
#247 = DIRECTION ( 'NONE',  ( -0.000000000000000000, -0.000000000000000000, -1.000000000000000000 ) ) ;
#248 = CARTESIAN_POINT ( 'NONE',  ( 0.000000000000000000, 0.000000000000000000, 180.0000000000000000 ) ) ;
#249 = ADVANCED_FACE ( 'NONE', ( #104 ), #224, .F. ) ;
#250 = ORIENTED_EDGE ( 'NONE', *, *, #229, .F. ) ;
#251 = AXIS2_PLACEMENT_3D ( 'NONE', #337, #125, #283 ) ;
#252 = DIRECTION ( 'NONE',  ( 1.000000000000000000, 0.000000000000000000, 0.000000000000000000 ) ) ;
#253 = ORIENTED_EDGE ( 'NONE', *, *, #266, .T. ) ;
#254 = EDGE_CURVE ( 'NONE', #244, #278, #11, .T. ) ;
#255 = FACE_BOUND ( 'NONE', #199, .T. ) ;
#256 = ORIENTED_EDGE ( 'NONE', *, *, #349, .F. ) ;
#257 = AXIS2_PLACEMENT_3D ( 'NONE', #23, #129, #252 ) ;
#258 = ORIENTED_EDGE ( 'NONE', *, *, #338, .T. ) ;
#259 = DIRECTION ( 'NONE',  ( 1.000000000000000000, 0.000000000000000000, 0.000000000000000000 ) ) ;
#260 = ORIENTED_EDGE ( 'NONE', *, *, #99, .T. ) ;
#261 = CARTESIAN_POINT ( 'NONE',  ( 2.500000000000000000, 3.061616997868382648E-16, 180.0000000000000000 ) ) ;
#262 = PERSON_AND_ORGANIZATION ( #332, #65 ) ;
#263 = AXIS2_PLACEMENT_3D ( 'NONE', #161, #75, #133 ) ;
#264 = CALENDAR_DATE ( 2022, 8, 7 ) ;
#265 = PERSON_AND_ORGANIZATION_ROLE ( 'classification_officer' ) ;
#266 = EDGE_CURVE ( 'NONE', #284, #336, #85, .T. ) ;
#267 = CARTESIAN_POINT ( 'NONE',  ( 0.000000000000000000, 0.000000000000000000, 180.0000000000000000 ) ) ;
#268 = CALENDAR_DATE ( 2022, 8, 7 ) ;
#269 = DIRECTION ( 'NONE',  ( 0.000000000000000000, 0.000000000000000000, 1.000000000000000000 ) ) ;
#270 = LOCAL_TIME ( 17, 20, 35.00000000000000000, #12 ) ;
#271 = FACE_OUTER_BOUND ( 'NONE', #44, .T. ) ;
#272 = FACE_OUTER_BOUND ( 'NONE', #351, .T. ) ;
#273 = ORIENTED_EDGE ( 'NONE', *, *, #130, .F. ) ;
#274 = DIRECTION ( 'NONE',  ( 1.000000000000000000, 0.000000000000000000, 0.000000000000000000 ) ) ;
#275 = AXIS2_PLACEMENT_3D ( 'NONE', #49, #188, #186 ) ;
#276 = AXIS2_PLACEMENT_3D ( 'NONE', #135, #4, #64 ) ;
#277 = FACE_BOUND ( 'NONE', #155, .T. ) ;
#278 = VERTEX_POINT ( 'NONE', #340 ) ;
#279 = ORIENTED_EDGE ( 'NONE', *, *, #121, .T. ) ;
#280 = AXIS2_PLACEMENT_3D ( 'NONE', #297, #69, #17 ) ;
#281 = AXIS2_PLACEMENT_3D ( 'NONE', #248, #159, #368 ) ;
#282 = EDGE_LOOP ( 'NONE', ( #273, #132, #319, #74 ) ) ;
#283 = DIRECTION ( 'NONE',  ( 1.000000000000000000, 0.000000000000000000, -0.000000000000000000 ) ) ;
#284 = VERTEX_POINT ( 'NONE', #191 ) ;
#285 = DIRECTION ( 'NONE',  ( -0.000000000000000000, -0.000000000000000000, -1.000000000000000000 ) ) ;
#286 = ORIENTED_EDGE ( 'NONE', *, *, #171, .F. ) ;
#287 = CC_DESIGN_DATE_AND_TIME_ASSIGNMENT ( #115, #153, ( #222 ) ) ;
#288 = VECTOR ( 'NONE', #26, 1000.000000000000000 ) ;
#289 = VERTEX_POINT ( 'NONE', #46 ) ;
#290 = CARTESIAN_POINT ( 'NONE',  ( 0.000000000000000000, 0.000000000000000000, 5.500000000000005329 ) ) ;
#291 = MECHANICAL_CONTEXT ( 'NONE', #73, 'mechanical' ) ;
#292 = DIRECTION ( 'NONE',  ( -0.000000000000000000, -0.000000000000000000, -1.000000000000000000 ) ) ;
#293 = CIRCLE ( 'NONE', #117, 2.500000000000000000 ) ;
#294 = CC_DESIGN_SECURITY_CLASSIFICATION ( #222, ( #108 ) ) ;
#295 = DIRECTION ( 'NONE',  ( 0.000000000000000000, 0.000000000000000000, 1.000000000000000000 ) ) ;
#296 = PERSON_AND_ORGANIZATION ( #332, #65 ) ;
#297 = CARTESIAN_POINT ( 'NONE',  ( 4.500000000000000888, 0.000000000000000000, 5.500000000000005329 ) ) ;
#298 = ADVANCED_FACE ( 'NONE', ( #277, #21 ), #313, .T. ) ;
#299 = APPROVAL_PERSON_ORGANIZATION ( #113, #328, #145 ) ;
#300 = PERSON_AND_ORGANIZATION ( #332, #65 ) ;
#301 = CYLINDRICAL_SURFACE ( 'NONE', #307, 7.000000000000000000 ) ;
#302 = ORIENTED_EDGE ( 'NONE', *, *, #62, .F. ) ;
#303 = DIRECTION ( 'NONE',  ( -0.000000000000000000, -0.000000000000000000, -1.000000000000000000 ) ) ;
#304 = PRODUCT_DEFINITION_SHAPE ( 'NONE', 'NONE',  #45 ) ;
#305 = ORIENTED_EDGE ( 'NONE', *, *, #180, .T. ) ;
#306 = DIRECTION ( 'NONE',  ( 0.000000000000000000, 0.000000000000000000, 1.000000000000000000 ) ) ;
#307 = AXIS2_PLACEMENT_3D ( 'NONE', #116, #43, #363 ) ;
#308 = AXIS2_PLACEMENT_3D ( 'NONE', #309, #106, #78 ) ;
#309 = CARTESIAN_POINT ( 'NONE',  ( 0.000000000000000000, 0.000000000000000000, 180.0000000000000000 ) ) ;
#310 = LINE ( 'NONE', #342, #364 ) ;
#311 = ORIENTED_EDGE ( 'NONE', *, *, #205, .T. ) ;
#312 = UNCERTAINTY_MEASURE_WITH_UNIT (LENGTH_MEASURE( 1.000000000000000082E-05 ), #57, 'distance_accuracy_value', 'NONE');
#313 = PLANE ( 'NONE',  #95 ) ;
#314 = CC_DESIGN_PERSON_AND_ORGANIZATION_ASSIGNMENT ( #296, #265, ( #222 ) ) ;
#315 = CYLINDRICAL_SURFACE ( 'NONE', #275, 7.000000000000000000 ) ;
#316 = ORIENTED_EDGE ( 'NONE', *, *, #205, .F. ) ;
#317 = ADVANCED_FACE ( 'NONE', ( #221 ), #179, .F. ) ;
#318 = APPROVAL_STATUS ( 'not_yet_approved' ) ;
#319 = ORIENTED_EDGE ( 'NONE', *, *, #240, .T. ) ;
#320 = PERSON_AND_ORGANIZATION_ROLE ( 'design_owner' ) ;
#321 = CIRCLE ( 'NONE', #230, 4.000000000000000000 ) ;
#322 = ORIENTED_EDGE ( 'NONE', *, *, #121, .F. ) ;
#323 = DIRECTION ( 'NONE',  ( 0.000000000000000000, 0.000000000000000000, 1.000000000000000000 ) ) ;
#324 = DIRECTION ( 'NONE',  ( 1.000000000000000000, 0.000000000000000000, 0.000000000000000000 ) ) ;
#325 = SHAPE_DEFINITION_REPRESENTATION ( #304, #142 ) ;
#326 = PERSON_AND_ORGANIZATION_ROLE ( 'creator' ) ;
#327 = CARTESIAN_POINT ( 'NONE',  ( 4.500000000000000888, 0.000000000000000000, 5.000000000000002665 ) ) ;
#328 = APPROVAL ( #318, 'NEURÈENÝ' ) ;
#329 = FACE_OUTER_BOUND ( 'NONE', #211, .T. ) ;
#330 = DATE_AND_TIME ( #268, #6 ) ;
#331 = CARTESIAN_POINT ( 'NONE',  ( -2.500000000000000000, 0.000000000000000000, 0.000000000000000000 ) ) ;
#332 = PERSON ( 'NEURÈENÝ', 'NEURÈENÝ', 'NEURÈENÝ', ('NEURÈENÝ'), ('NEURÈENÝ'), ('NEURÈENÝ') ) ;
#333 = LOCAL_TIME ( 17, 20, 35.00000000000000000, #181 ) ;
#334 = APPROVAL_DATE_TIME ( #330, #219 ) ;
#335 = DIRECTION ( 'NONE',  ( -0.000000000000000000, -0.000000000000000000, -1.000000000000000000 ) ) ;
#336 = VERTEX_POINT ( 'NONE', #175 ) ;
#337 = CARTESIAN_POINT ( 'NONE',  ( 0.000000000000000000, 0.000000000000000000, 0.000000000000000000 ) ) ;
#338 = EDGE_CURVE ( 'NONE', #278, #244, #149, .T. ) ;
#339 = ORIENTED_EDGE ( 'NONE', *, *, #8, .T. ) ;
#340 = CARTESIAN_POINT ( 'NONE',  ( -7.000000000000000000, 0.000000000000000000, 5.000000000000000000 ) ) ;
#341 =( GEOMETRIC_REPRESENTATION_CONTEXT ( 3 ) GLOBAL_UNCERTAINTY_ASSIGNED_CONTEXT ( ( #312 ) ) GLOBAL_UNIT_ASSIGNED_CONTEXT ( ( #57, #204, #34 ) ) REPRESENTATION_CONTEXT ( 'NONE', 'WORKASPACE' ) );
#342 = CARTESIAN_POINT ( 'NONE',  ( -2.500000000000000000, 0.000000000000000000, 180.0000000000000000 ) ) ;
#343 = DIRECTION ( 'NONE',  ( 0.000000000000000000, 0.000000000000000000, 1.000000000000000000 ) ) ;
#344 = DIRECTION ( 'NONE',  ( 1.000000000000000000, 0.000000000000000000, 0.000000000000000000 ) ) ;
#345 = ORIENTED_EDGE ( 'NONE', *, *, #62, .T. ) ;
#346 = DIRECTION ( 'NONE',  ( 0.000000000000000000, 0.000000000000000000, 1.000000000000000000 ) ) ;
#347 = VERTEX_POINT ( 'NONE', #261 ) ;
#348 = VERTEX_POINT ( 'NONE', #141 ) ;
#349 = EDGE_CURVE ( 'NONE', #53, #152, #51, .T. ) ;
#350 = FACE_OUTER_BOUND ( 'NONE', #111, .T. ) ;
#351 = EDGE_LOOP ( 'NONE', ( #258, #136 ) ) ;
#352 = APPLICATION_PROTOCOL_DEFINITION ( 'international standard', 'config_control_design', 1994, #27 ) ;
#353 = CC_DESIGN_APPROVAL ( #328, ( #45 ) ) ;
#354 = CARTESIAN_POINT ( 'NONE',  ( 0.000000000000000000, 0.000000000000000000, 5.000000000000000000 ) ) ;
#355 = CALENDAR_DATE ( 2022, 8, 7 ) ;
#356 = LINE ( 'NONE', #90, #87 ) ;
#357 = EDGE_CURVE ( 'NONE', #32, #139, #165, .T. ) ;
#358 = APPROVAL_DATE_TIME ( #185, #70 ) ;
#359 = CARTESIAN_POINT ( 'NONE',  ( 0.000000000000000000, 0.000000000000000000, 0.000000000000000000 ) ) ;
#360 = APPROVAL_STATUS ( 'not_yet_approved' ) ;
#361 = CARTESIAN_POINT ( 'NONE',  ( 0.000000000000000000, 0.000000000000000000, 180.0000000000000000 ) ) ;
#362 = PERSON_AND_ORGANIZATION ( #332, #65 ) ;
#363 = DIRECTION ( 'NONE',  ( -1.000000000000000000, 0.000000000000000000, 0.000000000000000000 ) ) ;
#364 = VECTOR ( 'NONE', #22, 1000.000000000000000 ) ;
#365 = DIRECTION ( 'NONE',  ( 1.000000000000000000, 0.000000000000000000, 0.000000000000000000 ) ) ;
#366 = CC_DESIGN_PERSON_AND_ORGANIZATION_ASSIGNMENT ( #146, #326, ( #108 ) ) ;
#367 = ORIENTED_EDGE ( 'NONE', *, *, #67, .T. ) ;
#368 = DIRECTION ( 'NONE',  ( -1.000000000000000000, 0.000000000000000000, 0.000000000000000000 ) ) ;
#369 = ORIENTED_EDGE ( 'NONE', *, *, #110, .T. ) ;
#370 = DIRECTION ( 'NONE',  ( 0.000000000000000000, 0.000000000000000000, 1.000000000000000000 ) ) ;
#371 = EDGE_LOOP ( 'NONE', ( #316, #225, #369, #58 ) ) ;
#372 = EDGE_CURVE ( 'NONE', #278, #284, #140, .T. ) ;
#373 = AXIS2_PLACEMENT_3D ( 'NONE', #182, #295, #9 ) ;
#374 = AXIS2_PLACEMENT_3D ( 'NONE', #290, #323, #259 ) ;
#375 = CARTESIAN_POINT ( 'NONE',  ( 2.500000000000000000, 3.061616997868382648E-16, 180.0000000000000000 ) ) ;
#376 = CARTESIAN_POINT ( 'NONE',  ( -4.500000000000000888, 5.510910596163088569E-16, 5.000000000000002665 ) ) ;
#377 = CARTESIAN_POINT ( 'NONE',  ( 0.000000000000000000, 0.000000000000000000, 5.500000000000005329 ) ) ;
#378 = EDGE_LOOP ( 'NONE', ( #77, #260, #166, #279 ) ) ;
#379 = DIRECTION ( 'NONE',  ( 0.000000000000000000, 0.000000000000000000, 1.000000000000000000 ) ) ;
#380 = ADVANCED_FACE ( 'NONE', ( #350 ), #2, .F. ) ;
#381 = CARTESIAN_POINT ( 'NONE',  ( 0.000000000000000000, 0.000000000000000000, 0.000000000000000000 ) ) ;
ENDSEC;
END-ISO-10303-21;
