ISO-10303-21;
HEADER;
FILE_DESCRIPTION (( 'STEP AP203' ),
    '1' );
FILE_NAME ('f120.STEP',
    '2022-07-08T15:50:37',
    ( '' ),
    ( '' ),
    'SwSTEP 2.0',
    'SolidWorks 2019',
    '' );
FILE_SCHEMA (( 'CONFIG_CONTROL_DESIGN' ));
ENDSEC;

DATA;
#1 = PERSON_AND_ORGANIZATION ( #321, #302 ) ;
#2 = ORIENTED_EDGE ( 'NONE', *, *, #281, .T. ) ;
#3 = APPROVAL_DATE_TIME ( #155, #9 ) ;
#4 = EDGE_CURVE ( 'NONE', #355, #216, #24, .T. ) ;
#5 = ORIENTED_EDGE ( 'NONE', *, *, #249, .T. ) ;
#6 = AXIS2_PLACEMENT_3D ( 'NONE', #32, #274, #208 ) ;
#7 = APPROVAL_DATE_TIME ( #380, #152 ) ;
#8 = VERTEX_POINT ( 'NONE', #285 ) ;
#9 = APPROVAL ( #183, 'NEURÈENÝ' ) ;
#10 = ORIENTED_EDGE ( 'NONE', *, *, #213, .T. ) ;
#11 = AXIS2_PLACEMENT_3D ( 'NONE', #138, #50, #168 ) ;
#12 = DIRECTION ( 'NONE',  ( -1.000000000000000000, 0.000000000000000000, 0.000000000000000000 ) ) ;
#13 = AXIS2_PLACEMENT_3D ( 'NONE', #91, #206, #141 ) ;
#14 = CYLINDRICAL_SURFACE ( 'NONE', #90, 4.000000000000000000 ) ;
#15 = LINE ( 'NONE', #165, #51 ) ;
#16 = DESIGN_CONTEXT ( 'detailed design', #358, 'design' ) ;
#17 = DIRECTION ( 'NONE',  ( -1.000000000000000000, 0.000000000000000000, 0.000000000000000000 ) ) ;
#18 = EDGE_CURVE ( 'NONE', #216, #355, #223, .T. ) ;
#19 = VECTOR ( 'NONE', #62, 1000.000000000000000 ) ;
#20 = CARTESIAN_POINT ( 'NONE',  ( 0.000000000000000000, 0.000000000000000000, 0.000000000000000000 ) ) ;
#21 = CYLINDRICAL_SURFACE ( 'NONE', #336, 4.000000000000000000 ) ;
#22 = EDGE_CURVE ( 'NONE', #218, #31, #377, .T. ) ;
#23 = CARTESIAN_POINT ( 'NONE',  ( -2.000000000000000000, 0.000000000000000000, 153.0000000000000000 ) ) ;
#24 = CIRCLE ( 'NONE', #172, 1.100000000000000089 ) ;
#25 = EDGE_CURVE ( 'NONE', #71, #292, #119, .T. ) ;
#26 = CARTESIAN_POINT ( 'NONE',  ( 0.000000000000000000, 0.000000000000000000, 3.000000000000000000 ) ) ;
#27 = CIRCLE ( 'NONE', #92, 4.000000000000000000 ) ;
#28 = DIRECTION ( 'NONE',  ( 0.000000000000000000, 0.000000000000000000, 1.000000000000000000 ) ) ;
#29 = ORIENTED_EDGE ( 'NONE', *, *, #134, .T. ) ;
#30 = CARTESIAN_POINT ( 'NONE',  ( -1.100000000000000089, 0.000000000000000000, 153.0000000000000000 ) ) ;
#31 = VERTEX_POINT ( 'NONE', #277 ) ;
#32 = CARTESIAN_POINT ( 'NONE',  ( 0.000000000000000000, 0.000000000000000000, 0.000000000000000000 ) ) ;
#33 = ORIENTED_EDGE ( 'NONE', *, *, #25, .T. ) ;
#34 = CIRCLE ( 'NONE', #367, 1.100000000000000089 ) ;
#35 = TOROIDAL_SURFACE ( 'NONE', #13, 2.299999999999999822, 0.2999999999999999889 ) ;
#36 = APPROVAL_ROLE ( '' ) ;
#37 = ORIENTED_EDGE ( 'NONE', *, *, #175, .T. ) ;
#38 = ADVANCED_FACE ( 'NONE', ( #309 ), #105, .T. ) ;
#39 = PERSON_AND_ORGANIZATION ( #321, #302 ) ;
#40 = EDGE_LOOP ( 'NONE', ( #381, #271, #122, #174 ) ) ;
#41 = AXIS2_PLACEMENT_3D ( 'NONE', #331, #54, #12 ) ;
#42 = ADVANCED_FACE ( 'NONE', ( #81 ), #222, .F. ) ;
#43 = CALENDAR_DATE ( 2022, 8, 7 ) ;
#44 = ORIENTED_EDGE ( 'NONE', *, *, #226, .F. ) ;
#45 = AXIS2_PLACEMENT_3D ( 'NONE', #26, #254, #112 ) ;
#46 = APPROVAL_ROLE ( '' ) ;
#47 = APPROVAL_DATE_TIME ( #106, #313 ) ;
#48 = CARTESIAN_POINT ( 'NONE',  ( 0.000000000000000000, 0.000000000000000000, 3.000000000000000000 ) ) ;
#49 = ADVANCED_FACE ( 'NONE', ( #104 ), #14, .T. ) ;
#50 = DIRECTION ( 'NONE',  ( 0.000000000000000000, 0.000000000000000000, 1.000000000000000000 ) ) ;
#51 = VECTOR ( 'NONE', #135, 1000.000000000000000 ) ;
#52 = FACE_BOUND ( 'NONE', #353, .T. ) ;
#53 = EDGE_CURVE ( 'NONE', #361, #154, #188, .T. ) ;
#54 = DIRECTION ( 'NONE',  ( -0.000000000000000000, -0.000000000000000000, -1.000000000000000000 ) ) ;
#55 = SHAPE_DEFINITION_REPRESENTATION ( #344, #255 ) ;
#56 = DIRECTION ( 'NONE',  ( 0.000000000000000000, 0.000000000000000000, 1.000000000000000000 ) ) ;
#57 = LOCAL_TIME ( 17, 50, 37.00000000000000000, #96 ) ;
#58 = DIRECTION ( 'NONE',  ( -0.000000000000000000, -0.000000000000000000, -1.000000000000000000 ) ) ;
#59 = CARTESIAN_POINT ( 'NONE',  ( 0.000000000000000000, 0.000000000000000000, 0.000000000000000000 ) ) ;
#60 = DIRECTION ( 'NONE',  ( 1.000000000000000000, 0.000000000000000000, 0.000000000000000000 ) ) ;
#61 = ORIENTED_EDGE ( 'NONE', *, *, #53, .F. ) ;
#62 = DIRECTION ( 'NONE',  ( -0.000000000000000000, -0.000000000000000000, -1.000000000000000000 ) ) ;
#63 = AXIS2_PLACEMENT_3D ( 'NONE', #227, #166, #83 ) ;
#64 = DIRECTION ( 'NONE',  ( -1.000000000000000000, 0.000000000000000000, 0.000000000000000000 ) ) ;
#65 = DIRECTION ( 'NONE',  ( 0.000000000000000000, 0.000000000000000000, 1.000000000000000000 ) ) ;
#66 = ORIENTED_EDGE ( 'NONE', *, *, #18, .F. ) ;
#67 = AXIS2_PLACEMENT_3D ( 'NONE', #131, #306, #305 ) ;
#68 = DATE_TIME_ROLE ( 'creation_date' ) ;
#69 = EDGE_LOOP ( 'NONE', ( #297, #239, #151, #373 ) ) ;
#70 = AXIS2_PLACEMENT_3D ( 'NONE', #125, #240, #301 ) ;
#71 = VERTEX_POINT ( 'NONE', #220 ) ;
#72 = EDGE_LOOP ( 'NONE', ( #159, #29, #327, #324 ) ) ;
#73 = CARTESIAN_POINT ( 'NONE',  ( 4.000000000000000000, 4.898587196589412829E-16, 0.000000000000000000 ) ) ;
#74 = ORIENTED_EDGE ( 'NONE', *, *, #201, .F. ) ;
#75 = LOCAL_TIME ( 17, 50, 37.00000000000000000, #323 ) ;
#76 = CC_DESIGN_SECURITY_CLASSIFICATION ( #219, ( #195 ) ) ;
#77 = DIRECTION ( 'NONE',  ( 0.000000000000000000, 0.000000000000000000, 1.000000000000000000 ) ) ;
#78 = DIRECTION ( 'NONE',  ( 1.000000000000000000, 0.000000000000000000, 0.000000000000000000 ) ) ;
#79 = ADVANCED_FACE ( 'NONE', ( #197, #286 ), #136, .T. ) ;
#80 = VECTOR ( 'NONE', #58, 1000.000000000000000 ) ;
#81 = FACE_OUTER_BOUND ( 'NONE', #69, .T. ) ;
#82 = PRODUCT_DEFINITION ( 'NEZNÁMÝ', '', #195, #16 ) ;
#83 = DIRECTION ( 'NONE',  ( -1.000000000000000000, 0.000000000000000000, 0.000000000000000000 ) ) ;
#84 = DIRECTION ( 'NONE',  ( 1.000000000000000000, 0.000000000000000000, 0.000000000000000000 ) ) ;
#85 = CIRCLE ( 'NONE', #176, 4.000000000000000000 ) ;
#86 = LINE ( 'NONE', #259, #225 ) ;
#87 = ADVANCED_FACE ( 'NONE', ( #52, #251 ), #368, .F. ) ;
#88 = DIRECTION ( 'NONE',  ( -0.000000000000000000, -0.000000000000000000, -1.000000000000000000 ) ) ;
#89 = CARTESIAN_POINT ( 'NONE',  ( 2.000000000000000000, 2.449293598294706414E-16, 153.0000000000000000 ) ) ;
#90 = AXIS2_PLACEMENT_3D ( 'NONE', #48, #338, #17 ) ;
#91 = CARTESIAN_POINT ( 'NONE',  ( 0.000000000000000000, 0.000000000000000000, 3.299999999999997158 ) ) ;
#92 = AXIS2_PLACEMENT_3D ( 'NONE', #256, #234, #145 ) ;
#93 =( NAMED_UNIT ( * ) PLANE_ANGLE_UNIT ( ) SI_UNIT ( $, .RADIAN. ) );
#94 = EDGE_CURVE ( 'NONE', #8, #210, #278, .T. ) ;
#95 = ORIENTED_EDGE ( 'NONE', *, *, #296, .T. ) ;
#96 = COORDINATED_UNIVERSAL_TIME_OFFSET ( 1, 0, .AHEAD. ) ;
#97 = EDGE_LOOP ( 'NONE', ( #352, #61 ) ) ;
#98 = APPROVAL_STATUS ( 'not_yet_approved' ) ;
#99 = ORIENTED_EDGE ( 'NONE', *, *, #296, .F. ) ;
#100 = COORDINATED_UNIVERSAL_TIME_OFFSET ( 1, 0, .AHEAD. ) ;
#101 = CARTESIAN_POINT ( 'NONE',  ( 0.000000000000000000, 0.000000000000000000, 153.0000000000000000 ) ) ;
#102 = ORIENTED_EDGE ( 'NONE', *, *, #316, .F. ) ;
#103 = AXIS2_PLACEMENT_3D ( 'NONE', #288, #347, #118 ) ;
#104 = FACE_OUTER_BOUND ( 'NONE', #40, .T. ) ;
#105 = CYLINDRICAL_SURFACE ( 'NONE', #41, 2.000000000000000000 ) ;
#106 = DATE_AND_TIME ( #276, #231 ) ;
#107 = DIRECTION ( 'NONE',  ( 1.000000000000000000, 0.000000000000000000, 0.000000000000000000 ) ) ;
#108 = CIRCLE ( 'NONE', #103, 0.2999999999999999334 ) ;
#109 = CARTESIAN_POINT ( 'NONE',  ( 2.299999999999999822, 0.000000000000000000, 2.999999999999998668 ) ) ;
#110 = DIRECTION ( 'NONE',  ( 0.000000000000000000, 0.000000000000000000, 1.000000000000000000 ) ) ;
#111 = AXIS2_PLACEMENT_3D ( 'NONE', #363, #196, #247 ) ;
#112 = DIRECTION ( 'NONE',  ( 1.000000000000000000, 0.000000000000000000, -0.000000000000000000 ) ) ;
#113 = CIRCLE ( 'NONE', #272, 2.299999999999999822 ) ;
#114 = CARTESIAN_POINT ( 'NONE',  ( -2.299999999999999822, 2.816687638038912056E-16, 2.999999999999998668 ) ) ;
#115 = VERTEX_POINT ( 'NONE', #109 ) ;
#116 = PLANE ( 'NONE',  #45 ) ;
#117 = ADVANCED_FACE ( 'NONE', ( #334 ), #332, .F. ) ;
#118 = DIRECTION ( 'NONE',  ( 0.000000000000000000, 0.000000000000000000, -1.000000000000000000 ) ) ;
#119 = CIRCLE ( 'NONE', #111, 2.000000000000000000 ) ;
#120 = MECHANICAL_CONTEXT ( 'NONE', #330, 'mechanical' ) ;
#121 = PERSON_AND_ORGANIZATION ( #321, #302 ) ;
#122 = ORIENTED_EDGE ( 'NONE', *, *, #139, .T. ) ;
#123 = SECURITY_CLASSIFICATION_LEVEL ( 'unclassified' ) ;
#124 = EDGE_LOOP ( 'NONE', ( #187, #186, #37, #315 ) ) ;
#125 = CARTESIAN_POINT ( 'NONE',  ( 0.000000000000000000, 0.000000000000000000, 3.299999999999997158 ) ) ;
#126 = ORIENTED_EDGE ( 'NONE', *, *, #143, .T. ) ;
#127 = PERSON_AND_ORGANIZATION_ROLE ( 'creator' ) ;
#128 = ORIENTED_EDGE ( 'NONE', *, *, #134, .F. ) ;
#129 = DIRECTION ( 'NONE',  ( 1.000000000000000000, 0.000000000000000000, -0.000000000000000000 ) ) ;
#130 = CIRCLE ( 'NONE', #169, 4.000000000000000000 ) ;
#131 = CARTESIAN_POINT ( 'NONE',  ( 0.000000000000000000, 0.000000000000000000, 3.299999999999997158 ) ) ;
#132 = MANIFOLD_SOLID_BREP ( 'Odebrat vysunutím3', #209 ) ;
#133 = DATE_AND_TIME ( #308, #264 ) ;
#134 = EDGE_CURVE ( 'NONE', #292, #218, #310, .T. ) ;
#135 = DIRECTION ( 'NONE',  ( -0.000000000000000000, -0.000000000000000000, -1.000000000000000000 ) ) ;
#136 = PLANE ( 'NONE',  #11 ) ;
#137 =( GEOMETRIC_REPRESENTATION_CONTEXT ( 3 ) GLOBAL_UNCERTAINTY_ASSIGNED_CONTEXT ( ( #280 ) ) GLOBAL_UNIT_ASSIGNED_CONTEXT ( ( #270, #93, #350 ) ) REPRESENTATION_CONTEXT ( 'NONE', 'WORKASPACE' ) );
#138 = CARTESIAN_POINT ( 'NONE',  ( 0.000000000000000000, 0.000000000000000000, 153.0000000000000000 ) ) ;
#139 = EDGE_CURVE ( 'NONE', #242, #154, #15, .T. ) ;
#140 = FACE_BOUND ( 'NONE', #325, .T. ) ;
#141 = DIRECTION ( 'NONE',  ( 1.000000000000000000, 0.000000000000000000, 0.000000000000000000 ) ) ;
#142 = LOCAL_TIME ( 17, 50, 37.00000000000000000, #320 ) ;
#143 = EDGE_CURVE ( 'NONE', #242, #238, #130, .T. ) ;
#144 = DIRECTION ( 'NONE',  ( 0.000000000000000000, 0.000000000000000000, 1.000000000000000000 ) ) ;
#145 = DIRECTION ( 'NONE',  ( 1.000000000000000000, 0.000000000000000000, 0.000000000000000000 ) ) ;
#146 = ORIENTED_EDGE ( 'NONE', *, *, #375, .T. ) ;
#147 = PRODUCT_RELATED_PRODUCT_CATEGORY ( 'detail', '', ( #364 ) ) ;
#148 = CARTESIAN_POINT ( 'NONE',  ( -1.100000000000000089, 0.000000000000000000, 0.000000000000000000 ) ) ;
#149 = AXIS2_PLACEMENT_3D ( 'NONE', #307, #110, #78 ) ;
#150 = CIRCLE ( 'NONE', #362, 2.000000000000000000 ) ;
#151 = ORIENTED_EDGE ( 'NONE', *, *, #94, .T. ) ;
#152 = APPROVAL ( #98, 'NEURÈENÝ' ) ;
#153 = PERSON_AND_ORGANIZATION ( #321, #302 ) ;
#154 = VERTEX_POINT ( 'NONE', #279 ) ;
#155 = DATE_AND_TIME ( #157, #57 ) ;
#156 = EDGE_LOOP ( 'NONE', ( #33, #257 ) ) ;
#157 = CALENDAR_DATE ( 2022, 8, 7 ) ;
#158 = ADVANCED_FACE ( 'NONE', ( #369 ), #35, .F. ) ;
#159 = ORIENTED_EDGE ( 'NONE', *, *, #284, .F. ) ;
#160 = CIRCLE ( 'NONE', #184, 2.299999999999999822 ) ;
#161 = CC_DESIGN_APPROVAL ( #313, ( #219 ) ) ;
#162 = CALENDAR_DATE ( 2022, 8, 7 ) ;
#163 = EDGE_LOOP ( 'NONE', ( #273, #95, #275, #102 ) ) ;
#164 = DIRECTION ( 'NONE',  ( -0.000000000000000000, -0.000000000000000000, -1.000000000000000000 ) ) ;
#165 = CARTESIAN_POINT ( 'NONE',  ( -4.000000000000000000, 0.000000000000000000, 3.000000000000000000 ) ) ;
#166 = DIRECTION ( 'NONE',  ( 0.000000000000000000, 0.000000000000000000, -1.000000000000000000 ) ) ;
#167 = DIRECTION ( 'NONE',  ( -1.000000000000000000, 0.000000000000000000, 0.000000000000000000 ) ) ;
#168 = DIRECTION ( 'NONE',  ( 1.000000000000000000, 0.000000000000000000, -0.000000000000000000 ) ) ;
#169 = AXIS2_PLACEMENT_3D ( 'NONE', #253, #366, #107 ) ;
#170 = CARTESIAN_POINT ( 'NONE',  ( 1.100000000000000089, 1.347111479062088503E-16, 153.0000000000000000 ) ) ;
#171 = CARTESIAN_POINT ( 'NONE',  ( 0.000000000000000000, 0.000000000000000000, 3.000000000000000000 ) ) ;
#172 = AXIS2_PLACEMENT_3D ( 'NONE', #101, #190, #303 ) ;
#173 = FACE_OUTER_BOUND ( 'NONE', #295, .T. ) ;
#174 = ORIENTED_EDGE ( 'NONE', *, *, #345, .T. ) ;
#175 = EDGE_CURVE ( 'NONE', #355, #210, #224, .T. ) ;
#176 = AXIS2_PLACEMENT_3D ( 'NONE', #214, #65, #237 ) ;
#177 = CARTESIAN_POINT ( 'NONE',  ( 0.000000000000000000, 0.000000000000000000, 3.000000000000000000 ) ) ;
#178 = ORIENTED_EDGE ( 'NONE', *, *, #22, .F. ) ;
#179 = DIRECTION ( 'NONE',  ( 1.000000000000000000, 0.000000000000000000, 0.000000000000000000 ) ) ;
#180 = APPLICATION_PROTOCOL_DEFINITION ( 'international standard', 'config_control_design', 1994, #330 ) ;
#181 = ORIENTED_EDGE ( 'NONE', *, *, #316, .T. ) ;
#182 = ADVANCED_FACE ( 'NONE', ( #339 ), #21, .T. ) ;
#183 = APPROVAL_STATUS ( 'not_yet_approved' ) ;
#184 = AXIS2_PLACEMENT_3D ( 'NONE', #171, #289, #179 ) ;
#185 = PERSON_AND_ORGANIZATION_ROLE ( 'design_owner' ) ;
#186 = ORIENTED_EDGE ( 'NONE', *, *, #18, .T. ) ;
#187 = ORIENTED_EDGE ( 'NONE', *, *, #290, .F. ) ;
#188 = CIRCLE ( 'NONE', #360, 4.000000000000000000 ) ;
#189 = APPLICATION_PROTOCOL_DEFINITION ( 'international standard', 'config_control_design', 1994, #358 ) ;
#190 = DIRECTION ( 'NONE',  ( 0.000000000000000000, 0.000000000000000000, 1.000000000000000000 ) ) ;
#191 = CARTESIAN_POINT ( 'NONE',  ( 0.000000000000000000, 0.000000000000000000, 0.000000000000000000 ) ) ;
#192 = CARTESIAN_POINT ( 'NONE',  ( 2.000000000000000000, 2.449293598294706414E-16, 153.0000000000000000 ) ) ;
#193 = APPROVAL_ROLE ( '' ) ;
#194 = CARTESIAN_POINT ( 'NONE',  ( 0.000000000000000000, 0.000000000000000000, 153.0000000000000000 ) ) ;
#195 = PRODUCT_DEFINITION_FORMATION_WITH_SPECIFIED_SOURCE ( 'LIBOVOLNÝ', '', #364, .NOT_KNOWN. ) ;
#196 = DIRECTION ( 'NONE',  ( 0.000000000000000000, 0.000000000000000000, 1.000000000000000000 ) ) ;
#197 = FACE_BOUND ( 'NONE', #299, .T. ) ;
#198 = FACE_OUTER_BOUND ( 'NONE', #215, .T. ) ;
#199 = CIRCLE ( 'NONE', #70, 2.000000000000000000 ) ;
#200 = CARTESIAN_POINT ( 'NONE',  ( 0.000000000000000000, 0.000000000000000000, 3.299999999999997158 ) ) ;
#201 = EDGE_CURVE ( 'NONE', #210, #8, #34, .T. ) ;
#202 = DIRECTION ( 'NONE',  ( 0.000000000000000000, 0.000000000000000000, -1.000000000000000000 ) ) ;
#203 = EDGE_LOOP ( 'NONE', ( #322, #5, #207, #268 ) ) ;
#204 = CARTESIAN_POINT ( 'NONE',  ( 0.000000000000000000, 0.000000000000000000, 153.0000000000000000 ) ) ;
#205 = AXIS2_PLACEMENT_3D ( 'NONE', #337, #164, #246 ) ;
#206 = DIRECTION ( 'NONE',  ( 0.000000000000000000, 0.000000000000000000, 1.000000000000000000 ) ) ;
#207 = ORIENTED_EDGE ( 'NONE', *, *, #53, .T. ) ;
#208 = DIRECTION ( 'NONE',  ( 1.000000000000000000, 0.000000000000000000, 0.000000000000000000 ) ) ;
#209 = CLOSED_SHELL ( 'NONE', ( #42, #158, #349, #182, #49, #217, #87, #38, #79, #326, #117 ) ) ;
#210 = VERTEX_POINT ( 'NONE', #148 ) ;
#211 = PERSON_AND_ORGANIZATION_ROLE ( 'design_supplier' ) ;
#212 = ORIENTED_EDGE ( 'NONE', *, *, #356, .T. ) ;
#213 = EDGE_CURVE ( 'NONE', #115, #260, #113, .T. ) ;
#214 = CARTESIAN_POINT ( 'NONE',  ( 0.000000000000000000, 0.000000000000000000, 3.000000000000000000 ) ) ;
#215 = EDGE_LOOP ( 'NONE', ( #126, #212 ) ) ;
#216 = VERTEX_POINT ( 'NONE', #170 ) ;
#217 = ADVANCED_FACE ( 'NONE', ( #140, #198 ), #116, .T. ) ;
#218 = VERTEX_POINT ( 'NONE', #311 ) ;
#219 = SECURITY_CLASSIFICATION ( '', '', #123 ) ;
#220 = CARTESIAN_POINT ( 'NONE',  ( -2.000000000000000000, 0.000000000000000000, 153.0000000000000000 ) ) ;
#221 = DATE_TIME_ROLE ( 'classification_date' ) ;
#222 = CYLINDRICAL_SURFACE ( 'NONE', #250, 1.100000000000000089 ) ;
#223 = CIRCLE ( 'NONE', #149, 1.100000000000000089 ) ;
#224 = LINE ( 'NONE', #30, #258 ) ;
#225 = VECTOR ( 'NONE', #202, 1000.000000000000000 ) ;
#226 = EDGE_CURVE ( 'NONE', #260, #115, #160, .T. ) ;
#227 = CARTESIAN_POINT ( 'NONE',  ( 0.000000000000000000, 0.000000000000000000, 153.0000000000000000 ) ) ;
#228 = DIRECTION ( 'NONE',  ( -1.000000000000000000, 1.224646799147353207E-16, 0.000000000000000000 ) ) ;
#229 = AXIS2_PLACEMENT_3D ( 'NONE', #20, #77, #129 ) ;
#230 = DIRECTION ( 'NONE',  ( -1.000000000000000000, 0.000000000000000000, 0.000000000000000000 ) ) ;
#231 = LOCAL_TIME ( 17, 50, 37.00000000000000000, #304 ) ;
#232 = CARTESIAN_POINT ( 'NONE',  ( 4.000000000000000000, 4.898587196589412829E-16, 3.000000000000000000 ) ) ;
#233 = CC_DESIGN_PERSON_AND_ORGANIZATION_ASSIGNMENT ( #121, #298, ( #82 ) ) ;
#234 = DIRECTION ( 'NONE',  ( 0.000000000000000000, 0.000000000000000000, 1.000000000000000000 ) ) ;
#235 = DIRECTION ( 'NONE',  ( -0.000000000000000000, -0.000000000000000000, -1.000000000000000000 ) ) ;
#236 = AXIS2_PLACEMENT_3D ( 'NONE', #204, #235, #64 ) ;
#237 = DIRECTION ( 'NONE',  ( 1.000000000000000000, 0.000000000000000000, 0.000000000000000000 ) ) ;
#238 = VERTEX_POINT ( 'NONE', #371 ) ;
#239 = ORIENTED_EDGE ( 'NONE', *, *, #290, .T. ) ;
#240 = DIRECTION ( 'NONE',  ( 0.000000000000000000, 0.000000000000000000, 1.000000000000000000 ) ) ;
#241 = APPROVAL_PERSON_ORGANIZATION ( #265, #152, #46 ) ;
#242 = VERTEX_POINT ( 'NONE', #370 ) ;
#243 = PERSON_AND_ORGANIZATION ( #321, #302 ) ;
#244 = ORIENTED_EDGE ( 'NONE', *, *, #94, .F. ) ;
#245 = CIRCLE ( 'NONE', #372, 0.2999999999999999334 ) ;
#246 = DIRECTION ( 'NONE',  ( 1.000000000000000000, 0.000000000000000000, 0.000000000000000000 ) ) ;
#247 = DIRECTION ( 'NONE',  ( 1.000000000000000000, 0.000000000000000000, 0.000000000000000000 ) ) ;
#248 = DIRECTION ( 'NONE',  ( 0.000000000000000000, 0.000000000000000000, -1.000000000000000000 ) ) ;
#249 = EDGE_CURVE ( 'NONE', #238, #361, #291, .T. ) ;
#250 = AXIS2_PLACEMENT_3D ( 'NONE', #194, #248, #167 ) ;
#251 = FACE_OUTER_BOUND ( 'NONE', #97, .T. ) ;
#252 = CC_DESIGN_PERSON_AND_ORGANIZATION_ASSIGNMENT ( #1, #211, ( #195 ) ) ;
#253 = CARTESIAN_POINT ( 'NONE',  ( 0.000000000000000000, 0.000000000000000000, 3.000000000000000000 ) ) ;
#254 = DIRECTION ( 'NONE',  ( 0.000000000000000000, 0.000000000000000000, 1.000000000000000000 ) ) ;
#255 = ADVANCED_BREP_SHAPE_REPRESENTATION ( 'f120', ( #132, #6 ), #137 ) ;
#256 = CARTESIAN_POINT ( 'NONE',  ( 0.000000000000000000, 0.000000000000000000, 0.000000000000000000 ) ) ;
#257 = ORIENTED_EDGE ( 'NONE', *, *, #284, .T. ) ;
#258 = VECTOR ( 'NONE', #312, 1000.000000000000000 ) ;
#259 = CARTESIAN_POINT ( 'NONE',  ( 1.100000000000000089, 1.347111479062088503E-16, 153.0000000000000000 ) ) ;
#260 = VERTEX_POINT ( 'NONE', #114 ) ;
#261 = CYLINDRICAL_SURFACE ( 'NONE', #236, 2.000000000000000000 ) ;
#262 = ORIENTED_EDGE ( 'NONE', *, *, #25, .F. ) ;
#263 = DIRECTION ( 'NONE',  ( -0.000000000000000000, -0.000000000000000000, -1.000000000000000000 ) ) ;
#264 = LOCAL_TIME ( 17, 50, 37.00000000000000000, #100 ) ;
#265 = PERSON_AND_ORGANIZATION ( #321, #302 ) ;
#266 = EDGE_LOOP ( 'NONE', ( #128, #262, #2, #146 ) ) ;
#267 = PERSON_AND_ORGANIZATION ( #321, #302 ) ;
#268 = ORIENTED_EDGE ( 'NONE', *, *, #139, .F. ) ;
#269 = CC_DESIGN_DATE_AND_TIME_ASSIGNMENT ( #351, #68, ( #82 ) ) ;
#270 =( LENGTH_UNIT ( ) NAMED_UNIT ( * ) SI_UNIT ( .MILLI., .METRE. ) );
#271 = ORIENTED_EDGE ( 'NONE', *, *, #143, .F. ) ;
#272 = AXIS2_PLACEMENT_3D ( 'NONE', #343, #88, #84 ) ;
#273 = ORIENTED_EDGE ( 'NONE', *, *, #375, .F. ) ;
#274 = DIRECTION ( 'NONE',  ( 0.000000000000000000, 0.000000000000000000, 1.000000000000000000 ) ) ;
#275 = ORIENTED_EDGE ( 'NONE', *, *, #213, .F. ) ;
#276 = CALENDAR_DATE ( 2022, 8, 7 ) ;
#277 = CARTESIAN_POINT ( 'NONE',  ( -2.000000000000000000, 0.000000000000000000, 3.299999999999997158 ) ) ;
#278 = CIRCLE ( 'NONE', #205, 1.100000000000000089 ) ;
#279 = CARTESIAN_POINT ( 'NONE',  ( -4.000000000000000000, 0.000000000000000000, 0.000000000000000000 ) ) ;
#280 = UNCERTAINTY_MEASURE_WITH_UNIT (LENGTH_MEASURE( 1.000000000000000082E-05 ), #270, 'distance_accuracy_value', 'NONE');
#281 = EDGE_CURVE ( 'NONE', #71, #31, #378, .T. ) ;
#282 = APPROVAL_STATUS ( 'not_yet_approved' ) ;
#283 = DIRECTION ( 'NONE',  ( -0.000000000000000000, -0.000000000000000000, -1.000000000000000000 ) ) ;
#284 = EDGE_CURVE ( 'NONE', #292, #71, #150, .T. ) ;
#285 = CARTESIAN_POINT ( 'NONE',  ( 1.100000000000000089, 1.347111479062088503E-16, 0.000000000000000000 ) ) ;
#286 = FACE_OUTER_BOUND ( 'NONE', #156, .T. ) ;
#287 = APPROVAL_PERSON_ORGANIZATION ( #39, #9, #36 ) ;
#288 = CARTESIAN_POINT ( 'NONE',  ( 2.299999999999999822, 0.000000000000000000, 3.299999999999997158 ) ) ;
#289 = DIRECTION ( 'NONE',  ( -0.000000000000000000, -0.000000000000000000, -1.000000000000000000 ) ) ;
#290 = EDGE_CURVE ( 'NONE', #216, #8, #86, .T. ) ;
#291 = LINE ( 'NONE', #232, #80 ) ;
#292 = VERTEX_POINT ( 'NONE', #89 ) ;
#293 = CARTESIAN_POINT ( 'NONE',  ( -1.100000000000000089, 0.000000000000000000, 153.0000000000000000 ) ) ;
#294 = CC_DESIGN_PERSON_AND_ORGANIZATION_ASSIGNMENT ( #243, #357, ( #219 ) ) ;
#295 = EDGE_LOOP ( 'NONE', ( #99, #178, #181, #44 ) ) ;
#296 = EDGE_CURVE ( 'NONE', #31, #260, #245, .T. ) ;
#297 = ORIENTED_EDGE ( 'NONE', *, *, #4, .T. ) ;
#298 = PERSON_AND_ORGANIZATION_ROLE ( 'creator' ) ;
#299 = EDGE_LOOP ( 'NONE', ( #300, #66 ) ) ;
#300 = ORIENTED_EDGE ( 'NONE', *, *, #4, .F. ) ;
#301 = DIRECTION ( 'NONE',  ( 1.000000000000000000, 0.000000000000000000, 0.000000000000000000 ) ) ;
#302 = ORGANIZATION ( 'NEURÈENÝ', 'NEURÈENÝ', '' ) ;
#303 = DIRECTION ( 'NONE',  ( 1.000000000000000000, 0.000000000000000000, 0.000000000000000000 ) ) ;
#304 = COORDINATED_UNIVERSAL_TIME_OFFSET ( 1, 0, .AHEAD. ) ;
#305 = DIRECTION ( 'NONE',  ( 1.000000000000000000, 0.000000000000000000, 0.000000000000000000 ) ) ;
#306 = DIRECTION ( 'NONE',  ( 0.000000000000000000, 0.000000000000000000, 1.000000000000000000 ) ) ;
#307 = CARTESIAN_POINT ( 'NONE',  ( 0.000000000000000000, 0.000000000000000000, 153.0000000000000000 ) ) ;
#308 = CALENDAR_DATE ( 2022, 8, 7 ) ;
#309 = FACE_OUTER_BOUND ( 'NONE', #266, .T. ) ;
#310 = LINE ( 'NONE', #192, #354 ) ;
#311 = CARTESIAN_POINT ( 'NONE',  ( 2.000000000000000000, 2.449293598294706414E-16, 3.299999999999997158 ) ) ;
#312 = DIRECTION ( 'NONE',  ( 0.000000000000000000, 0.000000000000000000, -1.000000000000000000 ) ) ;
#313 = APPROVAL ( #282, 'NEURÈENÝ' ) ;
#314 = DIRECTION ( 'NONE',  ( 1.224646799147353207E-16, 1.000000000000000000, -0.000000000000000000 ) ) ;
#315 = ORIENTED_EDGE ( 'NONE', *, *, #201, .T. ) ;
#316 = EDGE_CURVE ( 'NONE', #218, #115, #108, .T. ) ;
#317 = DIRECTION ( 'NONE',  ( 1.000000000000000000, 0.000000000000000000, 0.000000000000000000 ) ) ;
#318 = CC_DESIGN_PERSON_AND_ORGANIZATION_ASSIGNMENT ( #153, #127, ( #195 ) ) ;
#319 = DIRECTION ( 'NONE',  ( 1.000000000000000000, 0.000000000000000000, 0.000000000000000000 ) ) ;
#320 = COORDINATED_UNIVERSAL_TIME_OFFSET ( 1, 0, .AHEAD. ) ;
#321 = PERSON ( 'NEURÈENÝ', 'NEURÈENÝ', 'NEURÈENÝ', ('NEURÈENÝ'), ('NEURÈENÝ'), ('NEURÈENÝ') ) ;
#322 = ORIENTED_EDGE ( 'NONE', *, *, #356, .F. ) ;
#323 = COORDINATED_UNIVERSAL_TIME_OFFSET ( 1, 0, .AHEAD. ) ;
#324 = ORIENTED_EDGE ( 'NONE', *, *, #281, .F. ) ;
#325 = EDGE_LOOP ( 'NONE', ( #10, #359 ) ) ;
#326 = ADVANCED_FACE ( 'NONE', ( #173 ), #348, .F. ) ;
#327 = ORIENTED_EDGE ( 'NONE', *, *, #22, .T. ) ;
#328 = CC_DESIGN_DATE_AND_TIME_ASSIGNMENT ( #133, #221, ( #219 ) ) ;
#329 = CC_DESIGN_APPROVAL ( #152, ( #82 ) ) ;
#330 = APPLICATION_CONTEXT ( 'configuration controlled 3d designs of mechanical parts and assemblies' ) ;
#331 = CARTESIAN_POINT ( 'NONE',  ( 0.000000000000000000, 0.000000000000000000, 153.0000000000000000 ) ) ;
#332 = CYLINDRICAL_SURFACE ( 'NONE', #63, 1.100000000000000089 ) ;
#333 = PERSON_AND_ORGANIZATION ( #321, #302 ) ;
#334 = FACE_OUTER_BOUND ( 'NONE', #124, .T. ) ;
#335 = CC_DESIGN_PERSON_AND_ORGANIZATION_ASSIGNMENT ( #267, #185, ( #364 ) ) ;
#336 = AXIS2_PLACEMENT_3D ( 'NONE', #177, #376, #230 ) ;
#337 = CARTESIAN_POINT ( 'NONE',  ( 0.000000000000000000, 0.000000000000000000, 0.000000000000000000 ) ) ;
#338 = DIRECTION ( 'NONE',  ( -0.000000000000000000, -0.000000000000000000, -1.000000000000000000 ) ) ;
#339 = FACE_OUTER_BOUND ( 'NONE', #203, .T. ) ;
#340 = CARTESIAN_POINT ( 'NONE',  ( 0.000000000000000000, 0.000000000000000000, 153.0000000000000000 ) ) ;
#341 = AXIS2_PLACEMENT_3D ( 'NONE', #200, #28, #60 ) ;
#342 = APPROVAL_PERSON_ORGANIZATION ( #333, #313, #193 ) ;
#343 = CARTESIAN_POINT ( 'NONE',  ( 0.000000000000000000, 0.000000000000000000, 3.000000000000000000 ) ) ;
#344 = PRODUCT_DEFINITION_SHAPE ( 'NONE', 'NONE',  #82 ) ;
#345 = EDGE_CURVE ( 'NONE', #154, #361, #27, .T. ) ;
#346 = FACE_OUTER_BOUND ( 'NONE', #72, .T. ) ;
#347 = DIRECTION ( 'NONE',  ( 0.000000000000000000, -1.000000000000000000, 0.000000000000000000 ) ) ;
#348 = TOROIDAL_SURFACE ( 'NONE', #341, 2.299999999999999822, 0.2999999999999999889 ) ;
#349 = ADVANCED_FACE ( 'NONE', ( #346 ), #261, .T. ) ;
#350 =( NAMED_UNIT ( * ) SI_UNIT ( $, .STERADIAN. ) SOLID_ANGLE_UNIT ( ) );
#351 = DATE_AND_TIME ( #43, #75 ) ;
#352 = ORIENTED_EDGE ( 'NONE', *, *, #345, .F. ) ;
#353 = EDGE_LOOP ( 'NONE', ( #74, #244 ) ) ;
#354 = VECTOR ( 'NONE', #283, 1000.000000000000000 ) ;
#355 = VERTEX_POINT ( 'NONE', #293 ) ;
#356 = EDGE_CURVE ( 'NONE', #238, #242, #85, .T. ) ;
#357 = PERSON_AND_ORGANIZATION_ROLE ( 'classification_officer' ) ;
#358 = APPLICATION_CONTEXT ( 'configuration controlled 3d designs of mechanical parts and assemblies' ) ;
#359 = ORIENTED_EDGE ( 'NONE', *, *, #226, .T. ) ;
#360 = AXIS2_PLACEMENT_3D ( 'NONE', #191, #56, #365 ) ;
#361 = VERTEX_POINT ( 'NONE', #73 ) ;
#362 = AXIS2_PLACEMENT_3D ( 'NONE', #340, #144, #317 ) ;
#363 = CARTESIAN_POINT ( 'NONE',  ( 0.000000000000000000, 0.000000000000000000, 153.0000000000000000 ) ) ;
#364 = PRODUCT ( 'f120', 'f120', '', ( #120 ) ) ;
#365 = DIRECTION ( 'NONE',  ( 1.000000000000000000, 0.000000000000000000, 0.000000000000000000 ) ) ;
#366 = DIRECTION ( 'NONE',  ( 0.000000000000000000, 0.000000000000000000, 1.000000000000000000 ) ) ;
#367 = AXIS2_PLACEMENT_3D ( 'NONE', #59, #263, #319 ) ;
#368 = PLANE ( 'NONE',  #229 ) ;
#369 = FACE_OUTER_BOUND ( 'NONE', #163, .T. ) ;
#370 = CARTESIAN_POINT ( 'NONE',  ( -4.000000000000000000, 0.000000000000000000, 3.000000000000000000 ) ) ;
#371 = CARTESIAN_POINT ( 'NONE',  ( 4.000000000000000000, 4.898587196589412829E-16, 3.000000000000000000 ) ) ;
#372 = AXIS2_PLACEMENT_3D ( 'NONE', #374, #314, #228 ) ;
#373 = ORIENTED_EDGE ( 'NONE', *, *, #175, .F. ) ;
#374 = CARTESIAN_POINT ( 'NONE',  ( -2.299999999999999822, 2.816687638038912056E-16, 3.299999999999997158 ) ) ;
#375 = EDGE_CURVE ( 'NONE', #31, #218, #199, .T. ) ;
#376 = DIRECTION ( 'NONE',  ( -0.000000000000000000, -0.000000000000000000, -1.000000000000000000 ) ) ;
#377 = CIRCLE ( 'NONE', #67, 2.000000000000000000 ) ;
#378 = LINE ( 'NONE', #23, #19 ) ;
#379 = CC_DESIGN_APPROVAL ( #9, ( #195 ) ) ;
#380 = DATE_AND_TIME ( #162, #142 ) ;
#381 = ORIENTED_EDGE ( 'NONE', *, *, #249, .F. ) ;
ENDSEC;
END-ISO-10303-21;
