ISO-10303-21;
HEADER;
FILE_DESCRIPTION (( 'STEP AP203' ),
    '1' );
FILE_NAME ('b9db.STEP',
    '2022-07-08T14:41:06',
    ( '' ),
    ( '' ),
    'SwSTEP 2.0',
    'SolidWorks 2019',
    '' );
FILE_SCHEMA (( 'CONFIG_CONTROL_DESIGN' ));
ENDSEC;

DATA;
#1 = AXIS2_PLACEMENT_3D ( 'NONE', #8, #120, #82 ) ;
#2 = CIRCLE ( 'NONE', #9, 6.000000000000000888 ) ;
#3 = CARTESIAN_POINT ( 'NONE',  ( 0.000000000000000000, 0.000000000000000000, 7.499999999999951150 ) ) ;
#4 = FACE_OUTER_BOUND ( 'NONE', #132, .T. ) ;
#5 = EDGE_CURVE ( 'NONE', #130, #372, #107, .T. ) ;
#6 = CARTESIAN_POINT ( 'NONE',  ( 0.000000000000000000, 0.000000000000000000, 0.000000000000000000 ) ) ;
#7 = COORDINATED_UNIVERSAL_TIME_OFFSET ( 1, 0, .AHEAD. ) ;
#8 = CARTESIAN_POINT ( 'NONE',  ( 0.000000000000000000, 0.000000000000000000, 557.0000000000000000 ) ) ;
#9 = AXIS2_PLACEMENT_3D ( 'NONE', #274, #209, #298 ) ;
#10 = APPROVAL_ROLE ( '' ) ;
#11 = CARTESIAN_POINT ( 'NONE',  ( 0.000000000000000000, 0.000000000000000000, 7.000000000000000000 ) ) ;
#12 = PERSON_AND_ORGANIZATION ( #141, #248 ) ;
#13 = DATE_AND_TIME ( #65, #101 ) ;
#14 = ORIENTED_EDGE ( 'NONE', *, *, #351, .F. ) ;
#15 =( LENGTH_UNIT ( ) NAMED_UNIT ( * ) SI_UNIT ( .MILLI., .METRE. ) );
#16 = EDGE_LOOP ( 'NONE', ( #369, #220, #37, #336 ) ) ;
#17 = LOCAL_TIME ( 16, 41, 6.000000000000000000, #116 ) ;
#18 = ORIENTED_EDGE ( 'NONE', *, *, #306, .F. ) ;
#19 = DIRECTION ( 'NONE',  ( 1.000000000000000000, 0.000000000000000000, 0.000000000000000000 ) ) ;
#20 = ORIENTED_EDGE ( 'NONE', *, *, #374, .F. ) ;
#21 = VERTEX_POINT ( 'NONE', #76 ) ;
#22 = CARTESIAN_POINT ( 'NONE',  ( 3.250000000000000444, 3.980102097228898231E-16, 0.000000000000000000 ) ) ;
#23 = CARTESIAN_POINT ( 'NONE',  ( -6.500000000000000888, 7.960204194457796463E-16, 6.999999999999975131 ) ) ;
#24 = ADVANCED_FACE ( 'NONE', ( #343 ), #103, .T. ) ;
#25 = CYLINDRICAL_SURFACE ( 'NONE', #94, 10.00000000000000000 ) ;
#26 = VECTOR ( 'NONE', #275, 1000.000000000000000 ) ;
#27 = CARTESIAN_POINT ( 'NONE',  ( -3.250000000000000444, 0.000000000000000000, 557.0000000000000000 ) ) ;
#28 = CARTESIAN_POINT ( 'NONE',  ( 10.00000000000000000, 1.224646799147353256E-15, 7.000000000000000000 ) ) ;
#29 = FACE_OUTER_BOUND ( 'NONE', #61, .T. ) ;
#30 = FACE_OUTER_BOUND ( 'NONE', #285, .T. ) ;
#31 = LINE ( 'NONE', #321, #297 ) ;
#32 = ADVANCED_FACE ( 'NONE', ( #320 ), #25, .T. ) ;
#33 = LINE ( 'NONE', #55, #309 ) ;
#34 = LOCAL_TIME ( 16, 41, 6.000000000000000000, #359 ) ;
#35 = DATE_TIME_ROLE ( 'creation_date' ) ;
#36 = CYLINDRICAL_SURFACE ( 'NONE', #205, 6.000000000000000888 ) ;
#37 = ORIENTED_EDGE ( 'NONE', *, *, #351, .T. ) ;
#38 = DIRECTION ( 'NONE',  ( -1.000000000000000000, 0.000000000000000000, 0.000000000000000000 ) ) ;
#39 = EDGE_LOOP ( 'NONE', ( #338, #378 ) ) ;
#40 = ORIENTED_EDGE ( 'NONE', *, *, #323, .F. ) ;
#41 = ORIENTED_EDGE ( 'NONE', *, *, #244, .T. ) ;
#42 = CC_DESIGN_PERSON_AND_ORGANIZATION_ASSIGNMENT ( #216, #187, ( #251 ) ) ;
#43 = ORIENTED_EDGE ( 'NONE', *, *, #95, .F. ) ;
#44 = DIRECTION ( 'NONE',  ( 1.000000000000000000, 0.000000000000000000, 0.000000000000000000 ) ) ;
#45 = CIRCLE ( 'NONE', #240, 0.5000000000000004441 ) ;
#46 = VECTOR ( 'NONE', #122, 1000.000000000000000 ) ;
#47 = CARTESIAN_POINT ( 'NONE',  ( 0.000000000000000000, 0.000000000000000000, 7.000000000000000000 ) ) ;
#48 = CC_DESIGN_PERSON_AND_ORGANIZATION_ASSIGNMENT ( #278, #58, ( #223 ) ) ;
#49 = PLANE ( 'NONE',  #363 ) ;
#50 = CARTESIAN_POINT ( 'NONE',  ( 0.000000000000000000, 0.000000000000000000, 557.0000000000000000 ) ) ;
#51 = AXIS2_PLACEMENT_3D ( 'NONE', #144, #268, #272 ) ;
#52 = DIRECTION ( 'NONE',  ( -1.000000000000000000, 0.000000000000000000, 0.000000000000000000 ) ) ;
#53 = DIRECTION ( 'NONE',  ( 0.000000000000000000, 0.000000000000000000, 1.000000000000000000 ) ) ;
#54 = PERSON_AND_ORGANIZATION_ROLE ( 'classification_officer' ) ;
#55 = CARTESIAN_POINT ( 'NONE',  ( -10.00000000000000000, 0.000000000000000000, 7.000000000000000000 ) ) ;
#56 = AXIS2_PLACEMENT_3D ( 'NONE', #135, #260, #375 ) ;
#57 = CYLINDRICAL_SURFACE ( 'NONE', #85, 3.250000000000000444 ) ;
#58 = PERSON_AND_ORGANIZATION_ROLE ( 'design_supplier' ) ;
#59 = APPROVAL_STATUS ( 'not_yet_approved' ) ;
#60 = CARTESIAN_POINT ( 'NONE',  ( -3.250000000000000444, 0.000000000000000000, 557.0000000000000000 ) ) ;
#61 = EDGE_LOOP ( 'NONE', ( #193, #249, #43, #14 ) ) ;
#62 = DATE_TIME_ROLE ( 'classification_date' ) ;
#63 = PERSON_AND_ORGANIZATION_ROLE ( 'design_owner' ) ;
#64 = VERTEX_POINT ( 'NONE', #289 ) ;
#65 = CALENDAR_DATE ( 2022, 8, 7 ) ;
#66 = ORIENTED_EDGE ( 'NONE', *, *, #206, .T. ) ;
#67 = MECHANICAL_CONTEXT ( 'NONE', #174, 'mechanical' ) ;
#68 = VERTEX_POINT ( 'NONE', #22 ) ;
#69 = APPROVAL_ROLE ( '' ) ;
#70 = ORIENTED_EDGE ( 'NONE', *, *, #203, .T. ) ;
#71 = CIRCLE ( 'NONE', #91, 3.250000000000000444 ) ;
#72 = ORIENTED_EDGE ( 'NONE', *, *, #186, .T. ) ;
#73 = PLANE ( 'NONE',  #253 ) ;
#74 = FACE_OUTER_BOUND ( 'NONE', #312, .T. ) ;
#75 = CC_DESIGN_APPROVAL ( #108, ( #251 ) ) ;
#76 = CARTESIAN_POINT ( 'NONE',  ( -3.250000000000000444, 0.000000000000000000, 0.000000000000000000 ) ) ;
#77 = DIRECTION ( 'NONE',  ( -1.000000000000000000, 0.000000000000000000, 0.000000000000000000 ) ) ;
#78 = CIRCLE ( 'NONE', #314, 6.000000000000000888 ) ;
#79 = DIRECTION ( 'NONE',  ( 1.000000000000000000, 0.000000000000000000, 0.000000000000000000 ) ) ;
#80 = CARTESIAN_POINT ( 'NONE',  ( 0.000000000000000000, 0.000000000000000000, 0.000000000000000000 ) ) ;
#81 = AXIS2_PLACEMENT_3D ( 'NONE', #105, #227, #140 ) ;
#82 = DIRECTION ( 'NONE',  ( 1.000000000000000000, 0.000000000000000000, 0.000000000000000000 ) ) ;
#83 = PERSON_AND_ORGANIZATION ( #141, #248 ) ;
#84 = CIRCLE ( 'NONE', #137, 6.500000000000000888 ) ;
#85 = AXIS2_PLACEMENT_3D ( 'NONE', #117, #180, #237 ) ;
#86 = PLANE ( 'NONE',  #162 ) ;
#87 = CALENDAR_DATE ( 2022, 8, 7 ) ;
#88 = DIRECTION ( 'NONE',  ( -0.000000000000000000, -0.000000000000000000, -1.000000000000000000 ) ) ;
#89 = PRODUCT_RELATED_PRODUCT_CATEGORY ( 'detail', '', ( #179 ) ) ;
#90 = APPROVAL_DATE_TIME ( #13, #108 ) ;
#91 = AXIS2_PLACEMENT_3D ( 'NONE', #80, #324, #172 ) ;
#92 = VERTEX_POINT ( 'NONE', #23 ) ;
#93 = ORIENTED_EDGE ( 'NONE', *, *, #306, .T. ) ;
#94 = AXIS2_PLACEMENT_3D ( 'NONE', #47, #167, #77 ) ;
#95 = EDGE_CURVE ( 'NONE', #125, #92, #155, .T. ) ;
#96 = DIRECTION ( 'NONE',  ( -0.000000000000000000, -0.000000000000000000, -1.000000000000000000 ) ) ;
#97 = ORIENTED_EDGE ( 'NONE', *, *, #323, .T. ) ;
#98 = APPROVAL ( #173, 'NEURÈENÝ' ) ;
#99 = VERTEX_POINT ( 'NONE', #27 ) ;
#100 = ADVANCED_FACE ( 'NONE', ( #257 ), #202, .T. ) ;
#101 = LOCAL_TIME ( 16, 41, 6.000000000000000000, #279 ) ;
#102 = EDGE_LOOP ( 'NONE', ( #217, #287, #41, #20 ) ) ;
#103 = CYLINDRICAL_SURFACE ( 'NONE', #328, 6.000000000000000888 ) ;
#104 = DIRECTION ( 'NONE',  ( 1.000000000000000000, 0.000000000000000000, 0.000000000000000000 ) ) ;
#105 = CARTESIAN_POINT ( 'NONE',  ( 0.000000000000000000, 0.000000000000000000, 557.0000000000000000 ) ) ;
#106 = EDGE_LOOP ( 'NONE', ( #264, #333 ) ) ;
#107 = CIRCLE ( 'NONE', #280, 10.00000000000000000 ) ;
#108 = APPROVAL ( #153, 'NEURÈENÝ' ) ;
#109 = DIRECTION ( 'NONE',  ( -0.000000000000000000, -0.000000000000000000, -1.000000000000000000 ) ) ;
#110 = DIRECTION ( 'NONE',  ( 0.000000000000000000, 0.000000000000000000, 1.000000000000000000 ) ) ;
#111 = EDGE_CURVE ( 'NONE', #130, #281, #313, .T. ) ;
#112 = CARTESIAN_POINT ( 'NONE',  ( -6.500000000000000888, 7.960204194457796463E-16, 7.499999999999951150 ) ) ;
#113 = EDGE_CURVE ( 'NONE', #161, #282, #201, .T. ) ;
#114 = UNCERTAINTY_MEASURE_WITH_UNIT (LENGTH_MEASURE( 1.000000000000000082E-05 ), #15, 'distance_accuracy_value', 'NONE');
#115 = CYLINDRICAL_SURFACE ( 'NONE', #168, 3.250000000000000444 ) ;
#116 = COORDINATED_UNIVERSAL_TIME_OFFSET ( 1, 0, .AHEAD. ) ;
#117 = CARTESIAN_POINT ( 'NONE',  ( 0.000000000000000000, 0.000000000000000000, 557.0000000000000000 ) ) ;
#118 = AXIS2_PLACEMENT_3D ( 'NONE', #11, #208, #234 ) ;
#119 = ADVANCED_FACE ( 'NONE', ( #200 ), #219, .F. ) ;
#120 = DIRECTION ( 'NONE',  ( 0.000000000000000000, 0.000000000000000000, 1.000000000000000000 ) ) ;
#121 = PERSON_AND_ORGANIZATION ( #141, #248 ) ;
#122 = DIRECTION ( 'NONE',  ( -0.000000000000000000, -0.000000000000000000, -1.000000000000000000 ) ) ;
#123 = EDGE_CURVE ( 'NONE', #21, #68, #311, .T. ) ;
#124 = CARTESIAN_POINT ( 'NONE',  ( -6.000000000000000888, 0.000000000000000000, 557.0000000000000000 ) ) ;
#125 = VERTEX_POINT ( 'NONE', #349 ) ;
#126 = CARTESIAN_POINT ( 'NONE',  ( -10.00000000000000000, 0.000000000000000000, 7.000000000000000000 ) ) ;
#127 = LOCAL_TIME ( 16, 41, 6.000000000000000000, #7 ) ;
#128 = ORIENTED_EDGE ( 'NONE', *, *, #332, .T. ) ;
#129 = FACE_OUTER_BOUND ( 'NONE', #102, .T. ) ;
#130 = VERTEX_POINT ( 'NONE', #28 ) ;
#131 = ORIENTED_EDGE ( 'NONE', *, *, #233, .T. ) ;
#132 = EDGE_LOOP ( 'NONE', ( #222, #204, #93, #255 ) ) ;
#133 = APPROVAL_PERSON_ORGANIZATION ( #303, #108, #69 ) ;
#134 = DIRECTION ( 'NONE',  ( 1.000000000000000000, 0.000000000000000000, 0.000000000000000000 ) ) ;
#135 = CARTESIAN_POINT ( 'NONE',  ( 0.000000000000000000, 0.000000000000000000, 557.0000000000000000 ) ) ;
#136 = DIRECTION ( 'NONE',  ( -0.000000000000000000, -0.000000000000000000, -1.000000000000000000 ) ) ;
#137 = AXIS2_PLACEMENT_3D ( 'NONE', #358, #88, #181 ) ;
#138 = DIRECTION ( 'NONE',  ( 0.000000000000000000, 0.000000000000000000, 1.000000000000000000 ) ) ;
#139 = AXIS2_PLACEMENT_3D ( 'NONE', #262, #136, #104 ) ;
#140 = DIRECTION ( 'NONE',  ( 1.000000000000000000, 0.000000000000000000, 0.000000000000000000 ) ) ;
#141 = PERSON ( 'NEURÈENÝ', 'NEURÈENÝ', 'NEURÈENÝ', ('NEURÈENÝ'), ('NEURÈENÝ'), ('NEURÈENÝ') ) ;
#142 = CIRCLE ( 'NONE', #51, 3.250000000000000444 ) ;
#143 = DATE_AND_TIME ( #87, #17 ) ;
#144 = CARTESIAN_POINT ( 'NONE',  ( 0.000000000000000000, 0.000000000000000000, 557.0000000000000000 ) ) ;
#145 = SECURITY_CLASSIFICATION_LEVEL ( 'unclassified' ) ;
#146 = DIRECTION ( 'NONE',  ( 0.000000000000000000, 0.000000000000000000, -1.000000000000000000 ) ) ;
#147 = AXIS2_PLACEMENT_3D ( 'NONE', #316, #138, #44 ) ;
#148 = CARTESIAN_POINT ( 'NONE',  ( 6.000000000000000888, 7.347880794884120722E-16, 557.0000000000000000 ) ) ;
#149 = APPROVAL_PERSON_ORGANIZATION ( #83, #294, #10 ) ;
#150 = DIRECTION ( 'NONE',  ( -0.000000000000000000, -0.000000000000000000, -1.000000000000000000 ) ) ;
#151 = EDGE_LOOP ( 'NONE', ( #195, #66 ) ) ;
#152 = PERSON_AND_ORGANIZATION_ROLE ( 'creator' ) ;
#153 = APPROVAL_STATUS ( 'not_yet_approved' ) ;
#154 = ORIENTED_EDGE ( 'NONE', *, *, #291, .T. ) ;
#155 = CIRCLE ( 'NONE', #380, 6.500000000000000888 ) ;
#156 = ORIENTED_EDGE ( 'NONE', *, *, #111, .F. ) ;
#157 = CARTESIAN_POINT ( 'NONE',  ( 0.000000000000000000, 0.000000000000000000, 557.0000000000000000 ) ) ;
#158 = CIRCLE ( 'NONE', #276, 10.00000000000000000 ) ;
#159 = ORIENTED_EDGE ( 'NONE', *, *, #123, .F. ) ;
#160 = VERTEX_POINT ( 'NONE', #163 ) ;
#161 = VERTEX_POINT ( 'NONE', #267 ) ;
#162 = AXIS2_PLACEMENT_3D ( 'NONE', #6, #352, #239 ) ;
#163 = CARTESIAN_POINT ( 'NONE',  ( -6.000000000000000888, 0.000000000000000000, 7.499999999999951150 ) ) ;
#164 = DIRECTION ( 'NONE',  ( 1.000000000000000000, 0.000000000000000000, -0.000000000000000000 ) ) ;
#165 = ADVANCED_FACE ( 'NONE', ( #265, #74 ), #49, .T. ) ;
#166 = FACE_BOUND ( 'NONE', #247, .T. ) ;
#167 = DIRECTION ( 'NONE',  ( -0.000000000000000000, -0.000000000000000000, -1.000000000000000000 ) ) ;
#168 = AXIS2_PLACEMENT_3D ( 'NONE', #245, #192, #38 ) ;
#169 = CC_DESIGN_DATE_AND_TIME_ASSIGNMENT ( #356, #62, ( #183 ) ) ;
#170 = ADVANCED_FACE ( 'NONE', ( #377, #342 ), #73, .T. ) ;
#171 = CARTESIAN_POINT ( 'NONE',  ( 10.00000000000000000, 1.224646799147353256E-15, 7.000000000000000000 ) ) ;
#172 = DIRECTION ( 'NONE',  ( 1.000000000000000000, 0.000000000000000000, 0.000000000000000000 ) ) ;
#173 = APPROVAL_STATUS ( 'not_yet_approved' ) ;
#174 = APPLICATION_CONTEXT ( 'configuration controlled 3d designs of mechanical parts and assemblies' ) ;
#175 = CARTESIAN_POINT ( 'NONE',  ( 0.000000000000000000, 0.000000000000000000, 0.000000000000000000 ) ) ;
#176 =( GEOMETRIC_REPRESENTATION_CONTEXT ( 3 ) GLOBAL_UNCERTAINTY_ASSIGNED_CONTEXT ( ( #114 ) ) GLOBAL_UNIT_ASSIGNED_CONTEXT ( ( #15, #189, #218 ) ) REPRESENTATION_CONTEXT ( 'NONE', 'WORKASPACE' ) );
#177 = DATE_AND_TIME ( #238, #34 ) ;
#178 = DIRECTION ( 'NONE',  ( 0.000000000000000000, 0.000000000000000000, 1.000000000000000000 ) ) ;
#179 = PRODUCT ( 'b9db', 'b9db', '', ( #67 ) ) ;
#180 = DIRECTION ( 'NONE',  ( 0.000000000000000000, 0.000000000000000000, -1.000000000000000000 ) ) ;
#181 = DIRECTION ( 'NONE',  ( 1.000000000000000000, 0.000000000000000000, 0.000000000000000000 ) ) ;
#182 = ORIENTED_EDGE ( 'NONE', *, *, #236, .F. ) ;
#183 = SECURITY_CLASSIFICATION ( '', '', #145 ) ;
#184 = APPLICATION_PROTOCOL_DEFINITION ( 'international standard', 'config_control_design', 1994, #271 ) ;
#185 = ORIENTED_EDGE ( 'NONE', *, *, #113, .F. ) ;
#186 = EDGE_CURVE ( 'NONE', #282, #161, #228, .T. ) ;
#187 = PERSON_AND_ORGANIZATION_ROLE ( 'creator' ) ;
#188 = VERTEX_POINT ( 'NONE', #229 ) ;
#189 =( NAMED_UNIT ( * ) PLANE_ANGLE_UNIT ( ) SI_UNIT ( $, .RADIAN. ) );
#190 = ORIENTED_EDGE ( 'NONE', *, *, #374, .T. ) ;
#191 = MANIFOLD_SOLID_BREP ( 'Odebrat vysunutím3', #335 ) ;
#192 = DIRECTION ( 'NONE',  ( 0.000000000000000000, 0.000000000000000000, -1.000000000000000000 ) ) ;
#193 = ORIENTED_EDGE ( 'NONE', *, *, #332, .F. ) ;
#194 = ADVANCED_FACE ( 'NONE', ( #166, #329 ), #86, .F. ) ;
#195 = ORIENTED_EDGE ( 'NONE', *, *, #95, .T. ) ;
#196 = CC_DESIGN_PERSON_AND_ORGANIZATION_ASSIGNMENT ( #121, #152, ( #223 ) ) ;
#197 = DIRECTION ( 'NONE',  ( 0.000000000000000000, 0.000000000000000000, 1.000000000000000000 ) ) ;
#198 = CARTESIAN_POINT ( 'NONE',  ( 0.000000000000000000, 0.000000000000000000, 7.000000000000000000 ) ) ;
#199 = AXIS2_PLACEMENT_3D ( 'NONE', #3, #235, #296 ) ;
#200 = FACE_OUTER_BOUND ( 'NONE', #16, .T. ) ;
#201 = CIRCLE ( 'NONE', #81, 6.000000000000000888 ) ;
#202 = CYLINDRICAL_SURFACE ( 'NONE', #317, 10.00000000000000000 ) ;
#203 = EDGE_CURVE ( 'NONE', #64, #99, #261, .T. ) ;
#204 = ORIENTED_EDGE ( 'NONE', *, *, #236, .T. ) ;
#205 = AXIS2_PLACEMENT_3D ( 'NONE', #157, #96, #221 ) ;
#206 = EDGE_CURVE ( 'NONE', #92, #125, #84, .T. ) ;
#207 = DIRECTION ( 'NONE',  ( 1.224646799147353207E-16, 1.000000000000000000, -0.000000000000000000 ) ) ;
#208 = DIRECTION ( 'NONE',  ( 0.000000000000000000, 0.000000000000000000, 1.000000000000000000 ) ) ;
#209 = DIRECTION ( 'NONE',  ( 0.000000000000000000, 0.000000000000000000, 1.000000000000000000 ) ) ;
#210 = APPROVAL_ROLE ( '' ) ;
#211 = CARTESIAN_POINT ( 'NONE',  ( 0.000000000000000000, 0.000000000000000000, 0.000000000000000000 ) ) ;
#212 = EDGE_CURVE ( 'NONE', #160, #92, #45, .T. ) ;
#213 = LINE ( 'NONE', #60, #241 ) ;
#214 = APPROVAL_DATE_TIME ( #177, #294 ) ;
#215 = CIRCLE ( 'NONE', #376, 0.5000000000000004441 ) ;
#216 = PERSON_AND_ORGANIZATION ( #141, #248 ) ;
#217 = ORIENTED_EDGE ( 'NONE', *, *, #186, .F. ) ;
#218 =( NAMED_UNIT ( * ) SI_UNIT ( $, .STERADIAN. ) SOLID_ANGLE_UNIT ( ) );
#219 = TOROIDAL_SURFACE ( 'NONE', #147, 6.500000000000000888, 0.5000000000000000000 ) ;
#220 = ORIENTED_EDGE ( 'NONE', *, *, #244, .F. ) ;
#221 = DIRECTION ( 'NONE',  ( -1.000000000000000000, 0.000000000000000000, 0.000000000000000000 ) ) ;
#222 = ORIENTED_EDGE ( 'NONE', *, *, #344, .T. ) ;
#223 = PRODUCT_DEFINITION_FORMATION_WITH_SPECIFIED_SOURCE ( 'LIBOVOLNÝ', '', #179, .NOT_KNOWN. ) ;
#224 = CC_DESIGN_PERSON_AND_ORGANIZATION_ASSIGNMENT ( #252, #63, ( #179 ) ) ;
#225 = EDGE_LOOP ( 'NONE', ( #341, #72 ) ) ;
#226 = ORIENTED_EDGE ( 'NONE', *, *, #291, .F. ) ;
#227 = DIRECTION ( 'NONE',  ( 0.000000000000000000, 0.000000000000000000, 1.000000000000000000 ) ) ;
#228 = CIRCLE ( 'NONE', #56, 6.000000000000000888 ) ;
#229 = CARTESIAN_POINT ( 'NONE',  ( -10.00000000000000000, 0.000000000000000000, 0.000000000000000000 ) ) ;
#230 = CC_DESIGN_APPROVAL ( #98, ( #183 ) ) ;
#231 = DIRECTION ( 'NONE',  ( -0.000000000000000000, -0.000000000000000000, -1.000000000000000000 ) ) ;
#232 = DIRECTION ( 'NONE',  ( -1.000000000000000000, 0.000000000000000000, 0.000000000000000000 ) ) ;
#233 = EDGE_CURVE ( 'NONE', #188, #281, #366, .T. ) ;
#234 = DIRECTION ( 'NONE',  ( 1.000000000000000000, 0.000000000000000000, 0.000000000000000000 ) ) ;
#235 = DIRECTION ( 'NONE',  ( 0.000000000000000000, 0.000000000000000000, 1.000000000000000000 ) ) ;
#236 = EDGE_CURVE ( 'NONE', #64, #68, #31, .T. ) ;
#237 = DIRECTION ( 'NONE',  ( -1.000000000000000000, 0.000000000000000000, 0.000000000000000000 ) ) ;
#238 = CALENDAR_DATE ( 2022, 8, 7 ) ;
#239 = DIRECTION ( 'NONE',  ( 1.000000000000000000, 0.000000000000000000, -0.000000000000000000 ) ) ;
#240 = AXIS2_PLACEMENT_3D ( 'NONE', #112, #207, #355 ) ;
#241 = VECTOR ( 'NONE', #300, 1000.000000000000000 ) ;
#242 = DATE_AND_TIME ( #330, #371 ) ;
#243 = CARTESIAN_POINT ( 'NONE',  ( 10.00000000000000000, 1.224646799147353256E-15, 0.000000000000000000 ) ) ;
#244 = EDGE_CURVE ( 'NONE', #307, #160, #2, .T. ) ;
#245 = CARTESIAN_POINT ( 'NONE',  ( 0.000000000000000000, 0.000000000000000000, 557.0000000000000000 ) ) ;
#246 = CARTESIAN_POINT ( 'NONE',  ( 6.500000000000000888, 0.000000000000000000, 7.499999999999951150 ) ) ;
#247 = EDGE_LOOP ( 'NONE', ( #159, #18 ) ) ;
#248 = ORGANIZATION ( 'NEURÈENÝ', 'NEURÈENÝ', '' ) ;
#249 = ORIENTED_EDGE ( 'NONE', *, *, #212, .T. ) ;
#250 = EDGE_LOOP ( 'NONE', ( #367, #185, #190, #128 ) ) ;
#251 = PRODUCT_DEFINITION ( 'NEZNÁMÝ', '', #223, #354 ) ;
#252 = PERSON_AND_ORGANIZATION ( #141, #248 ) ;
#253 = AXIS2_PLACEMENT_3D ( 'NONE', #315, #197, #290 ) ;
#254 = ORIENTED_EDGE ( 'NONE', *, *, #123, .T. ) ;
#255 = ORIENTED_EDGE ( 'NONE', *, *, #283, .F. ) ;
#256 = EDGE_CURVE ( 'NONE', #281, #188, #158, .T. ) ;
#257 = FACE_OUTER_BOUND ( 'NONE', #365, .T. ) ;
#258 = ADVANCED_FACE ( 'NONE', ( #30 ), #57, .F. ) ;
#259 = VECTOR ( 'NONE', #346, 1000.000000000000000 ) ;
#260 = DIRECTION ( 'NONE',  ( 0.000000000000000000, 0.000000000000000000, 1.000000000000000000 ) ) ;
#261 = CIRCLE ( 'NONE', #1, 3.250000000000000444 ) ;
#262 = CARTESIAN_POINT ( 'NONE',  ( 0.000000000000000000, 0.000000000000000000, 0.000000000000000000 ) ) ;
#263 = CC_DESIGN_SECURITY_CLASSIFICATION ( #183, ( #223 ) ) ;
#264 = ORIENTED_EDGE ( 'NONE', *, *, #344, .F. ) ;
#265 = FACE_BOUND ( 'NONE', #151, .T. ) ;
#266 = EDGE_CURVE ( 'NONE', #282, #307, #299, .T. ) ;
#267 = CARTESIAN_POINT ( 'NONE',  ( -6.000000000000000888, 0.000000000000000000, 557.0000000000000000 ) ) ;
#268 = DIRECTION ( 'NONE',  ( 0.000000000000000000, 0.000000000000000000, 1.000000000000000000 ) ) ;
#269 = TOROIDAL_SURFACE ( 'NONE', #199, 6.500000000000000888, 0.5000000000000000000 ) ;
#270 = APPROVAL_DATE_TIME ( #143, #98 ) ;
#271 = APPLICATION_CONTEXT ( 'configuration controlled 3d designs of mechanical parts and assemblies' ) ;
#272 = DIRECTION ( 'NONE',  ( 1.000000000000000000, 0.000000000000000000, 0.000000000000000000 ) ) ;
#273 = PERSON_AND_ORGANIZATION ( #141, #248 ) ;
#274 = CARTESIAN_POINT ( 'NONE',  ( 0.000000000000000000, 0.000000000000000000, 7.499999999999951150 ) ) ;
#275 = DIRECTION ( 'NONE',  ( -0.000000000000000000, -0.000000000000000000, -1.000000000000000000 ) ) ;
#276 = AXIS2_PLACEMENT_3D ( 'NONE', #175, #325, #295 ) ;
#277 = CARTESIAN_POINT ( 'NONE',  ( 6.000000000000000888, 7.347880794884120722E-16, 7.499999999999951150 ) ) ;
#278 = PERSON_AND_ORGANIZATION ( #141, #248 ) ;
#279 = COORDINATED_UNIVERSAL_TIME_OFFSET ( 1, 0, .AHEAD. ) ;
#280 = AXIS2_PLACEMENT_3D ( 'NONE', #379, #348, #381 ) ;
#281 = VERTEX_POINT ( 'NONE', #243 ) ;
#282 = VERTEX_POINT ( 'NONE', #361 ) ;
#283 = EDGE_CURVE ( 'NONE', #99, #21, #213, .T. ) ;
#284 = DIRECTION ( 'NONE',  ( 0.000000000000000000, 0.000000000000000000, -1.000000000000000000 ) ) ;
#285 = EDGE_LOOP ( 'NONE', ( #182, #70, #370, #254 ) ) ;
#286 = DIRECTION ( 'NONE',  ( 0.000000000000000000, -1.000000000000000000, 0.000000000000000000 ) ) ;
#287 = ORIENTED_EDGE ( 'NONE', *, *, #266, .T. ) ;
#288 = ORIENTED_EDGE ( 'NONE', *, *, #5, .F. ) ;
#289 = CARTESIAN_POINT ( 'NONE',  ( 3.250000000000000444, 3.980102097228898231E-16, 557.0000000000000000 ) ) ;
#290 = DIRECTION ( 'NONE',  ( 1.000000000000000000, 0.000000000000000000, -0.000000000000000000 ) ) ;
#291 = EDGE_CURVE ( 'NONE', #372, #188, #33, .T. ) ;
#292 = CIRCLE ( 'NONE', #118, 10.00000000000000000 ) ;
#293 = CARTESIAN_POINT ( 'NONE',  ( 0.000000000000000000, 0.000000000000000000, 7.000000000000000000 ) ) ;
#294 = APPROVAL ( #59, 'NEURÈENÝ' ) ;
#295 = DIRECTION ( 'NONE',  ( 1.000000000000000000, 0.000000000000000000, 0.000000000000000000 ) ) ;
#296 = DIRECTION ( 'NONE',  ( 1.000000000000000000, 0.000000000000000000, 0.000000000000000000 ) ) ;
#297 = VECTOR ( 'NONE', #146, 1000.000000000000000 ) ;
#298 = DIRECTION ( 'NONE',  ( 1.000000000000000000, 0.000000000000000000, 0.000000000000000000 ) ) ;
#299 = LINE ( 'NONE', #148, #26 ) ;
#300 = DIRECTION ( 'NONE',  ( 0.000000000000000000, 0.000000000000000000, -1.000000000000000000 ) ) ;
#301 = ORIENTED_EDGE ( 'NONE', *, *, #111, .T. ) ;
#302 = CC_DESIGN_APPROVAL ( #294, ( #223 ) ) ;
#303 = PERSON_AND_ORGANIZATION ( #141, #248 ) ;
#304 = ORIENTED_EDGE ( 'NONE', *, *, #256, .T. ) ;
#305 = COORDINATED_UNIVERSAL_TIME_OFFSET ( 1, 0, .AHEAD. ) ;
#306 = EDGE_CURVE ( 'NONE', #68, #21, #71, .T. ) ;
#307 = VERTEX_POINT ( 'NONE', #277 ) ;
#308 = ORIENTED_EDGE ( 'NONE', *, *, #5, .T. ) ;
#309 = VECTOR ( 'NONE', #150, 1000.000000000000000 ) ;
#310 = EDGE_LOOP ( 'NONE', ( #288, #301, #304, #226 ) ) ;
#311 = CIRCLE ( 'NONE', #139, 3.250000000000000444 ) ;
#312 = EDGE_LOOP ( 'NONE', ( #97, #308 ) ) ;
#313 = LINE ( 'NONE', #171, #259 ) ;
#314 = AXIS2_PLACEMENT_3D ( 'NONE', #350, #53, #79 ) ;
#315 = CARTESIAN_POINT ( 'NONE',  ( 0.000000000000000000, 0.000000000000000000, 557.0000000000000000 ) ) ;
#316 = CARTESIAN_POINT ( 'NONE',  ( 0.000000000000000000, 0.000000000000000000, 7.499999999999951150 ) ) ;
#317 = AXIS2_PLACEMENT_3D ( 'NONE', #318, #373, #52 ) ;
#318 = CARTESIAN_POINT ( 'NONE',  ( 0.000000000000000000, 0.000000000000000000, 7.000000000000000000 ) ) ;
#319 = AXIS2_PLACEMENT_3D ( 'NONE', #211, #178, #327 ) ;
#320 = FACE_OUTER_BOUND ( 'NONE', #310, .T. ) ;
#321 = CARTESIAN_POINT ( 'NONE',  ( 3.250000000000000444, 3.980102097228898231E-16, 557.0000000000000000 ) ) ;
#322 = CALENDAR_DATE ( 2022, 8, 7 ) ;
#323 = EDGE_CURVE ( 'NONE', #372, #130, #292, .T. ) ;
#324 = DIRECTION ( 'NONE',  ( -0.000000000000000000, -0.000000000000000000, -1.000000000000000000 ) ) ;
#325 = DIRECTION ( 'NONE',  ( 0.000000000000000000, 0.000000000000000000, 1.000000000000000000 ) ) ;
#326 = SHAPE_DEFINITION_REPRESENTATION ( #360, #353 ) ;
#327 = DIRECTION ( 'NONE',  ( 1.000000000000000000, 0.000000000000000000, 0.000000000000000000 ) ) ;
#328 = AXIS2_PLACEMENT_3D ( 'NONE', #50, #109, #232 ) ;
#329 = FACE_OUTER_BOUND ( 'NONE', #39, .T. ) ;
#330 = CALENDAR_DATE ( 2022, 8, 7 ) ;
#331 = DIRECTION ( 'NONE',  ( 0.000000000000000000, 0.000000000000000000, 1.000000000000000000 ) ) ;
#332 = EDGE_CURVE ( 'NONE', #160, #307, #78, .T. ) ;
#333 = ORIENTED_EDGE ( 'NONE', *, *, #203, .F. ) ;
#334 = CARTESIAN_POINT ( 'NONE',  ( 0.000000000000000000, 0.000000000000000000, 0.000000000000000000 ) ) ;
#335 = CLOSED_SHELL ( 'NONE', ( #347, #339, #357, #32, #100, #165, #194, #24, #170, #119, #258 ) ) ;
#336 = ORIENTED_EDGE ( 'NONE', *, *, #206, .F. ) ;
#337 = APPLICATION_PROTOCOL_DEFINITION ( 'international standard', 'config_control_design', 1994, #174 ) ;
#338 = ORIENTED_EDGE ( 'NONE', *, *, #233, .F. ) ;
#339 = ADVANCED_FACE ( 'NONE', ( #29 ), #269, .F. ) ;
#340 = AXIS2_PLACEMENT_3D ( 'NONE', #334, #331, #19 ) ;
#341 = ORIENTED_EDGE ( 'NONE', *, *, #113, .T. ) ;
#342 = FACE_OUTER_BOUND ( 'NONE', #225, .T. ) ;
#343 = FACE_OUTER_BOUND ( 'NONE', #250, .T. ) ;
#344 = EDGE_CURVE ( 'NONE', #99, #64, #142, .T. ) ;
#345 = APPROVAL_PERSON_ORGANIZATION ( #273, #98, #210 ) ;
#346 = DIRECTION ( 'NONE',  ( -0.000000000000000000, -0.000000000000000000, -1.000000000000000000 ) ) ;
#347 = ADVANCED_FACE ( 'NONE', ( #4 ), #115, .F. ) ;
#348 = DIRECTION ( 'NONE',  ( 0.000000000000000000, 0.000000000000000000, 1.000000000000000000 ) ) ;
#349 = CARTESIAN_POINT ( 'NONE',  ( 6.500000000000000888, 0.000000000000000000, 6.999999999999975131 ) ) ;
#350 = CARTESIAN_POINT ( 'NONE',  ( 0.000000000000000000, 0.000000000000000000, 7.499999999999951150 ) ) ;
#351 = EDGE_CURVE ( 'NONE', #307, #125, #215, .T. ) ;
#352 = DIRECTION ( 'NONE',  ( 0.000000000000000000, 0.000000000000000000, 1.000000000000000000 ) ) ;
#353 = ADVANCED_BREP_SHAPE_REPRESENTATION ( 'b9db', ( #191, #340 ), #176 ) ;
#354 = DESIGN_CONTEXT ( 'detailed design', #271, 'design' ) ;
#355 = DIRECTION ( 'NONE',  ( -1.000000000000000000, 1.224646799147351482E-16, 0.000000000000000000 ) ) ;
#356 = DATE_AND_TIME ( #322, #127 ) ;
#357 = ADVANCED_FACE ( 'NONE', ( #129 ), #36, .T. ) ;
#358 = CARTESIAN_POINT ( 'NONE',  ( 0.000000000000000000, 0.000000000000000000, 7.000000000000000000 ) ) ;
#359 = COORDINATED_UNIVERSAL_TIME_OFFSET ( 1, 0, .AHEAD. ) ;
#360 = PRODUCT_DEFINITION_SHAPE ( 'NONE', 'NONE',  #251 ) ;
#361 = CARTESIAN_POINT ( 'NONE',  ( 6.000000000000000888, 7.347880794884120722E-16, 557.0000000000000000 ) ) ;
#362 = CC_DESIGN_DATE_AND_TIME_ASSIGNMENT ( #242, #35, ( #251 ) ) ;
#363 = AXIS2_PLACEMENT_3D ( 'NONE', #198, #110, #164 ) ;
#364 = LINE ( 'NONE', #124, #46 ) ;
#365 = EDGE_LOOP ( 'NONE', ( #156, #40, #154, #131 ) ) ;
#366 = CIRCLE ( 'NONE', #319, 10.00000000000000000 ) ;
#367 = ORIENTED_EDGE ( 'NONE', *, *, #266, .F. ) ;
#368 = CC_DESIGN_PERSON_AND_ORGANIZATION_ASSIGNMENT ( #12, #54, ( #183 ) ) ;
#369 = ORIENTED_EDGE ( 'NONE', *, *, #212, .F. ) ;
#370 = ORIENTED_EDGE ( 'NONE', *, *, #283, .T. ) ;
#371 = LOCAL_TIME ( 16, 41, 6.000000000000000000, #305 ) ;
#372 = VERTEX_POINT ( 'NONE', #126 ) ;
#373 = DIRECTION ( 'NONE',  ( -0.000000000000000000, -0.000000000000000000, -1.000000000000000000 ) ) ;
#374 = EDGE_CURVE ( 'NONE', #161, #160, #364, .T. ) ;
#375 = DIRECTION ( 'NONE',  ( 1.000000000000000000, 0.000000000000000000, 0.000000000000000000 ) ) ;
#376 = AXIS2_PLACEMENT_3D ( 'NONE', #246, #286, #284 ) ;
#377 = FACE_BOUND ( 'NONE', #106, .T. ) ;
#378 = ORIENTED_EDGE ( 'NONE', *, *, #256, .F. ) ;
#379 = CARTESIAN_POINT ( 'NONE',  ( 0.000000000000000000, 0.000000000000000000, 7.000000000000000000 ) ) ;
#380 = AXIS2_PLACEMENT_3D ( 'NONE', #293, #231, #134 ) ;
#381 = DIRECTION ( 'NONE',  ( 1.000000000000000000, 0.000000000000000000, 0.000000000000000000 ) ) ;
ENDSEC;
END-ISO-10303-21;
