ISO-10303-21;
HEADER;
FILE_DESCRIPTION (( 'STEP AP203' ),
    '1' );
FILE_NAME ('f27c.STEP',
    '2022-07-08T14:24:22',
    ( '' ),
    ( '' ),
    'SwSTEP 2.0',
    'SolidWorks 2019',
    '' );
FILE_SCHEMA (( 'CONFIG_CONTROL_DESIGN' ));
ENDSEC;

DATA;
#1 = APPROVAL_PERSON_ORGANIZATION ( #231, #112, #269 ) ;
#2 = EDGE_CURVE ( 'NONE', #239, #115, #323, .T. ) ;
#3 = ORIENTED_EDGE ( 'NONE', *, *, #349, .T. ) ;
#4 = APPLICATION_PROTOCOL_DEFINITION ( 'international standard', 'config_control_design', 1994, #197 ) ;
#5 = FACE_OUTER_BOUND ( 'NONE', #274, .T. ) ;
#6 = ORIENTED_EDGE ( 'NONE', *, *, #219, .F. ) ;
#7 = ADVANCED_FACE ( 'NONE', ( #42 ), #335, .T. ) ;
#8 = AXIS2_PLACEMENT_3D ( 'NONE', #277, #44, #104 ) ;
#9 = DIRECTION ( 'NONE',  ( -0.000000000000000000, -0.000000000000000000, -1.000000000000000000 ) ) ;
#10 = ORIENTED_EDGE ( 'NONE', *, *, #306, .T. ) ;
#11 = CYLINDRICAL_SURFACE ( 'NONE', #270, 7.000000000000000888 ) ;
#12 = PERSON_AND_ORGANIZATION ( #33, #376 ) ;
#13 = CARTESIAN_POINT ( 'NONE',  ( -7.000000000000000888, 0.000000000000000000, 132.0000000000000000 ) ) ;
#14 = CALENDAR_DATE ( 2022, 8, 7 ) ;
#15 = CIRCLE ( 'NONE', #22, 11.00000000000000000 ) ;
#16 = LINE ( 'NONE', #13, #303 ) ;
#17 = DIRECTION ( 'NONE',  ( 1.000000000000000000, 0.000000000000000000, 0.000000000000000000 ) ) ;
#18 = DATE_AND_TIME ( #40, #370 ) ;
#19 = ORIENTED_EDGE ( 'NONE', *, *, #219, .T. ) ;
#20 = APPROVAL ( #365, 'NEURÈENÝ' ) ;
#21 = CARTESIAN_POINT ( 'NONE',  ( -11.00000000000000000, 0.000000000000000000, 0.000000000000000000 ) ) ;
#22 = AXIS2_PLACEMENT_3D ( 'NONE', #377, #227, #85 ) ;
#23 = DIRECTION ( 'NONE',  ( 1.000000000000000000, 0.000000000000000000, 0.000000000000000000 ) ) ;
#24 = FACE_OUTER_BOUND ( 'NONE', #131, .T. ) ;
#25 = EDGE_CURVE ( 'NONE', #239, #326, #150, .T. ) ;
#26 = DIRECTION ( 'NONE',  ( 1.000000000000000000, 0.000000000000000000, 0.000000000000000000 ) ) ;
#27 = AXIS2_PLACEMENT_3D ( 'NONE', #202, #224, #314 ) ;
#28 = PLANE ( 'NONE',  #255 ) ;
#29 = EDGE_CURVE ( 'NONE', #129, #183, #74, .T. ) ;
#30 = LINE ( 'NONE', #141, #61 ) ;
#31 = ORIENTED_EDGE ( 'NONE', *, *, #281, .T. ) ;
#32 = EDGE_LOOP ( 'NONE', ( #47, #204, #118, #99 ) ) ;
#33 = PERSON ( 'NEURÈENÝ', 'NEURÈENÝ', 'NEURÈENÝ', ('NEURÈENÝ'), ('NEURÈENÝ'), ('NEURÈENÝ') ) ;
#34 = FACE_OUTER_BOUND ( 'NONE', #290, .T. ) ;
#35 = VERTEX_POINT ( 'NONE', #247 ) ;
#36 = DIRECTION ( 'NONE',  ( -0.000000000000000000, -0.000000000000000000, -1.000000000000000000 ) ) ;
#37 = APPROVAL ( #128, 'NEURÈENÝ' ) ;
#38 = AXIS2_PLACEMENT_3D ( 'NONE', #160, #79, #26 ) ;
#39 = CC_DESIGN_APPROVAL ( #20, ( #110 ) ) ;
#40 = CALENDAR_DATE ( 2022, 8, 7 ) ;
#41 = ORIENTED_EDGE ( 'NONE', *, *, #349, .F. ) ;
#42 = FACE_OUTER_BOUND ( 'NONE', #32, .T. ) ;
#43 = ADVANCED_FACE ( 'NONE', ( #278, #369 ), #366, .F. ) ;
#44 = DIRECTION ( 'NONE',  ( 0.000000000000000000, 0.000000000000000000, 1.000000000000000000 ) ) ;
#45 = APPROVAL_DATE_TIME ( #18, #20 ) ;
#46 = AXIS2_PLACEMENT_3D ( 'NONE', #144, #114, #171 ) ;
#47 = ORIENTED_EDGE ( 'NONE', *, *, #281, .F. ) ;
#48 = SECURITY_CLASSIFICATION_LEVEL ( 'unclassified' ) ;
#49 = CC_DESIGN_PERSON_AND_ORGANIZATION_ASSIGNMENT ( #213, #299, ( #103 ) ) ;
#50 = DIRECTION ( 'NONE',  ( 1.000000000000000000, 0.000000000000000000, 0.000000000000000000 ) ) ;
#51 = FACE_OUTER_BOUND ( 'NONE', #66, .T. ) ;
#52 = DIRECTION ( 'NONE',  ( -1.000000000000000000, 0.000000000000000000, 0.000000000000000000 ) ) ;
#53 = DIRECTION ( 'NONE',  ( 0.000000000000000000, 0.000000000000000000, 1.000000000000000000 ) ) ;
#54 = CARTESIAN_POINT ( 'NONE',  ( 11.00000000000000000, 1.347111479062088405E-15, 0.000000000000000000 ) ) ;
#55 = CARTESIAN_POINT ( 'NONE',  ( 0.000000000000000000, 0.000000000000000000, 7.699999999999998401 ) ) ;
#56 = CIRCLE ( 'NONE', #201, 5.000000000000000000 ) ;
#57 = ADVANCED_FACE ( 'NONE', ( #155 ), #217, .F. ) ;
#58 = DIRECTION ( 'NONE',  ( 1.000000000000000000, 0.000000000000000000, 0.000000000000000000 ) ) ;
#59 = EDGE_LOOP ( 'NONE', ( #6, #350 ) ) ;
#60 = VERTEX_POINT ( 'NONE', #123 ) ;
#61 = VECTOR ( 'NONE', #36, 1000.000000000000000 ) ;
#62 = APPROVAL_DATE_TIME ( #90, #112 ) ;
#63 = ORIENTED_EDGE ( 'NONE', *, *, #225, .F. ) ;
#64 = EDGE_CURVE ( 'NONE', #292, #122, #254, .T. ) ;
#65 = PLANE ( 'NONE',  #207 ) ;
#66 = EDGE_LOOP ( 'NONE', ( #206, #158, #177, #19 ) ) ;
#67 = ORIENTED_EDGE ( 'NONE', *, *, #2, .T. ) ;
#68 = DATE_AND_TIME ( #184, #132 ) ;
#69 = ORIENTED_EDGE ( 'NONE', *, *, #143, .T. ) ;
#70 = DATE_TIME_ROLE ( 'classification_date' ) ;
#71 = CARTESIAN_POINT ( 'NONE',  ( 0.000000000000000000, 0.000000000000000000, 7.000000000000000000 ) ) ;
#72 = EDGE_CURVE ( 'NONE', #60, #239, #16, .T. ) ;
#73 = SHAPE_DEFINITION_REPRESENTATION ( #260, #310 ) ;
#74 = CIRCLE ( 'NONE', #211, 5.000000000000000000 ) ;
#75 = AXIS2_PLACEMENT_3D ( 'NONE', #309, #280, #23 ) ;
#76 = DIRECTION ( 'NONE',  ( 1.000000000000000000, 0.000000000000000000, 0.000000000000000000 ) ) ;
#77 = CARTESIAN_POINT ( 'NONE',  ( 5.000000000000000000, 6.123233995736766282E-16, 0.000000000000000000 ) ) ;
#78 = DESIGN_CONTEXT ( 'detailed design', #197, 'design' ) ;
#79 = DIRECTION ( 'NONE',  ( 0.000000000000000000, 0.000000000000000000, 1.000000000000000000 ) ) ;
#80 = CARTESIAN_POINT ( 'NONE',  ( -7.000000000000000888, 0.000000000000000000, 7.699999999999998401 ) ) ;
#81 = AXIS2_PLACEMENT_3D ( 'NONE', #55, #53, #257 ) ;
#82 = CARTESIAN_POINT ( 'NONE',  ( 0.000000000000000000, 0.000000000000000000, 132.0000000000000000 ) ) ;
#83 = CARTESIAN_POINT ( 'NONE',  ( 7.700000000000001066, 0.000000000000000000, 6.999999999999999112 ) ) ;
#84 = CC_DESIGN_DATE_AND_TIME_ASSIGNMENT ( #334, #70, ( #110 ) ) ;
#85 = DIRECTION ( 'NONE',  ( 1.000000000000000000, 0.000000000000000000, 0.000000000000000000 ) ) ;
#86 = DIRECTION ( 'NONE',  ( 0.000000000000000000, 0.000000000000000000, 1.000000000000000000 ) ) ;
#87 = ORIENTED_EDGE ( 'NONE', *, *, #92, .F. ) ;
#88 = CARTESIAN_POINT ( 'NONE',  ( 0.000000000000000000, 0.000000000000000000, 7.000000000000000000 ) ) ;
#89 = ORIENTED_EDGE ( 'NONE', *, *, #291, .F. ) ;
#90 = DATE_AND_TIME ( #170, #175 ) ;
#91 = ORIENTED_EDGE ( 'NONE', *, *, #336, .T. ) ;
#92 = EDGE_CURVE ( 'NONE', #294, #148, #136, .T. ) ;
#93 = AXIS2_PLACEMENT_3D ( 'NONE', #216, #339, #331 ) ;
#94 = LOCAL_TIME ( 16, 24, 22.00000000000000000, #215 ) ;
#95 = DIRECTION ( 'NONE',  ( 0.000000000000000000, 0.000000000000000000, -1.000000000000000000 ) ) ;
#96 = ORIENTED_EDGE ( 'NONE', *, *, #166, .F. ) ;
#97 = DIRECTION ( 'NONE',  ( -1.000000000000000000, 0.000000000000000000, 0.000000000000000000 ) ) ;
#98 = VERTEX_POINT ( 'NONE', #77 ) ;
#99 = ORIENTED_EDGE ( 'NONE', *, *, #198, .F. ) ;
#100 = CARTESIAN_POINT ( 'NONE',  ( 0.000000000000000000, 0.000000000000000000, 7.699999999999998401 ) ) ;
#101 = CC_DESIGN_PERSON_AND_ORGANIZATION_ASSIGNMENT ( #176, #208, ( #345 ) ) ;
#102 = AXIS2_PLACEMENT_3D ( 'NONE', #100, #275, #17 ) ;
#103 = PRODUCT_DEFINITION_FORMATION_WITH_SPECIFIED_SOURCE ( 'LIBOVOLNÝ', '', #353, .NOT_KNOWN. ) ;
#104 = DIRECTION ( 'NONE',  ( 1.000000000000000000, 0.000000000000000000, -0.000000000000000000 ) ) ;
#105 = DIRECTION ( 'NONE',  ( -0.000000000000000000, -0.000000000000000000, -1.000000000000000000 ) ) ;
#106 = CC_DESIGN_PERSON_AND_ORGANIZATION_ASSIGNMENT ( #12, #297, ( #110 ) ) ;
#107 = DIRECTION ( 'NONE',  ( -1.000000000000000000, 0.000000000000000000, 0.000000000000000000 ) ) ;
#108 = CLOSED_SHELL ( 'NONE', ( #243, #57, #258, #7, #267, #311, #43, #130, #378, #237, #157 ) ) ;
#109 = FACE_OUTER_BOUND ( 'NONE', #120, .T. ) ;
#110 = SECURITY_CLASSIFICATION ( '', '', #48 ) ;
#111 = CARTESIAN_POINT ( 'NONE',  ( 0.000000000000000000, 0.000000000000000000, 132.0000000000000000 ) ) ;
#112 = APPROVAL ( #147, 'NEURÈENÝ' ) ;
#113 = CYLINDRICAL_SURFACE ( 'NONE', #125, 11.00000000000000000 ) ;
#114 = DIRECTION ( 'NONE',  ( -0.000000000000000000, -0.000000000000000000, -1.000000000000000000 ) ) ;
#115 = VERTEX_POINT ( 'NONE', #192 ) ;
#116 = MECHANICAL_CONTEXT ( 'NONE', #263, 'mechanical' ) ;
#117 = ORIENTED_EDGE ( 'NONE', *, *, #29, .F. ) ;
#118 = ORIENTED_EDGE ( 'NONE', *, *, #92, .T. ) ;
#119 = DIRECTION ( 'NONE',  ( 0.000000000000000000, 0.000000000000000000, 1.000000000000000000 ) ) ;
#120 = EDGE_LOOP ( 'NONE', ( #381, #63, #364, #232 ) ) ;
#121 = DIRECTION ( 'NONE',  ( 1.000000000000000000, 0.000000000000000000, -0.000000000000000000 ) ) ;
#122 = VERTEX_POINT ( 'NONE', #308 ) ;
#123 = CARTESIAN_POINT ( 'NONE',  ( -7.000000000000000888, 0.000000000000000000, 132.0000000000000000 ) ) ;
#124 = ORIENTED_EDGE ( 'NONE', *, *, #64, .F. ) ;
#125 = AXIS2_PLACEMENT_3D ( 'NONE', #253, #375, #221 ) ;
#126 = DATE_TIME_ROLE ( 'creation_date' ) ;
#127 = ORIENTED_EDGE ( 'NONE', *, *, #143, .F. ) ;
#128 = APPROVAL_STATUS ( 'not_yet_approved' ) ;
#129 = VERTEX_POINT ( 'NONE', #153 ) ;
#130 = ADVANCED_FACE ( 'NONE', ( #273 ), #11, .T. ) ;
#131 = EDGE_LOOP ( 'NONE', ( #298, #3, #288, #259 ) ) ;
#132 = LOCAL_TIME ( 16, 24, 22.00000000000000000, #246 ) ;
#133 = CARTESIAN_POINT ( 'NONE',  ( 0.000000000000000000, 0.000000000000000000, 7.699999999999998401 ) ) ;
#134 = CARTESIAN_POINT ( 'NONE',  ( 11.00000000000000000, 1.347111479062088405E-15, 7.000000000000000000 ) ) ;
#135 = DIRECTION ( 'NONE',  ( 0.000000000000000000, 0.000000000000000000, 1.000000000000000000 ) ) ;
#136 = CIRCLE ( 'NONE', #354, 11.00000000000000000 ) ;
#137 = DIRECTION ( 'NONE',  ( 1.000000000000000000, 0.000000000000000000, 0.000000000000000000 ) ) ;
#138 = VECTOR ( 'NONE', #164, 1000.000000000000000 ) ;
#139 = DIRECTION ( 'NONE',  ( 0.000000000000000000, -1.000000000000000000, 0.000000000000000000 ) ) ;
#140 = FACE_BOUND ( 'NONE', #145, .T. ) ;
#141 = CARTESIAN_POINT ( 'NONE',  ( 7.000000000000000888, 8.572527594031474176E-16, 132.0000000000000000 ) ) ;
#142 = ORIENTED_EDGE ( 'NONE', *, *, #248, .F. ) ;
#143 = EDGE_CURVE ( 'NONE', #183, #129, #189, .T. ) ;
#144 = CARTESIAN_POINT ( 'NONE',  ( 0.000000000000000000, 0.000000000000000000, 7.000000000000000000 ) ) ;
#145 = EDGE_LOOP ( 'NONE', ( #265, #352 ) ) ;
#146 = VERTEX_POINT ( 'NONE', #196 ) ;
#147 = APPROVAL_STATUS ( 'not_yet_approved' ) ;
#148 = VERTEX_POINT ( 'NONE', #21 ) ;
#149 = CC_DESIGN_PERSON_AND_ORGANIZATION_ASSIGNMENT ( #264, #178, ( #353 ) ) ;
#150 = CIRCLE ( 'NONE', #205, 0.7000000000000000666 ) ;
#151 = CC_DESIGN_APPROVAL ( #112, ( #345 ) ) ;
#152 = AXIS2_PLACEMENT_3D ( 'NONE', #82, #105, #107 ) ;
#153 = CARTESIAN_POINT ( 'NONE',  ( 5.000000000000000000, 6.123233995736766282E-16, 132.0000000000000000 ) ) ;
#154 = DIRECTION ( 'NONE',  ( -1.000000000000000000, 0.000000000000000000, 0.000000000000000000 ) ) ;
#155 = FACE_OUTER_BOUND ( 'NONE', #272, .T. ) ;
#156 = CIRCLE ( 'NONE', #276, 0.7000000000000000666 ) ;
#157 = ADVANCED_FACE ( 'NONE', ( #51 ), #222, .F. ) ;
#158 = ORIENTED_EDGE ( 'NONE', *, *, #29, .T. ) ;
#159 = ORIENTED_EDGE ( 'NONE', *, *, #198, .T. ) ;
#160 = CARTESIAN_POINT ( 'NONE',  ( 0.000000000000000000, 0.000000000000000000, 0.000000000000000000 ) ) ;
#161 = AXIS2_PLACEMENT_3D ( 'NONE', #71, #185, #154 ) ;
#162 = AXIS2_PLACEMENT_3D ( 'NONE', #380, #286, #203 ) ;
#163 = FACE_OUTER_BOUND ( 'NONE', #174, .T. ) ;
#164 = DIRECTION ( 'NONE',  ( -0.000000000000000000, -0.000000000000000000, -1.000000000000000000 ) ) ;
#165 = DIRECTION ( 'NONE',  ( 1.000000000000000000, 0.000000000000000000, 0.000000000000000000 ) ) ;
#166 = EDGE_CURVE ( 'NONE', #122, #294, #344, .T. ) ;
#167 = AXIS2_PLACEMENT_3D ( 'NONE', #245, #302, #220 ) ;
#168 = CARTESIAN_POINT ( 'NONE',  ( -5.000000000000000000, 0.000000000000000000, 132.0000000000000000 ) ) ;
#169 = CIRCLE ( 'NONE', #27, 7.700000000000001066 ) ;
#170 = CALENDAR_DATE ( 2022, 8, 7 ) ;
#171 = DIRECTION ( 'NONE',  ( 1.000000000000000000, 0.000000000000000000, 0.000000000000000000 ) ) ;
#172 = ORIENTED_EDGE ( 'NONE', *, *, #315, .T. ) ;
#173 = CC_DESIGN_PERSON_AND_ORGANIZATION_ASSIGNMENT ( #301, #305, ( #103 ) ) ;
#174 = EDGE_LOOP ( 'NONE', ( #69, #328, #91, #268 ) ) ;
#175 = LOCAL_TIME ( 16, 24, 22.00000000000000000, #351 ) ;
#176 = PERSON_AND_ORGANIZATION ( #33, #376 ) ;
#177 = ORIENTED_EDGE ( 'NONE', *, *, #191, .T. ) ;
#178 = PERSON_AND_ORGANIZATION_ROLE ( 'design_owner' ) ;
#179 = EDGE_CURVE ( 'NONE', #148, #294, #200, .T. ) ;
#180 = VERTEX_POINT ( 'NONE', #83 ) ;
#181 = VECTOR ( 'NONE', #199, 1000.000000000000000 ) ;
#182 = APPROVAL_DATE_TIME ( #68, #37 ) ;
#183 = VERTEX_POINT ( 'NONE', #346 ) ;
#184 = CALENDAR_DATE ( 2022, 8, 7 ) ;
#185 = DIRECTION ( 'NONE',  ( -0.000000000000000000, -0.000000000000000000, -1.000000000000000000 ) ) ;
#186 = CC_DESIGN_DATE_AND_TIME_ASSIGNMENT ( #242, #126, ( #345 ) ) ;
#187 = APPROVAL_ROLE ( '' ) ;
#188 = DIRECTION ( 'NONE',  ( 0.000000000000000000, 0.000000000000000000, 1.000000000000000000 ) ) ;
#189 = CIRCLE ( 'NONE', #234, 5.000000000000000000 ) ;
#190 = CARTESIAN_POINT ( 'NONE',  ( 0.000000000000000000, 0.000000000000000000, 0.000000000000000000 ) ) ;
#191 = EDGE_CURVE ( 'NONE', #183, #35, #252, .T. ) ;
#192 = CARTESIAN_POINT ( 'NONE',  ( 7.000000000000000888, 8.572527594031474176E-16, 7.699999999999998401 ) ) ;
#193 = DIRECTION ( 'NONE',  ( 0.000000000000000000, 0.000000000000000000, -1.000000000000000000 ) ) ;
#194 = MANIFOLD_SOLID_BREP ( 'Odebrat vysunutím3', #108 ) ;
#195 = CARTESIAN_POINT ( 'NONE',  ( -11.00000000000000000, 0.000000000000000000, 7.000000000000000000 ) ) ;
#196 = CARTESIAN_POINT ( 'NONE',  ( 7.000000000000000888, 8.572527594031474176E-16, 132.0000000000000000 ) ) ;
#197 = APPLICATION_CONTEXT ( 'configuration controlled 3d designs of mechanical parts and assemblies' ) ;
#198 = EDGE_CURVE ( 'NONE', #292, #148, #256, .T. ) ;
#199 = DIRECTION ( 'NONE',  ( 0.000000000000000000, 0.000000000000000000, -1.000000000000000000 ) ) ;
#200 = CIRCLE ( 'NONE', #38, 11.00000000000000000 ) ;
#201 = AXIS2_PLACEMENT_3D ( 'NONE', #226, #316, #313 ) ;
#202 = CARTESIAN_POINT ( 'NONE',  ( 0.000000000000000000, 0.000000000000000000, 7.000000000000000000 ) ) ;
#203 = DIRECTION ( 'NONE',  ( 1.000000000000000000, 0.000000000000000000, 0.000000000000000000 ) ) ;
#204 = ORIENTED_EDGE ( 'NONE', *, *, #166, .T. ) ;
#205 = AXIS2_PLACEMENT_3D ( 'NONE', #249, #300, #214 ) ;
#206 = ORIENTED_EDGE ( 'NONE', *, *, #357, .F. ) ;
#207 = AXIS2_PLACEMENT_3D ( 'NONE', #88, #119, #238 ) ;
#208 = PERSON_AND_ORGANIZATION_ROLE ( 'creator' ) ;
#209 = ORIENTED_EDGE ( 'NONE', *, *, #64, .T. ) ;
#210 = CARTESIAN_POINT ( 'NONE',  ( 0.000000000000000000, 0.000000000000000000, 132.0000000000000000 ) ) ;
#211 = AXIS2_PLACEMENT_3D ( 'NONE', #244, #188, #76 ) ;
#212 = ORIENTED_EDGE ( 'NONE', *, *, #25, .T. ) ;
#213 = PERSON_AND_ORGANIZATION ( #33, #376 ) ;
#214 = DIRECTION ( 'NONE',  ( -1.000000000000000000, 1.224646799147351975E-16, 0.000000000000000000 ) ) ;
#215 = COORDINATED_UNIVERSAL_TIME_OFFSET ( 1, 0, .AHEAD. ) ;
#216 = CARTESIAN_POINT ( 'NONE',  ( 0.000000000000000000, 0.000000000000000000, 7.000000000000000000 ) ) ;
#217 = TOROIDAL_SURFACE ( 'NONE', #102, 7.700000000000001066, 0.6999999999999999556 ) ;
#218 = AXIS2_PLACEMENT_3D ( 'NONE', #327, #9, #289 ) ;
#219 = EDGE_CURVE ( 'NONE', #35, #98, #56, .T. ) ;
#220 = DIRECTION ( 'NONE',  ( 1.000000000000000000, 0.000000000000000000, 0.000000000000000000 ) ) ;
#221 = DIRECTION ( 'NONE',  ( -1.000000000000000000, 0.000000000000000000, 0.000000000000000000 ) ) ;
#222 = CYLINDRICAL_SURFACE ( 'NONE', #368, 5.000000000000000000 ) ;
#223 = APPROVAL_PERSON_ORGANIZATION ( #240, #37, #187 ) ;
#224 = DIRECTION ( 'NONE',  ( -0.000000000000000000, -0.000000000000000000, -1.000000000000000000 ) ) ;
#225 = EDGE_CURVE ( 'NONE', #115, #239, #295, .T. ) ;
#226 = CARTESIAN_POINT ( 'NONE',  ( 0.000000000000000000, 0.000000000000000000, 0.000000000000000000 ) ) ;
#227 = DIRECTION ( 'NONE',  ( 0.000000000000000000, 0.000000000000000000, 1.000000000000000000 ) ) ;
#228 = AXIS2_PLACEMENT_3D ( 'NONE', #325, #86, #58 ) ;
#229 = APPLICATION_PROTOCOL_DEFINITION ( 'international standard', 'config_control_design', 1994, #263 ) ;
#230 = ORIENTED_EDGE ( 'NONE', *, *, #179, .F. ) ;
#231 = PERSON_AND_ORGANIZATION ( #33, #376 ) ;
#232 = ORIENTED_EDGE ( 'NONE', *, *, #371, .F. ) ;
#233 = LINE ( 'NONE', #322, #250 ) ;
#234 = AXIS2_PLACEMENT_3D ( 'NONE', #210, #283, #137 ) ;
#235 = ORIENTED_EDGE ( 'NONE', *, *, #2, .F. ) ;
#236 = CIRCLE ( 'NONE', #75, 7.000000000000000888 ) ;
#237 = ADVANCED_FACE ( 'NONE', ( #109 ), #355, .F. ) ;
#238 = DIRECTION ( 'NONE',  ( 1.000000000000000000, 0.000000000000000000, -0.000000000000000000 ) ) ;
#239 = VERTEX_POINT ( 'NONE', #80 ) ;
#240 = PERSON_AND_ORGANIZATION ( #33, #376 ) ;
#241 = CARTESIAN_POINT ( 'NONE',  ( 0.000000000000000000, 0.000000000000000000, 132.0000000000000000 ) ) ;
#242 = DATE_AND_TIME ( #14, #94 ) ;
#243 = ADVANCED_FACE ( 'NONE', ( #163 ), #343, .F. ) ;
#244 = CARTESIAN_POINT ( 'NONE',  ( 0.000000000000000000, 0.000000000000000000, 132.0000000000000000 ) ) ;
#245 = CARTESIAN_POINT ( 'NONE',  ( 0.000000000000000000, 0.000000000000000000, 7.699999999999998401 ) ) ;
#246 = COORDINATED_UNIVERSAL_TIME_OFFSET ( 1, 0, .AHEAD. ) ;
#247 = CARTESIAN_POINT ( 'NONE',  ( -5.000000000000000000, 0.000000000000000000, 0.000000000000000000 ) ) ;
#248 = EDGE_CURVE ( 'NONE', #115, #180, #156, .T. ) ;
#249 = CARTESIAN_POINT ( 'NONE',  ( -7.700000000000001066, 9.429780353434621002E-16, 7.699999999999998401 ) ) ;
#250 = VECTOR ( 'NONE', #95, 1000.000000000000000 ) ;
#251 = CARTESIAN_POINT ( 'NONE',  ( 7.700000000000001066, 0.000000000000000000, 7.699999999999998401 ) ) ;
#252 = LINE ( 'NONE', #168, #181 ) ;
#253 = CARTESIAN_POINT ( 'NONE',  ( 0.000000000000000000, 0.000000000000000000, 7.000000000000000000 ) ) ;
#254 = CIRCLE ( 'NONE', #93, 11.00000000000000000 ) ;
#255 = AXIS2_PLACEMENT_3D ( 'NONE', #319, #293, #121 ) ;
#256 = LINE ( 'NONE', #195, #138 ) ;
#257 = DIRECTION ( 'NONE',  ( 1.000000000000000000, 0.000000000000000000, 0.000000000000000000 ) ) ;
#258 = ADVANCED_FACE ( 'NONE', ( #24 ), #372, .T. ) ;
#259 = ORIENTED_EDGE ( 'NONE', *, *, #72, .F. ) ;
#260 = PRODUCT_DEFINITION_SHAPE ( 'NONE', 'NONE',  #345 ) ;
#261 =( NAMED_UNIT ( * ) PLANE_ANGLE_UNIT ( ) SI_UNIT ( $, .RADIAN. ) );
#262 = EDGE_LOOP ( 'NONE', ( #96, #124, #159, #333 ) ) ;
#263 = APPLICATION_CONTEXT ( 'configuration controlled 3d designs of mechanical parts and assemblies' ) ;
#264 = PERSON_AND_ORGANIZATION ( #33, #376 ) ;
#265 = ORIENTED_EDGE ( 'NONE', *, *, #291, .T. ) ;
#266 = CARTESIAN_POINT ( 'NONE',  ( -7.700000000000001066, 9.429780353434621002E-16, 6.999999999999999112 ) ) ;
#267 = ADVANCED_FACE ( 'NONE', ( #379 ), #113, .T. ) ;
#268 = ORIENTED_EDGE ( 'NONE', *, *, #191, .F. ) ;
#269 = APPROVAL_ROLE ( '' ) ;
#270 = AXIS2_PLACEMENT_3D ( 'NONE', #241, #359, #97 ) ;
#271 = VECTOR ( 'NONE', #341, 1000.000000000000000 ) ;
#272 = EDGE_LOOP ( 'NONE', ( #235, #212, #89, #142 ) ) ;
#273 = FACE_OUTER_BOUND ( 'NONE', #321, .T. ) ;
#274 = EDGE_LOOP ( 'NONE', ( #10, #172 ) ) ;
#275 = DIRECTION ( 'NONE',  ( 0.000000000000000000, 0.000000000000000000, 1.000000000000000000 ) ) ;
#276 = AXIS2_PLACEMENT_3D ( 'NONE', #251, #139, #282 ) ;
#277 = CARTESIAN_POINT ( 'NONE',  ( 0.000000000000000000, 0.000000000000000000, 0.000000000000000000 ) ) ;
#278 = FACE_BOUND ( 'NONE', #59, .T. ) ;
#279 = DIRECTION ( 'NONE',  ( 0.000000000000000000, 0.000000000000000000, -1.000000000000000000 ) ) ;
#280 = DIRECTION ( 'NONE',  ( 0.000000000000000000, 0.000000000000000000, 1.000000000000000000 ) ) ;
#281 = EDGE_CURVE ( 'NONE', #122, #292, #15, .T. ) ;
#282 = DIRECTION ( 'NONE',  ( 0.000000000000000000, 0.000000000000000000, -1.000000000000000000 ) ) ;
#283 = DIRECTION ( 'NONE',  ( 0.000000000000000000, 0.000000000000000000, 1.000000000000000000 ) ) ;
#284 = CIRCLE ( 'NONE', #162, 7.000000000000000888 ) ;
#285 = DIRECTION ( 'NONE',  ( -1.000000000000000000, 0.000000000000000000, 0.000000000000000000 ) ) ;
#286 = DIRECTION ( 'NONE',  ( 0.000000000000000000, 0.000000000000000000, 1.000000000000000000 ) ) ;
#287 = FACE_BOUND ( 'NONE', #330, .T. ) ;
#288 = ORIENTED_EDGE ( 'NONE', *, *, #225, .T. ) ;
#289 = DIRECTION ( 'NONE',  ( 1.000000000000000000, 0.000000000000000000, 0.000000000000000000 ) ) ;
#290 = EDGE_LOOP ( 'NONE', ( #209, #31 ) ) ;
#291 = EDGE_CURVE ( 'NONE', #180, #326, #169, .T. ) ;
#292 = VERTEX_POINT ( 'NONE', #340 ) ;
#293 = DIRECTION ( 'NONE',  ( 0.000000000000000000, 0.000000000000000000, 1.000000000000000000 ) ) ;
#294 = VERTEX_POINT ( 'NONE', #54 ) ;
#295 = CIRCLE ( 'NONE', #304, 7.000000000000000888 ) ;
#296 = ORIENTED_EDGE ( 'NONE', *, *, #72, .T. ) ;
#297 = PERSON_AND_ORGANIZATION_ROLE ( 'classification_officer' ) ;
#298 = ORIENTED_EDGE ( 'NONE', *, *, #315, .F. ) ;
#299 = PERSON_AND_ORGANIZATION_ROLE ( 'creator' ) ;
#300 = DIRECTION ( 'NONE',  ( 1.224646799147353207E-16, 1.000000000000000000, -0.000000000000000000 ) ) ;
#301 = PERSON_AND_ORGANIZATION ( #33, #376 ) ;
#302 = DIRECTION ( 'NONE',  ( 0.000000000000000000, 0.000000000000000000, 1.000000000000000000 ) ) ;
#303 = VECTOR ( 'NONE', #337, 1000.000000000000000 ) ;
#304 = AXIS2_PLACEMENT_3D ( 'NONE', #133, #135, #165 ) ;
#305 = PERSON_AND_ORGANIZATION_ROLE ( 'design_supplier' ) ;
#306 = EDGE_CURVE ( 'NONE', #60, #146, #236, .T. ) ;
#307 = DIRECTION ( 'NONE',  ( 0.000000000000000000, 0.000000000000000000, 1.000000000000000000 ) ) ;
#308 = CARTESIAN_POINT ( 'NONE',  ( 11.00000000000000000, 1.347111479062088405E-15, 7.000000000000000000 ) ) ;
#309 = CARTESIAN_POINT ( 'NONE',  ( 0.000000000000000000, 0.000000000000000000, 132.0000000000000000 ) ) ;
#310 = ADVANCED_BREP_SHAPE_REPRESENTATION ( 'f27c', ( #194, #228 ), #342 ) ;
#311 = ADVANCED_FACE ( 'NONE', ( #140, #34 ), #65, .T. ) ;
#312 = CIRCLE ( 'NONE', #218, 5.000000000000000000 ) ;
#313 = DIRECTION ( 'NONE',  ( 1.000000000000000000, 0.000000000000000000, 0.000000000000000000 ) ) ;
#314 = DIRECTION ( 'NONE',  ( 1.000000000000000000, 0.000000000000000000, 0.000000000000000000 ) ) ;
#315 = EDGE_CURVE ( 'NONE', #146, #60, #284, .T. ) ;
#316 = DIRECTION ( 'NONE',  ( -0.000000000000000000, -0.000000000000000000, -1.000000000000000000 ) ) ;
#317 = APPROVAL_PERSON_ORGANIZATION ( #360, #20, #332 ) ;
#318 = CC_DESIGN_APPROVAL ( #37, ( #103 ) ) ;
#319 = CARTESIAN_POINT ( 'NONE',  ( 0.000000000000000000, 0.000000000000000000, 132.0000000000000000 ) ) ;
#320 =( NAMED_UNIT ( * ) SI_UNIT ( $, .STERADIAN. ) SOLID_ANGLE_UNIT ( ) );
#321 = EDGE_LOOP ( 'NONE', ( #41, #348, #296, #67 ) ) ;
#322 = CARTESIAN_POINT ( 'NONE',  ( 5.000000000000000000, 6.123233995736766282E-16, 132.0000000000000000 ) ) ;
#323 = CIRCLE ( 'NONE', #167, 7.000000000000000888 ) ;
#324 = LOCAL_TIME ( 16, 24, 22.00000000000000000, #358 ) ;
#325 = CARTESIAN_POINT ( 'NONE',  ( 0.000000000000000000, 0.000000000000000000, 0.000000000000000000 ) ) ;
#326 = VERTEX_POINT ( 'NONE', #266 ) ;
#327 = CARTESIAN_POINT ( 'NONE',  ( 0.000000000000000000, 0.000000000000000000, 0.000000000000000000 ) ) ;
#328 = ORIENTED_EDGE ( 'NONE', *, *, #357, .T. ) ;
#329 = PRODUCT_RELATED_PRODUCT_CATEGORY ( 'detail', '', ( #353 ) ) ;
#330 = EDGE_LOOP ( 'NONE', ( #127, #117 ) ) ;
#331 = DIRECTION ( 'NONE',  ( 1.000000000000000000, 0.000000000000000000, 0.000000000000000000 ) ) ;
#332 = APPROVAL_ROLE ( '' ) ;
#333 = ORIENTED_EDGE ( 'NONE', *, *, #179, .T. ) ;
#334 = DATE_AND_TIME ( #367, #324 ) ;
#335 = CYLINDRICAL_SURFACE ( 'NONE', #161, 11.00000000000000000 ) ;
#336 = EDGE_CURVE ( 'NONE', #98, #35, #312, .T. ) ;
#337 = DIRECTION ( 'NONE',  ( -0.000000000000000000, -0.000000000000000000, -1.000000000000000000 ) ) ;
#338 = CIRCLE ( 'NONE', #46, 7.700000000000001066 ) ;
#339 = DIRECTION ( 'NONE',  ( 0.000000000000000000, 0.000000000000000000, 1.000000000000000000 ) ) ;
#340 = CARTESIAN_POINT ( 'NONE',  ( -11.00000000000000000, 0.000000000000000000, 7.000000000000000000 ) ) ;
#341 = DIRECTION ( 'NONE',  ( -0.000000000000000000, -0.000000000000000000, -1.000000000000000000 ) ) ;
#342 =( GEOMETRIC_REPRESENTATION_CONTEXT ( 3 ) GLOBAL_UNCERTAINTY_ASSIGNED_CONTEXT ( ( #374 ) ) GLOBAL_UNIT_ASSIGNED_CONTEXT ( ( #356, #261, #320 ) ) REPRESENTATION_CONTEXT ( 'NONE', 'WORKASPACE' ) );
#343 = CYLINDRICAL_SURFACE ( 'NONE', #361, 5.000000000000000000 ) ;
#344 = LINE ( 'NONE', #134, #271 ) ;
#345 = PRODUCT_DEFINITION ( 'NEZNÁMÝ', '', #103, #78 ) ;
#346 = CARTESIAN_POINT ( 'NONE',  ( -5.000000000000000000, 0.000000000000000000, 132.0000000000000000 ) ) ;
#347 = CC_DESIGN_SECURITY_CLASSIFICATION ( #110, ( #103 ) ) ;
#348 = ORIENTED_EDGE ( 'NONE', *, *, #306, .F. ) ;
#349 = EDGE_CURVE ( 'NONE', #146, #115, #30, .T. ) ;
#350 = ORIENTED_EDGE ( 'NONE', *, *, #336, .F. ) ;
#351 = COORDINATED_UNIVERSAL_TIME_OFFSET ( 1, 0, .AHEAD. ) ;
#352 = ORIENTED_EDGE ( 'NONE', *, *, #371, .T. ) ;
#353 = PRODUCT ( 'f27c', 'f27c', '', ( #116 ) ) ;
#354 = AXIS2_PLACEMENT_3D ( 'NONE', #190, #307, #50 ) ;
#355 = TOROIDAL_SURFACE ( 'NONE', #81, 7.700000000000001066, 0.6999999999999999556 ) ;
#356 =( LENGTH_UNIT ( ) NAMED_UNIT ( * ) SI_UNIT ( .MILLI., .METRE. ) );
#357 = EDGE_CURVE ( 'NONE', #129, #98, #233, .T. ) ;
#358 = COORDINATED_UNIVERSAL_TIME_OFFSET ( 1, 0, .AHEAD. ) ;
#359 = DIRECTION ( 'NONE',  ( -0.000000000000000000, -0.000000000000000000, -1.000000000000000000 ) ) ;
#360 = PERSON_AND_ORGANIZATION ( #33, #376 ) ;
#361 = AXIS2_PLACEMENT_3D ( 'NONE', #373, #193, #285 ) ;
#362 = EDGE_LOOP ( 'NONE', ( #230, #87 ) ) ;
#363 = COORDINATED_UNIVERSAL_TIME_OFFSET ( 1, 0, .AHEAD. ) ;
#364 = ORIENTED_EDGE ( 'NONE', *, *, #248, .T. ) ;
#365 = APPROVAL_STATUS ( 'not_yet_approved' ) ;
#366 = PLANE ( 'NONE',  #8 ) ;
#367 = CALENDAR_DATE ( 2022, 8, 7 ) ;
#368 = AXIS2_PLACEMENT_3D ( 'NONE', #111, #279, #52 ) ;
#369 = FACE_OUTER_BOUND ( 'NONE', #362, .T. ) ;
#370 = LOCAL_TIME ( 16, 24, 22.00000000000000000, #363 ) ;
#371 = EDGE_CURVE ( 'NONE', #326, #180, #338, .T. ) ;
#372 = CYLINDRICAL_SURFACE ( 'NONE', #152, 7.000000000000000888 ) ;
#373 = CARTESIAN_POINT ( 'NONE',  ( 0.000000000000000000, 0.000000000000000000, 132.0000000000000000 ) ) ;
#374 = UNCERTAINTY_MEASURE_WITH_UNIT (LENGTH_MEASURE( 1.000000000000000082E-05 ), #356, 'distance_accuracy_value', 'NONE');
#375 = DIRECTION ( 'NONE',  ( -0.000000000000000000, -0.000000000000000000, -1.000000000000000000 ) ) ;
#376 = ORGANIZATION ( 'NEURÈENÝ', 'NEURÈENÝ', '' ) ;
#377 = CARTESIAN_POINT ( 'NONE',  ( 0.000000000000000000, 0.000000000000000000, 7.000000000000000000 ) ) ;
#378 = ADVANCED_FACE ( 'NONE', ( #287, #5 ), #28, .T. ) ;
#379 = FACE_OUTER_BOUND ( 'NONE', #262, .T. ) ;
#380 = CARTESIAN_POINT ( 'NONE',  ( 0.000000000000000000, 0.000000000000000000, 132.0000000000000000 ) ) ;
#381 = ORIENTED_EDGE ( 'NONE', *, *, #25, .F. ) ;
ENDSEC;
END-ISO-10303-21;
