ISO-10303-21;
HEADER;
FILE_DESCRIPTION (( 'STEP AP203' ),
    '1' );
FILE_NAME ('66d3.STEP',
    '2022-07-08T14:32:41',
    ( '' ),
    ( '' ),
    'SwSTEP 2.0',
    'SolidWorks 2019',
    '' );
FILE_SCHEMA (( 'CONFIG_CONTROL_DESIGN' ));
ENDSEC;

DATA;
#1 = EDGE_CURVE ( 'NONE', #137, #272, #271, .T. ) ;
#2 = CARTESIAN_POINT ( 'NONE',  ( -10.00000000000000000, 0.000000000000000000, 7.000000000000000000 ) ) ;
#3 = CC_DESIGN_PERSON_AND_ORGANIZATION_ASSIGNMENT ( #81, #345, ( #317 ) ) ;
#4 = AXIS2_PLACEMENT_3D ( 'NONE', #296, #299, #95 ) ;
#5 = CARTESIAN_POINT ( 'NONE',  ( 4.099999999999999645, 5.021051876504147385E-16, 757.0000000000000000 ) ) ;
#6 = FACE_OUTER_BOUND ( 'NONE', #164, .T. ) ;
#7 = EDGE_CURVE ( 'NONE', #252, #89, #262, .T. ) ;
#8 = CARTESIAN_POINT ( 'NONE',  ( 0.000000000000000000, 0.000000000000000000, 757.0000000000000000 ) ) ;
#9 = AXIS2_PLACEMENT_3D ( 'NONE', #305, #103, #155 ) ;
#10 = EDGE_LOOP ( 'NONE', ( #130, #232, #341, #300 ) ) ;
#11 = EDGE_CURVE ( 'NONE', #77, #80, #323, .T. ) ;
#12 = DIRECTION ( 'NONE',  ( -0.000000000000000000, -0.000000000000000000, -1.000000000000000000 ) ) ;
#13 = ORIENTED_EDGE ( 'NONE', *, *, #109, .T. ) ;
#14 = PRODUCT ( '66d3', '66d3', '', ( #185 ) ) ;
#15 = CARTESIAN_POINT ( 'NONE',  ( 0.000000000000000000, 0.000000000000000000, 0.000000000000000000 ) ) ;
#16 = ORIENTED_EDGE ( 'NONE', *, *, #294, .T. ) ;
#17 = CARTESIAN_POINT ( 'NONE',  ( 6.000000000000000888, 7.347880794884120722E-16, 757.0000000000000000 ) ) ;
#18 = ORIENTED_EDGE ( 'NONE', *, *, #261, .F. ) ;
#19 = AXIS2_PLACEMENT_3D ( 'NONE', #293, #242, #291 ) ;
#20 = AXIS2_PLACEMENT_3D ( 'NONE', #143, #61, #201 ) ;
#21 = ORIENTED_EDGE ( 'NONE', *, *, #268, .F. ) ;
#22 = DATE_TIME_ROLE ( 'classification_date' ) ;
#23 = DIRECTION ( 'NONE',  ( 1.000000000000000000, 0.000000000000000000, 0.000000000000000000 ) ) ;
#24 = COORDINATED_UNIVERSAL_TIME_OFFSET ( 1, 0, .AHEAD. ) ;
#25 = DIRECTION ( 'NONE',  ( -1.000000000000000000, 1.224646799147353454E-16, 0.000000000000000000 ) ) ;
#26 = DATE_AND_TIME ( #284, #178 ) ;
#27 = ORIENTED_EDGE ( 'NONE', *, *, #1, .T. ) ;
#28 = SECURITY_CLASSIFICATION_LEVEL ( 'unclassified' ) ;
#29 = ORIENTED_EDGE ( 'NONE', *, *, #245, .F. ) ;
#30 = CARTESIAN_POINT ( 'NONE',  ( 0.000000000000000000, 0.000000000000000000, 7.700000000000040146 ) ) ;
#31 = ADVANCED_FACE ( 'NONE', ( #289 ), #44, .F. ) ;
#32 = LOCAL_TIME ( 16, 32, 41.00000000000000000, #158 ) ;
#33 = DIRECTION ( 'NONE',  ( 0.000000000000000000, 0.000000000000000000, -1.000000000000000000 ) ) ;
#34 = CARTESIAN_POINT ( 'NONE',  ( 0.000000000000000000, 0.000000000000000000, 757.0000000000000000 ) ) ;
#35 = FACE_BOUND ( 'NONE', #277, .T. ) ;
#36 = ADVANCED_FACE ( 'NONE', ( #174 ), #203, .T. ) ;
#37 = CIRCLE ( 'NONE', #90, 4.099999999999999645 ) ;
#38 = CARTESIAN_POINT ( 'NONE',  ( 0.000000000000000000, 0.000000000000000000, 7.700000000000040146 ) ) ;
#39 = CYLINDRICAL_SURFACE ( 'NONE', #182, 10.00000000000000000 ) ;
#40 = DIRECTION ( 'NONE',  ( 1.000000000000000000, 0.000000000000000000, 0.000000000000000000 ) ) ;
#41 = EDGE_LOOP ( 'NONE', ( #159, #304 ) ) ;
#42 = AXIS2_PLACEMENT_3D ( 'NONE', #126, #189, #153 ) ;
#43 = CC_DESIGN_PERSON_AND_ORGANIZATION_ASSIGNMENT ( #129, #215, ( #14 ) ) ;
#44 = TOROIDAL_SURFACE ( 'NONE', #202, 6.700000000000001066, 0.6999999999999999556 ) ;
#45 = VERTEX_POINT ( 'NONE', #147 ) ;
#46 = CARTESIAN_POINT ( 'NONE',  ( 6.000000000000000888, 7.347880794884120722E-16, 7.700000000000040146 ) ) ;
#47 = ORIENTED_EDGE ( 'NONE', *, *, #101, .F. ) ;
#48 = ORIENTED_EDGE ( 'NONE', *, *, #328, .F. ) ;
#49 = CIRCLE ( 'NONE', #42, 4.099999999999999645 ) ;
#50 = PERSON_AND_ORGANIZATION_ROLE ( 'design_supplier' ) ;
#51 = EDGE_LOOP ( 'NONE', ( #47, #193, #171, #91 ) ) ;
#52 = CARTESIAN_POINT ( 'NONE',  ( 0.000000000000000000, 0.000000000000000000, 7.000000000000000000 ) ) ;
#53 = PERSON_AND_ORGANIZATION ( #98, #309 ) ;
#54 = CARTESIAN_POINT ( 'NONE',  ( -4.099999999999999645, 0.000000000000000000, 757.0000000000000000 ) ) ;
#55 = CC_DESIGN_APPROVAL ( #314, ( #317 ) ) ;
#56 = APPROVAL ( #112, 'NEURÈENÝ' ) ;
#57 = DATE_AND_TIME ( #227, #373 ) ;
#58 = CYLINDRICAL_SURFACE ( 'NONE', #92, 10.00000000000000000 ) ;
#59 = CLOSED_SHELL ( 'NONE', ( #254, #276, #36, #222, #78, #209, #154, #173, #229, #31, #377 ) ) ;
#60 = ADVANCED_BREP_SHAPE_REPRESENTATION ( '66d3', ( #72, #206 ), #102 ) ;
#61 = DIRECTION ( 'NONE',  ( 0.000000000000000000, 0.000000000000000000, 1.000000000000000000 ) ) ;
#62 = CYLINDRICAL_SURFACE ( 'NONE', #239, 4.099999999999999645 ) ;
#63 = CARTESIAN_POINT ( 'NONE',  ( 0.000000000000000000, 0.000000000000000000, 7.000000000000000000 ) ) ;
#64 = CARTESIAN_POINT ( 'NONE',  ( 0.000000000000000000, 0.000000000000000000, 7.000000000000000000 ) ) ;
#65 = FACE_BOUND ( 'NONE', #133, .T. ) ;
#66 = AXIS2_PLACEMENT_3D ( 'NONE', #8, #338, #248 ) ;
#67 = FACE_OUTER_BOUND ( 'NONE', #346, .T. ) ;
#68 = VERTEX_POINT ( 'NONE', #316 ) ;
#69 = DIRECTION ( 'NONE',  ( 1.000000000000000000, 0.000000000000000000, 0.000000000000000000 ) ) ;
#70 = CC_DESIGN_DATE_AND_TIME_ASSIGNMENT ( #199, #22, ( #317 ) ) ;
#71 = ORIENTED_EDGE ( 'NONE', *, *, #86, .F. ) ;
#72 = MANIFOLD_SOLID_BREP ( 'Odebrat vysunutím3', #59 ) ;
#73 = DIRECTION ( 'NONE',  ( 1.000000000000000000, 0.000000000000000000, 0.000000000000000000 ) ) ;
#74 = VECTOR ( 'NONE', #33, 1000.000000000000000 ) ;
#75 = ORIENTED_EDGE ( 'NONE', *, *, #101, .T. ) ;
#76 = PERSON_AND_ORGANIZATION ( #98, #309 ) ;
#77 = VERTEX_POINT ( 'NONE', #318 ) ;
#78 = ADVANCED_FACE ( 'NONE', ( #376 ), #58, .T. ) ;
#79 = CARTESIAN_POINT ( 'NONE',  ( 0.000000000000000000, 0.000000000000000000, 0.000000000000000000 ) ) ;
#80 = VERTEX_POINT ( 'NONE', #347 ) ;
#81 = PERSON_AND_ORGANIZATION ( #98, #309 ) ;
#82 = DIRECTION ( 'NONE',  ( -0.000000000000000000, -0.000000000000000000, -1.000000000000000000 ) ) ;
#83 = AXIS2_PLACEMENT_3D ( 'NONE', #237, #351, #177 ) ;
#84 = PERSON_AND_ORGANIZATION ( #98, #309 ) ;
#85 = CARTESIAN_POINT ( 'NONE',  ( -6.000000000000000888, 0.000000000000000000, 7.700000000000040146 ) ) ;
#86 = EDGE_CURVE ( 'NONE', #162, #45, #286, .T. ) ;
#87 = CALENDAR_DATE ( 2022, 8, 7 ) ;
#88 = VERTEX_POINT ( 'NONE', #85 ) ;
#89 = VERTEX_POINT ( 'NONE', #313 ) ;
#90 = AXIS2_PLACEMENT_3D ( 'NONE', #235, #356, #121 ) ;
#91 = ORIENTED_EDGE ( 'NONE', *, *, #93, .F. ) ;
#92 = AXIS2_PLACEMENT_3D ( 'NONE', #197, #118, #230 ) ;
#93 = EDGE_CURVE ( 'NONE', #272, #137, #298, .T. ) ;
#94 = DIRECTION ( 'NONE',  ( 0.000000000000000000, 0.000000000000000000, 1.000000000000000000 ) ) ;
#95 = DIRECTION ( 'NONE',  ( 1.000000000000000000, 0.000000000000000000, -0.000000000000000000 ) ) ;
#96 = APPROVAL_PERSON_ORGANIZATION ( #53, #314, #378 ) ;
#97 = DIRECTION ( 'NONE',  ( 1.000000000000000000, 0.000000000000000000, 0.000000000000000000 ) ) ;
#98 = PERSON ( 'NEURÈENÝ', 'NEURÈENÝ', 'NEURÈENÝ', ('NEURÈENÝ'), ('NEURÈENÝ'), ('NEURÈENÝ') ) ;
#99 = LINE ( 'NONE', #5, #74 ) ;
#100 = CARTESIAN_POINT ( 'NONE',  ( 0.000000000000000000, 0.000000000000000000, 0.000000000000000000 ) ) ;
#101 = EDGE_CURVE ( 'NONE', #88, #272, #350, .T. ) ;
#102 =( GEOMETRIC_REPRESENTATION_CONTEXT ( 3 ) GLOBAL_UNCERTAINTY_ASSIGNED_CONTEXT ( ( #138 ) ) GLOBAL_UNIT_ASSIGNED_CONTEXT ( ( #329, #218, #275 ) ) REPRESENTATION_CONTEXT ( 'NONE', 'WORKASPACE' ) );
#103 = DIRECTION ( 'NONE',  ( 0.000000000000000000, 0.000000000000000000, -1.000000000000000000 ) ) ;
#104 = PRODUCT_DEFINITION ( 'NEZNÁMÝ', '', #172, #369 ) ;
#105 = DIRECTION ( 'NONE',  ( 0.000000000000000000, 0.000000000000000000, 1.000000000000000000 ) ) ;
#106 = DATE_AND_TIME ( #247, #32 ) ;
#107 = APPLICATION_PROTOCOL_DEFINITION ( 'international standard', 'config_control_design', 1994, #175 ) ;
#108 = VERTEX_POINT ( 'NONE', #120 ) ;
#109 = EDGE_CURVE ( 'NONE', #89, #88, #319, .T. ) ;
#110 = LINE ( 'NONE', #17, #283 ) ;
#111 = ORIENTED_EDGE ( 'NONE', *, *, #127, .F. ) ;
#112 = APPROVAL_STATUS ( 'not_yet_approved' ) ;
#113 = DIRECTION ( 'NONE',  ( 1.000000000000000000, 0.000000000000000000, 0.000000000000000000 ) ) ;
#114 = ORIENTED_EDGE ( 'NONE', *, *, #340, .T. ) ;
#115 = AXIS2_PLACEMENT_3D ( 'NONE', #194, #243, #69 ) ;
#116 = AXIS2_PLACEMENT_3D ( 'NONE', #52, #349, #281 ) ;
#117 = DIRECTION ( 'NONE',  ( -0.000000000000000000, -0.000000000000000000, -1.000000000000000000 ) ) ;
#118 = DIRECTION ( 'NONE',  ( -0.000000000000000000, -0.000000000000000000, -1.000000000000000000 ) ) ;
#119 = DATE_TIME_ROLE ( 'creation_date' ) ;
#120 = CARTESIAN_POINT ( 'NONE',  ( 4.099999999999999645, 5.021051876504147385E-16, 757.0000000000000000 ) ) ;
#121 = DIRECTION ( 'NONE',  ( 1.000000000000000000, 0.000000000000000000, 0.000000000000000000 ) ) ;
#122 = PLANE ( 'NONE',  #269 ) ;
#123 = CARTESIAN_POINT ( 'NONE',  ( 0.000000000000000000, 0.000000000000000000, 0.000000000000000000 ) ) ;
#124 = DIRECTION ( 'NONE',  ( 0.000000000000000000, 0.000000000000000000, 1.000000000000000000 ) ) ;
#125 = DIRECTION ( 'NONE',  ( -1.000000000000000000, 0.000000000000000000, 0.000000000000000000 ) ) ;
#126 = CARTESIAN_POINT ( 'NONE',  ( 0.000000000000000000, 0.000000000000000000, 757.0000000000000000 ) ) ;
#127 = EDGE_CURVE ( 'NONE', #249, #224, #228, .T. ) ;
#128 = AXIS2_PLACEMENT_3D ( 'NONE', #238, #354, #97 ) ;
#129 = PERSON_AND_ORGANIZATION ( #98, #309 ) ;
#130 = ORIENTED_EDGE ( 'NONE', *, *, #7, .F. ) ;
#131 = ORIENTED_EDGE ( 'NONE', *, *, #93, .T. ) ;
#132 = DIRECTION ( 'NONE',  ( 1.000000000000000000, 0.000000000000000000, 0.000000000000000000 ) ) ;
#133 = EDGE_LOOP ( 'NONE', ( #21, #221 ) ) ;
#134 = CYLINDRICAL_SURFACE ( 'NONE', #9, 4.099999999999999645 ) ;
#135 = CIRCLE ( 'NONE', #266, 4.099999999999999645 ) ;
#136 = CC_DESIGN_PERSON_AND_ORGANIZATION_ASSIGNMENT ( #170, #287, ( #172 ) ) ;
#137 = VERTEX_POINT ( 'NONE', #150 ) ;
#138 = UNCERTAINTY_MEASURE_WITH_UNIT (LENGTH_MEASURE( 1.000000000000000082E-05 ), #329, 'distance_accuracy_value', 'NONE');
#139 = AXIS2_PLACEMENT_3D ( 'NONE', #259, #379, #256 ) ;
#140 = APPROVAL_DATE_TIME ( #57, #56 ) ;
#141 = ORIENTED_EDGE ( 'NONE', *, *, #290, .T. ) ;
#142 = APPROVAL_DATE_TIME ( #26, #314 ) ;
#143 = CARTESIAN_POINT ( 'NONE',  ( 0.000000000000000000, 0.000000000000000000, 0.000000000000000000 ) ) ;
#144 = COORDINATED_UNIVERSAL_TIME_OFFSET ( 1, 0, .AHEAD. ) ;
#145 = CARTESIAN_POINT ( 'NONE',  ( -6.000000000000000888, 0.000000000000000000, 757.0000000000000000 ) ) ;
#146 = DIRECTION ( 'NONE',  ( 0.000000000000000000, 0.000000000000000000, 1.000000000000000000 ) ) ;
#147 = CARTESIAN_POINT ( 'NONE',  ( 10.00000000000000000, 1.224646799147353256E-15, 7.000000000000000000 ) ) ;
#148 = AXIS2_PLACEMENT_3D ( 'NONE', #123, #324, #270 ) ;
#149 = CARTESIAN_POINT ( 'NONE',  ( -6.700000000000001066, 8.205133554287267548E-16, 7.000000000000020428 ) ) ;
#150 = CARTESIAN_POINT ( 'NONE',  ( 6.700000000000001066, 0.000000000000000000, 7.000000000000020428 ) ) ;
#151 = FACE_BOUND ( 'NONE', #339, .T. ) ;
#152 = FACE_OUTER_BOUND ( 'NONE', #186, .T. ) ;
#153 = DIRECTION ( 'NONE',  ( 1.000000000000000000, 0.000000000000000000, 0.000000000000000000 ) ) ;
#154 = ADVANCED_FACE ( 'NONE', ( #151, #320 ), #207, .F. ) ;
#155 = DIRECTION ( 'NONE',  ( -1.000000000000000000, 0.000000000000000000, 0.000000000000000000 ) ) ;
#156 = ORIENTED_EDGE ( 'NONE', *, *, #311, .F. ) ;
#157 = LOCAL_TIME ( 16, 32, 41.00000000000000000, #257 ) ;
#158 = COORDINATED_UNIVERSAL_TIME_OFFSET ( 1, 0, .AHEAD. ) ;
#159 = ORIENTED_EDGE ( 'NONE', *, *, #86, .T. ) ;
#160 = EDGE_LOOP ( 'NONE', ( #370, #75, #214, #18 ) ) ;
#161 = PERSON_AND_ORGANIZATION_ROLE ( 'creator' ) ;
#162 = VERTEX_POINT ( 'NONE', #2 ) ;
#163 = CIRCLE ( 'NONE', #278, 6.000000000000000888 ) ;
#164 = EDGE_LOOP ( 'NONE', ( #251, #301, #176, #29 ) ) ;
#165 = EDGE_CURVE ( 'NONE', #45, #77, #265, .T. ) ;
#166 = APPROVAL_STATUS ( 'not_yet_approved' ) ;
#167 = ORIENTED_EDGE ( 'NONE', *, *, #7, .T. ) ;
#168 = PRODUCT_RELATED_PRODUCT_CATEGORY ( 'detail', '', ( #14 ) ) ;
#169 = CARTESIAN_POINT ( 'NONE',  ( -6.700000000000001066, 8.205133554287267548E-16, 7.700000000000040146 ) ) ;
#170 = PERSON_AND_ORGANIZATION ( #98, #309 ) ;
#171 = ORIENTED_EDGE ( 'NONE', *, *, #261, .T. ) ;
#172 = PRODUCT_DEFINITION_FORMATION_WITH_SPECIFIED_SOURCE ( 'LIBOVOLNÝ', '', #14, .NOT_KNOWN. ) ;
#173 = ADVANCED_FACE ( 'NONE', ( #152 ), #210, .T. ) ;
#174 = FACE_OUTER_BOUND ( 'NONE', #10, .T. ) ;
#175 = APPLICATION_CONTEXT ( 'configuration controlled 3d designs of mechanical parts and assemblies' ) ;
#176 = ORIENTED_EDGE ( 'NONE', *, *, #11, .T. ) ;
#177 = DIRECTION ( 'NONE',  ( -1.000000000000000000, 0.000000000000000000, 0.000000000000000000 ) ) ;
#178 = LOCAL_TIME ( 16, 32, 41.00000000000000000, #144 ) ;
#179 = CARTESIAN_POINT ( 'NONE',  ( 6.000000000000000888, 7.347880794884120722E-16, 757.0000000000000000 ) ) ;
#180 = FACE_OUTER_BOUND ( 'NONE', #160, .T. ) ;
#181 = PLANE ( 'NONE',  #4 ) ;
#182 = AXIS2_PLACEMENT_3D ( 'NONE', #63, #208, #325 ) ;
#183 = DIRECTION ( 'NONE',  ( 1.000000000000000000, 0.000000000000000000, -0.000000000000000000 ) ) ;
#184 = AXIS2_PLACEMENT_3D ( 'NONE', #169, #282, #25 ) ;
#185 = MECHANICAL_CONTEXT ( 'NONE', #175, 'mechanical' ) ;
#186 = EDGE_LOOP ( 'NONE', ( #258, #48, #13, #216 ) ) ;
#187 = ORIENTED_EDGE ( 'NONE', *, *, #11, .F. ) ;
#188 = AXIS2_PLACEMENT_3D ( 'NONE', #100, #124, #183 ) ;
#189 = DIRECTION ( 'NONE',  ( 0.000000000000000000, 0.000000000000000000, 1.000000000000000000 ) ) ;
#190 = ORIENTED_EDGE ( 'NONE', *, *, #245, .T. ) ;
#191 = APPROVAL ( #361, 'NEURÈENÝ' ) ;
#192 = CARTESIAN_POINT ( 'NONE',  ( 0.000000000000000000, 0.000000000000000000, 7.000000000000000000 ) ) ;
#193 = ORIENTED_EDGE ( 'NONE', *, *, #335, .F. ) ;
#194 = CARTESIAN_POINT ( 'NONE',  ( 0.000000000000000000, 0.000000000000000000, 7.700000000000040146 ) ) ;
#195 = ORIENTED_EDGE ( 'NONE', *, *, #213, .T. ) ;
#196 = APPROVAL_PERSON_ORGANIZATION ( #76, #191, #330 ) ;
#197 = CARTESIAN_POINT ( 'NONE',  ( 0.000000000000000000, 0.000000000000000000, 7.000000000000000000 ) ) ;
#198 = CARTESIAN_POINT ( 'NONE',  ( 0.000000000000000000, 0.000000000000000000, 757.0000000000000000 ) ) ;
#199 = DATE_AND_TIME ( #87, #342 ) ;
#200 = DIRECTION ( 'NONE',  ( 0.000000000000000000, 0.000000000000000000, 1.000000000000000000 ) ) ;
#201 = DIRECTION ( 'NONE',  ( 1.000000000000000000, 0.000000000000000000, 0.000000000000000000 ) ) ;
#202 = AXIS2_PLACEMENT_3D ( 'NONE', #30, #310, #23 ) ;
#203 = CYLINDRICAL_SURFACE ( 'NONE', #375, 6.000000000000000888 ) ;
#204 = DIRECTION ( 'NONE',  ( 1.000000000000000000, 0.000000000000000000, 0.000000000000000000 ) ) ;
#205 = DIRECTION ( 'NONE',  ( 0.000000000000000000, 0.000000000000000000, 1.000000000000000000 ) ) ;
#206 = AXIS2_PLACEMENT_3D ( 'NONE', #15, #363, #40 ) ;
#207 = PLANE ( 'NONE',  #188 ) ;
#208 = DIRECTION ( 'NONE',  ( -0.000000000000000000, -0.000000000000000000, -1.000000000000000000 ) ) ;
#209 = ADVANCED_FACE ( 'NONE', ( #35, #240 ), #122, .T. ) ;
#210 = CYLINDRICAL_SURFACE ( 'NONE', #83, 6.000000000000000888 ) ;
#211 = CIRCLE ( 'NONE', #359, 4.099999999999999645 ) ;
#212 = ORIENTED_EDGE ( 'NONE', *, *, #165, .F. ) ;
#213 = EDGE_CURVE ( 'NONE', #108, #68, #99, .T. ) ;
#214 = ORIENTED_EDGE ( 'NONE', *, *, #1, .F. ) ;
#215 = PERSON_AND_ORGANIZATION_ROLE ( 'design_owner' ) ;
#216 = ORIENTED_EDGE ( 'NONE', *, *, #241, .T. ) ;
#217 = CC_DESIGN_APPROVAL ( #56, ( #172 ) ) ;
#218 =( NAMED_UNIT ( * ) PLANE_ANGLE_UNIT ( ) SI_UNIT ( $, .RADIAN. ) );
#219 = ORIENTED_EDGE ( 'NONE', *, *, #328, .T. ) ;
#220 = DIRECTION ( 'NONE',  ( -0.000000000000000000, -0.000000000000000000, -1.000000000000000000 ) ) ;
#221 = ORIENTED_EDGE ( 'NONE', *, *, #340, .F. ) ;
#222 = ADVANCED_FACE ( 'NONE', ( #6 ), #39, .T. ) ;
#223 = SHAPE_DEFINITION_REPRESENTATION ( #333, #60 ) ;
#224 = VERTEX_POINT ( 'NONE', #352 ) ;
#225 = CC_DESIGN_SECURITY_CLASSIFICATION ( #317, ( #172 ) ) ;
#226 = ORIENTED_EDGE ( 'NONE', *, *, #268, .T. ) ;
#227 = CALENDAR_DATE ( 2022, 8, 7 ) ;
#228 = LINE ( 'NONE', #54, #302 ) ;
#229 = ADVANCED_FACE ( 'NONE', ( #65, #67 ), #181, .T. ) ;
#230 = DIRECTION ( 'NONE',  ( -1.000000000000000000, 0.000000000000000000, 0.000000000000000000 ) ) ;
#231 = CC_DESIGN_PERSON_AND_ORGANIZATION_ASSIGNMENT ( #303, #161, ( #104 ) ) ;
#232 = ORIENTED_EDGE ( 'NONE', *, *, #357, .T. ) ;
#233 = CIRCLE ( 'NONE', #66, 6.000000000000000888 ) ;
#234 = VECTOR ( 'NONE', #117, 1000.000000000000000 ) ;
#235 = CARTESIAN_POINT ( 'NONE',  ( 0.000000000000000000, 0.000000000000000000, 757.0000000000000000 ) ) ;
#236 = CC_DESIGN_PERSON_AND_ORGANIZATION_ASSIGNMENT ( #84, #50, ( #172 ) ) ;
#237 = CARTESIAN_POINT ( 'NONE',  ( 0.000000000000000000, 0.000000000000000000, 757.0000000000000000 ) ) ;
#238 = CARTESIAN_POINT ( 'NONE',  ( 0.000000000000000000, 0.000000000000000000, 7.700000000000040146 ) ) ;
#239 = AXIS2_PLACEMENT_3D ( 'NONE', #34, #264, #125 ) ;
#240 = FACE_OUTER_BOUND ( 'NONE', #41, .T. ) ;
#241 = EDGE_CURVE ( 'NONE', #88, #308, #163, .T. ) ;
#242 = DIRECTION ( 'NONE',  ( 0.000000000000000000, -1.000000000000000000, 0.000000000000000000 ) ) ;
#243 = DIRECTION ( 'NONE',  ( 0.000000000000000000, 0.000000000000000000, 1.000000000000000000 ) ) ;
#244 = CC_DESIGN_APPROVAL ( #191, ( #104 ) ) ;
#245 = EDGE_CURVE ( 'NONE', #162, #80, #260, .T. ) ;
#246 = APPLICATION_PROTOCOL_DEFINITION ( 'international standard', 'config_control_design', 1994, #364 ) ;
#247 = CALENDAR_DATE ( 2022, 8, 7 ) ;
#248 = DIRECTION ( 'NONE',  ( 1.000000000000000000, 0.000000000000000000, 0.000000000000000000 ) ) ;
#249 = VERTEX_POINT ( 'NONE', #321 ) ;
#250 = VECTOR ( 'NONE', #326, 1000.000000000000000 ) ;
#251 = ORIENTED_EDGE ( 'NONE', *, *, #322, .F. ) ;
#252 = VERTEX_POINT ( 'NONE', #179 ) ;
#253 = DIRECTION ( 'NONE',  ( -1.000000000000000000, 0.000000000000000000, 0.000000000000000000 ) ) ;
#254 = ADVANCED_FACE ( 'NONE', ( #381 ), #62, .F. ) ;
#255 = CIRCLE ( 'NONE', #19, 0.7000000000000000666 ) ;
#256 = DIRECTION ( 'NONE',  ( 1.000000000000000000, 0.000000000000000000, 0.000000000000000000 ) ) ;
#257 = COORDINATED_UNIVERSAL_TIME_OFFSET ( 1, 0, .AHEAD. ) ;
#258 = ORIENTED_EDGE ( 'NONE', *, *, #357, .F. ) ;
#259 = CARTESIAN_POINT ( 'NONE',  ( 0.000000000000000000, 0.000000000000000000, 7.000000000000000000 ) ) ;
#260 = LINE ( 'NONE', #267, #250 ) ;
#261 = EDGE_CURVE ( 'NONE', #308, #137, #255, .T. ) ;
#262 = CIRCLE ( 'NONE', #360, 6.000000000000000888 ) ;
#263 = DIRECTION ( 'NONE',  ( -0.000000000000000000, -0.000000000000000000, -1.000000000000000000 ) ) ;
#264 = DIRECTION ( 'NONE',  ( 0.000000000000000000, 0.000000000000000000, -1.000000000000000000 ) ) ;
#265 = LINE ( 'NONE', #355, #292 ) ;
#266 = AXIS2_PLACEMENT_3D ( 'NONE', #79, #12, #366 ) ;
#267 = CARTESIAN_POINT ( 'NONE',  ( -10.00000000000000000, 0.000000000000000000, 7.000000000000000000 ) ) ;
#268 = EDGE_CURVE ( 'NONE', #249, #108, #37, .T. ) ;
#269 = AXIS2_PLACEMENT_3D ( 'NONE', #64, #94, #295 ) ;
#270 = DIRECTION ( 'NONE',  ( 1.000000000000000000, 0.000000000000000000, 0.000000000000000000 ) ) ;
#271 = CIRCLE ( 'NONE', #116, 6.700000000000001066 ) ;
#272 = VERTEX_POINT ( 'NONE', #149 ) ;
#273 = CARTESIAN_POINT ( 'NONE',  ( 0.000000000000000000, 0.000000000000000000, 0.000000000000000000 ) ) ;
#274 = EDGE_LOOP ( 'NONE', ( #362, #187 ) ) ;
#275 =( NAMED_UNIT ( * ) SI_UNIT ( $, .STERADIAN. ) SOLID_ANGLE_UNIT ( ) );
#276 = ADVANCED_FACE ( 'NONE', ( #180 ), #380, .F. ) ;
#277 = EDGE_LOOP ( 'NONE', ( #27, #131 ) ) ;
#278 = AXIS2_PLACEMENT_3D ( 'NONE', #38, #205, #204 ) ;
#279 = ORIENTED_EDGE ( 'NONE', *, *, #294, .F. ) ;
#280 = COORDINATED_UNIVERSAL_TIME_OFFSET ( 1, 0, .AHEAD. ) ;
#281 = DIRECTION ( 'NONE',  ( 1.000000000000000000, 0.000000000000000000, 0.000000000000000000 ) ) ;
#282 = DIRECTION ( 'NONE',  ( 1.224646799147353207E-16, 1.000000000000000000, -0.000000000000000000 ) ) ;
#283 = VECTOR ( 'NONE', #358, 1000.000000000000000 ) ;
#284 = CALENDAR_DATE ( 2022, 8, 7 ) ;
#285 = DIRECTION ( 'NONE',  ( 0.000000000000000000, 0.000000000000000000, -1.000000000000000000 ) ) ;
#286 = CIRCLE ( 'NONE', #367, 10.00000000000000000 ) ;
#287 = PERSON_AND_ORGANIZATION_ROLE ( 'creator' ) ;
#288 = CARTESIAN_POINT ( 'NONE',  ( 0.000000000000000000, 0.000000000000000000, 7.000000000000000000 ) ) ;
#289 = FACE_OUTER_BOUND ( 'NONE', #51, .T. ) ;
#290 = EDGE_CURVE ( 'NONE', #80, #77, #336, .T. ) ;
#291 = DIRECTION ( 'NONE',  ( 0.000000000000000000, 0.000000000000000000, -1.000000000000000000 ) ) ;
#292 = VECTOR ( 'NONE', #263, 1000.000000000000000 ) ;
#293 = CARTESIAN_POINT ( 'NONE',  ( 6.700000000000001066, 0.000000000000000000, 7.700000000000040146 ) ) ;
#294 = EDGE_CURVE ( 'NONE', #224, #68, #211, .T. ) ;
#295 = DIRECTION ( 'NONE',  ( 1.000000000000000000, 0.000000000000000000, -0.000000000000000000 ) ) ;
#296 = CARTESIAN_POINT ( 'NONE',  ( 0.000000000000000000, 0.000000000000000000, 757.0000000000000000 ) ) ;
#297 = AXIS2_PLACEMENT_3D ( 'NONE', #192, #105, #132 ) ;
#298 = CIRCLE ( 'NONE', #139, 6.700000000000001066 ) ;
#299 = DIRECTION ( 'NONE',  ( 0.000000000000000000, 0.000000000000000000, 1.000000000000000000 ) ) ;
#300 = ORIENTED_EDGE ( 'NONE', *, *, #109, .F. ) ;
#301 = ORIENTED_EDGE ( 'NONE', *, *, #165, .T. ) ;
#302 = VECTOR ( 'NONE', #285, 1000.000000000000000 ) ;
#303 = PERSON_AND_ORGANIZATION ( #98, #309 ) ;
#304 = ORIENTED_EDGE ( 'NONE', *, *, #322, .T. ) ;
#305 = CARTESIAN_POINT ( 'NONE',  ( 0.000000000000000000, 0.000000000000000000, 757.0000000000000000 ) ) ;
#306 = EDGE_LOOP ( 'NONE', ( #372, #114, #331, #16 ) ) ;
#307 = FACE_OUTER_BOUND ( 'NONE', #306, .T. ) ;
#308 = VERTEX_POINT ( 'NONE', #46 ) ;
#309 = ORGANIZATION ( 'NEURÈENÝ', 'NEURÈENÝ', '' ) ;
#310 = DIRECTION ( 'NONE',  ( 0.000000000000000000, 0.000000000000000000, 1.000000000000000000 ) ) ;
#311 = EDGE_CURVE ( 'NONE', #68, #224, #135, .T. ) ;
#312 = DATE_AND_TIME ( #315, #157 ) ;
#313 = CARTESIAN_POINT ( 'NONE',  ( -6.000000000000000888, 0.000000000000000000, 757.0000000000000000 ) ) ;
#314 = APPROVAL ( #166, 'NEURÈENÝ' ) ;
#315 = CALENDAR_DATE ( 2022, 8, 7 ) ;
#316 = CARTESIAN_POINT ( 'NONE',  ( 4.099999999999999645, 5.021051876504147385E-16, 0.000000000000000000 ) ) ;
#317 = SECURITY_CLASSIFICATION ( '', '', #28 ) ;
#318 = CARTESIAN_POINT ( 'NONE',  ( 10.00000000000000000, 1.224646799147353256E-15, 0.000000000000000000 ) ) ;
#319 = LINE ( 'NONE', #145, #234 ) ;
#320 = FACE_OUTER_BOUND ( 'NONE', #274, .T. ) ;
#321 = CARTESIAN_POINT ( 'NONE',  ( -4.099999999999999645, 0.000000000000000000, 757.0000000000000000 ) ) ;
#322 = EDGE_CURVE ( 'NONE', #45, #162, #353, .T. ) ;
#323 = CIRCLE ( 'NONE', #20, 10.00000000000000000 ) ;
#324 = DIRECTION ( 'NONE',  ( 0.000000000000000000, 0.000000000000000000, 1.000000000000000000 ) ) ;
#325 = DIRECTION ( 'NONE',  ( -1.000000000000000000, 0.000000000000000000, 0.000000000000000000 ) ) ;
#326 = DIRECTION ( 'NONE',  ( -0.000000000000000000, -0.000000000000000000, -1.000000000000000000 ) ) ;
#327 = CIRCLE ( 'NONE', #115, 6.000000000000000888 ) ;
#328 = EDGE_CURVE ( 'NONE', #89, #252, #233, .T. ) ;
#329 =( LENGTH_UNIT ( ) NAMED_UNIT ( * ) SI_UNIT ( .MILLI., .METRE. ) );
#330 = APPROVAL_ROLE ( '' ) ;
#331 = ORIENTED_EDGE ( 'NONE', *, *, #127, .T. ) ;
#332 = APPROVAL_DATE_TIME ( #106, #191 ) ;
#333 = PRODUCT_DEFINITION_SHAPE ( 'NONE', 'NONE',  #104 ) ;
#334 = EDGE_LOOP ( 'NONE', ( #226, #195, #365, #111 ) ) ;
#335 = EDGE_CURVE ( 'NONE', #308, #88, #327, .T. ) ;
#336 = CIRCLE ( 'NONE', #148, 10.00000000000000000 ) ;
#337 = CC_DESIGN_DATE_AND_TIME_ASSIGNMENT ( #312, #119, ( #104 ) ) ;
#338 = DIRECTION ( 'NONE',  ( 0.000000000000000000, 0.000000000000000000, 1.000000000000000000 ) ) ;
#339 = EDGE_LOOP ( 'NONE', ( #279, #156 ) ) ;
#340 = EDGE_CURVE ( 'NONE', #108, #249, #49, .T. ) ;
#341 = ORIENTED_EDGE ( 'NONE', *, *, #335, .T. ) ;
#342 = LOCAL_TIME ( 16, 32, 41.00000000000000000, #24 ) ;
#343 = APPROVAL_ROLE ( '' ) ;
#344 = DIRECTION ( 'NONE',  ( 1.000000000000000000, 0.000000000000000000, 0.000000000000000000 ) ) ;
#345 = PERSON_AND_ORGANIZATION_ROLE ( 'classification_officer' ) ;
#346 = EDGE_LOOP ( 'NONE', ( #219, #167 ) ) ;
#347 = CARTESIAN_POINT ( 'NONE',  ( -10.00000000000000000, 0.000000000000000000, 0.000000000000000000 ) ) ;
#348 = APPROVAL_PERSON_ORGANIZATION ( #371, #56, #343 ) ;
#349 = DIRECTION ( 'NONE',  ( -0.000000000000000000, -0.000000000000000000, -1.000000000000000000 ) ) ;
#350 = CIRCLE ( 'NONE', #184, 0.7000000000000000666 ) ;
#351 = DIRECTION ( 'NONE',  ( -0.000000000000000000, -0.000000000000000000, -1.000000000000000000 ) ) ;
#352 = CARTESIAN_POINT ( 'NONE',  ( -4.099999999999999645, 0.000000000000000000, 0.000000000000000000 ) ) ;
#353 = CIRCLE ( 'NONE', #297, 10.00000000000000000 ) ;
#354 = DIRECTION ( 'NONE',  ( 0.000000000000000000, 0.000000000000000000, 1.000000000000000000 ) ) ;
#355 = CARTESIAN_POINT ( 'NONE',  ( 10.00000000000000000, 1.224646799147353256E-15, 7.000000000000000000 ) ) ;
#356 = DIRECTION ( 'NONE',  ( 0.000000000000000000, 0.000000000000000000, 1.000000000000000000 ) ) ;
#357 = EDGE_CURVE ( 'NONE', #252, #308, #110, .T. ) ;
#358 = DIRECTION ( 'NONE',  ( -0.000000000000000000, -0.000000000000000000, -1.000000000000000000 ) ) ;
#359 = AXIS2_PLACEMENT_3D ( 'NONE', #273, #220, #73 ) ;
#360 = AXIS2_PLACEMENT_3D ( 'NONE', #198, #200, #344 ) ;
#361 = APPROVAL_STATUS ( 'not_yet_approved' ) ;
#362 = ORIENTED_EDGE ( 'NONE', *, *, #290, .F. ) ;
#363 = DIRECTION ( 'NONE',  ( 0.000000000000000000, 0.000000000000000000, 1.000000000000000000 ) ) ;
#364 = APPLICATION_CONTEXT ( 'configuration controlled 3d designs of mechanical parts and assemblies' ) ;
#365 = ORIENTED_EDGE ( 'NONE', *, *, #311, .T. ) ;
#366 = DIRECTION ( 'NONE',  ( 1.000000000000000000, 0.000000000000000000, 0.000000000000000000 ) ) ;
#367 = AXIS2_PLACEMENT_3D ( 'NONE', #288, #146, #113 ) ;
#368 = EDGE_LOOP ( 'NONE', ( #212, #71, #190, #141 ) ) ;
#369 = DESIGN_CONTEXT ( 'detailed design', #364, 'design' ) ;
#370 = ORIENTED_EDGE ( 'NONE', *, *, #241, .F. ) ;
#371 = PERSON_AND_ORGANIZATION ( #98, #309 ) ;
#372 = ORIENTED_EDGE ( 'NONE', *, *, #213, .F. ) ;
#373 = LOCAL_TIME ( 16, 32, 41.00000000000000000, #280 ) ;
#374 = CARTESIAN_POINT ( 'NONE',  ( 0.000000000000000000, 0.000000000000000000, 757.0000000000000000 ) ) ;
#375 = AXIS2_PLACEMENT_3D ( 'NONE', #374, #82, #253 ) ;
#376 = FACE_OUTER_BOUND ( 'NONE', #368, .T. ) ;
#377 = ADVANCED_FACE ( 'NONE', ( #307 ), #134, .F. ) ;
#378 = APPROVAL_ROLE ( '' ) ;
#379 = DIRECTION ( 'NONE',  ( -0.000000000000000000, -0.000000000000000000, -1.000000000000000000 ) ) ;
#380 = TOROIDAL_SURFACE ( 'NONE', #128, 6.700000000000001066, 0.6999999999999999556 ) ;
#381 = FACE_OUTER_BOUND ( 'NONE', #334, .T. ) ;
ENDSEC;
END-ISO-10303-21;
