ISO-10303-21;
HEADER;
FILE_DESCRIPTION (( 'STEP AP203' ),
    '1' );
FILE_NAME ('d1c1.STEP',
    '2022-07-08T14:51:04',
    ( '' ),
    ( '' ),
    'SwSTEP 2.0',
    'SolidWorks 2019',
    '' );
FILE_SCHEMA (( 'CONFIG_CONTROL_DESIGN' ));
ENDSEC;

DATA;
#1 = DATE_TIME_ROLE ( 'creation_date' ) ;
#2 = DIRECTION ( 'NONE',  ( 1.000000000000000000, 0.000000000000000000, 0.000000000000000000 ) ) ;
#3 = VECTOR ( 'NONE', #281, 1000.000000000000000 ) ;
#4 = MANIFOLD_SOLID_BREP ( 'Odebrat vysunutím3', #349 ) ;
#5 = PERSON_AND_ORGANIZATION ( #184, #243 ) ;
#6 = DIRECTION ( 'NONE',  ( -0.000000000000000000, -0.000000000000000000, -1.000000000000000000 ) ) ;
#7 = EDGE_CURVE ( 'NONE', #179, #91, #16, .T. ) ;
#8 = EDGE_CURVE ( 'NONE', #242, #257, #155, .T. ) ;
#9 = FACE_OUTER_BOUND ( 'NONE', #27, .T. ) ;
#10 = AXIS2_PLACEMENT_3D ( 'NONE', #265, #306, #381 ) ;
#11 = EDGE_LOOP ( 'NONE', ( #230, #224, #63, #36 ) ) ;
#12 = AXIS2_PLACEMENT_3D ( 'NONE', #15, #274, #45 ) ;
#13 = CARTESIAN_POINT ( 'NONE',  ( -8.000000000000000000, 0.000000000000000000, 0.000000000000000000 ) ) ;
#14 = FACE_OUTER_BOUND ( 'NONE', #144, .T. ) ;
#15 = CARTESIAN_POINT ( 'NONE',  ( 0.000000000000000000, 0.000000000000000000, 155.0000000000000000 ) ) ;
#16 = CIRCLE ( 'NONE', #46, 8.000000000000000000 ) ;
#17 = CARTESIAN_POINT ( 'NONE',  ( 0.000000000000000000, 0.000000000000000000, 5.000000000000000000 ) ) ;
#18 = ADVANCED_FACE ( 'NONE', ( #240, #9 ), #127, .T. ) ;
#19 = DIRECTION ( 'NONE',  ( 0.000000000000000000, 0.000000000000000000, 1.000000000000000000 ) ) ;
#20 = DIRECTION ( 'NONE',  ( 1.000000000000000000, 0.000000000000000000, 0.000000000000000000 ) ) ;
#21 = EDGE_LOOP ( 'NONE', ( #62, #154, #66, #146 ) ) ;
#22 = DIRECTION ( 'NONE',  ( -1.000000000000000000, 0.000000000000000000, 0.000000000000000000 ) ) ;
#23 = EDGE_CURVE ( 'NONE', #345, #323, #225, .T. ) ;
#24 = ORIENTED_EDGE ( 'NONE', *, *, #65, .T. ) ;
#25 = CC_DESIGN_APPROVAL ( #171, ( #186 ) ) ;
#26 = CARTESIAN_POINT ( 'NONE',  ( 0.000000000000000000, 0.000000000000000000, 0.000000000000000000 ) ) ;
#27 = EDGE_LOOP ( 'NONE', ( #299, #183 ) ) ;
#28 = DIRECTION ( 'NONE',  ( 0.000000000000000000, 0.000000000000000000, 1.000000000000000000 ) ) ;
#29 = ORIENTED_EDGE ( 'NONE', *, *, #267, .F. ) ;
#30 = CARTESIAN_POINT ( 'NONE',  ( 0.000000000000000000, 0.000000000000000000, 155.0000000000000000 ) ) ;
#31 = CIRCLE ( 'NONE', #83, 3.100000000000000089 ) ;
#32 = DIRECTION ( 'NONE',  ( 1.000000000000000000, 0.000000000000000000, 0.000000000000000000 ) ) ;
#33 = PERSON_AND_ORGANIZATION_ROLE ( 'design_supplier' ) ;
#34 = CARTESIAN_POINT ( 'NONE',  ( 0.000000000000000000, 0.000000000000000000, 5.000000000000000000 ) ) ;
#35 = CALENDAR_DATE ( 2022, 8, 7 ) ;
#36 = ORIENTED_EDGE ( 'NONE', *, *, #74, .F. ) ;
#37 = CALENDAR_DATE ( 2022, 8, 7 ) ;
#38 = DIRECTION ( 'NONE',  ( 1.000000000000000000, 0.000000000000000000, -0.000000000000000000 ) ) ;
#39 = APPROVAL_ROLE ( '' ) ;
#40 = DIRECTION ( 'NONE',  ( 0.000000000000000000, 0.000000000000000000, -1.000000000000000000 ) ) ;
#41 = DIRECTION ( 'NONE',  ( -0.000000000000000000, -0.000000000000000000, -1.000000000000000000 ) ) ;
#42 = LOCAL_TIME ( 16, 51, 4.000000000000000000, #205 ) ;
#43 = CARTESIAN_POINT ( 'NONE',  ( 5.500000000000000000, 0.000000000000000000, 5.000000000000002665 ) ) ;
#44 = CARTESIAN_POINT ( 'NONE',  ( -3.100000000000000089, 0.000000000000000000, 155.0000000000000000 ) ) ;
#45 = DIRECTION ( 'NONE',  ( 1.000000000000000000, 0.000000000000000000, -0.000000000000000000 ) ) ;
#46 = AXIS2_PLACEMENT_3D ( 'NONE', #34, #100, #32 ) ;
#47 = ADVANCED_BREP_SHAPE_REPRESENTATION ( 'd1c1', ( #4, #84 ), #354 ) ;
#48 = DIRECTION ( 'NONE',  ( 0.000000000000000000, 0.000000000000000000, 1.000000000000000000 ) ) ;
#49 = CIRCLE ( 'NONE', #219, 5.000000000000000000 ) ;
#50 = CARTESIAN_POINT ( 'NONE',  ( 0.000000000000000000, 0.000000000000000000, 155.0000000000000000 ) ) ;
#51 = ADVANCED_FACE ( 'NONE', ( #206 ), #238, .T. ) ;
#52 = CARTESIAN_POINT ( 'NONE',  ( -8.000000000000000000, 0.000000000000000000, 5.000000000000000000 ) ) ;
#53 = DIRECTION ( 'NONE',  ( 0.000000000000000000, 0.000000000000000000, 1.000000000000000000 ) ) ;
#54 = CIRCLE ( 'NONE', #192, 0.5000000000000004441 ) ;
#55 = ORIENTED_EDGE ( 'NONE', *, *, #310, .T. ) ;
#56 = CARTESIAN_POINT ( 'NONE',  ( 0.000000000000000000, 0.000000000000000000, 5.500000000000005329 ) ) ;
#57 = EDGE_LOOP ( 'NONE', ( #360, #227, #122, #262 ) ) ;
#58 = DIRECTION ( 'NONE',  ( 1.000000000000000000, 0.000000000000000000, 0.000000000000000000 ) ) ;
#59 = ORIENTED_EDGE ( 'NONE', *, *, #8, .F. ) ;
#60 = CC_DESIGN_DATE_AND_TIME_ASSIGNMENT ( #156, #207, ( #128 ) ) ;
#61 = APPROVAL_DATE_TIME ( #199, #171 ) ;
#62 = ORIENTED_EDGE ( 'NONE', *, *, #250, .T. ) ;
#63 = ORIENTED_EDGE ( 'NONE', *, *, #78, .F. ) ;
#64 = APPROVAL_DATE_TIME ( #93, #362 ) ;
#65 = EDGE_CURVE ( 'NONE', #259, #376, #359, .T. ) ;
#66 = ORIENTED_EDGE ( 'NONE', *, *, #202, .T. ) ;
#67 = PRODUCT ( 'd1c1', 'd1c1', '', ( #162 ) ) ;
#68 = PERSON_AND_ORGANIZATION ( #184, #243 ) ;
#69 = CARTESIAN_POINT ( 'NONE',  ( 5.500000000000000000, 0.000000000000000000, 5.500000000000005329 ) ) ;
#70 = LOCAL_TIME ( 16, 51, 4.000000000000000000, #203 ) ;
#71 = CALENDAR_DATE ( 2022, 8, 7 ) ;
#72 = ORIENTED_EDGE ( 'NONE', *, *, #115, .F. ) ;
#73 = CARTESIAN_POINT ( 'NONE',  ( 5.000000000000000000, 6.123233995736766282E-16, 155.0000000000000000 ) ) ;
#74 = EDGE_CURVE ( 'NONE', #376, #271, #260, .T. ) ;
#75 = CARTESIAN_POINT ( 'NONE',  ( 0.000000000000000000, 0.000000000000000000, 5.500000000000005329 ) ) ;
#76 = DIRECTION ( 'NONE',  ( 0.000000000000000000, 0.000000000000000000, 1.000000000000000000 ) ) ;
#77 = EDGE_CURVE ( 'NONE', #376, #257, #81, .T. ) ;
#78 = EDGE_CURVE ( 'NONE', #271, #118, #132, .T. ) ;
#79 = CARTESIAN_POINT ( 'NONE',  ( 0.000000000000000000, 0.000000000000000000, 0.000000000000000000 ) ) ;
#80 = CARTESIAN_POINT ( 'NONE',  ( -5.000000000000000000, 0.000000000000000000, 5.500000000000005329 ) ) ;
#81 = CIRCLE ( 'NONE', #292, 5.000000000000000000 ) ;
#82 = DIRECTION ( 'NONE',  ( -0.000000000000000000, -0.000000000000000000, -1.000000000000000000 ) ) ;
#83 = AXIS2_PLACEMENT_3D ( 'NONE', #275, #41, #368 ) ;
#84 = AXIS2_PLACEMENT_3D ( 'NONE', #173, #28, #331 ) ;
#85 = ORIENTED_EDGE ( 'NONE', *, *, #7, .F. ) ;
#86 = AXIS2_PLACEMENT_3D ( 'NONE', #355, #157, #38 ) ;
#87 = EDGE_LOOP ( 'NONE', ( #114, #294 ) ) ;
#88 = EDGE_LOOP ( 'NONE', ( #102, #343 ) ) ;
#89 = FACE_OUTER_BOUND ( 'NONE', #11, .T. ) ;
#90 = ADVANCED_FACE ( 'NONE', ( #124 ), #304, .F. ) ;
#91 = VERTEX_POINT ( 'NONE', #326 ) ;
#92 = SECURITY_CLASSIFICATION_LEVEL ( 'unclassified' ) ;
#93 = DATE_AND_TIME ( #237, #70 ) ;
#94 = ORIENTED_EDGE ( 'NONE', *, *, #77, .F. ) ;
#95 = CIRCLE ( 'NONE', #341, 8.000000000000000000 ) ;
#96 = ADVANCED_FACE ( 'NONE', ( #335 ), #110, .T. ) ;
#97 = APPROVAL_PERSON_ORGANIZATION ( #5, #171, #379 ) ;
#98 = ORIENTED_EDGE ( 'NONE', *, *, #147, .F. ) ;
#99 = PERSON_AND_ORGANIZATION_ROLE ( 'classification_officer' ) ;
#100 = DIRECTION ( 'NONE',  ( 0.000000000000000000, 0.000000000000000000, 1.000000000000000000 ) ) ;
#101 = VECTOR ( 'NONE', #212, 1000.000000000000000 ) ;
#102 = ORIENTED_EDGE ( 'NONE', *, *, #250, .F. ) ;
#103 = AXIS2_PLACEMENT_3D ( 'NONE', #56, #149, #169 ) ;
#104 = ORIENTED_EDGE ( 'NONE', *, *, #344, .T. ) ;
#105 = EDGE_CURVE ( 'NONE', #91, #179, #336, .T. ) ;
#106 = CARTESIAN_POINT ( 'NONE',  ( 5.000000000000000000, 6.123233995736766282E-16, 155.0000000000000000 ) ) ;
#107 = CARTESIAN_POINT ( 'NONE',  ( -5.500000000000000000, 6.735557395310442023E-16, 5.000000000000002665 ) ) ;
#108 = EDGE_CURVE ( 'NONE', #161, #348, #95, .T. ) ;
#109 = APPROVAL_PERSON_ORGANIZATION ( #123, #362, #327 ) ;
#110 = CYLINDRICAL_SURFACE ( 'NONE', #352, 8.000000000000000000 ) ;
#111 = DIRECTION ( 'NONE',  ( 0.000000000000000000, 0.000000000000000000, 1.000000000000000000 ) ) ;
#112 = DIRECTION ( 'NONE',  ( 1.000000000000000000, 0.000000000000000000, 0.000000000000000000 ) ) ;
#113 = CIRCLE ( 'NONE', #263, 8.000000000000000000 ) ;
#114 = ORIENTED_EDGE ( 'NONE', *, *, #23, .F. ) ;
#115 = EDGE_CURVE ( 'NONE', #118, #271, #256, .T. ) ;
#116 = DIRECTION ( 'NONE',  ( -0.000000000000000000, -0.000000000000000000, -1.000000000000000000 ) ) ;
#117 = DIRECTION ( 'NONE',  ( 0.000000000000000000, 0.000000000000000000, -1.000000000000000000 ) ) ;
#118 = VERTEX_POINT ( 'NONE', #107 ) ;
#119 = FACE_OUTER_BOUND ( 'NONE', #328, .T. ) ;
#120 = AXIS2_PLACEMENT_3D ( 'NONE', #276, #48, #307 ) ;
#121 = CYLINDRICAL_SURFACE ( 'NONE', #338, 8.000000000000000000 ) ;
#122 = ORIENTED_EDGE ( 'NONE', *, *, #337, .T. ) ;
#123 = PERSON_AND_ORGANIZATION ( #184, #243 ) ;
#124 = FACE_OUTER_BOUND ( 'NONE', #21, .T. ) ;
#125 = APPROVAL ( #358, 'NEURÈENÝ' ) ;
#126 = AXIS2_PLACEMENT_3D ( 'NONE', #234, #40, #351 ) ;
#127 = PLANE ( 'NONE',  #86 ) ;
#128 = SECURITY_CLASSIFICATION ( '', '', #92 ) ;
#129 = COORDINATED_UNIVERSAL_TIME_OFFSET ( 1, 0, .AHEAD. ) ;
#130 = DIRECTION ( 'NONE',  ( -1.000000000000000000, 0.000000000000000000, 0.000000000000000000 ) ) ;
#131 = ORIENTED_EDGE ( 'NONE', *, *, #74, .T. ) ;
#132 = CIRCLE ( 'NONE', #10, 5.500000000000000000 ) ;
#133 = EDGE_CURVE ( 'NONE', #152, #283, #158, .T. ) ;
#134 = EDGE_LOOP ( 'NONE', ( #301, #374 ) ) ;
#135 = FACE_BOUND ( 'NONE', #87, .T. ) ;
#136 = CARTESIAN_POINT ( 'NONE',  ( 0.000000000000000000, 0.000000000000000000, 155.0000000000000000 ) ) ;
#137 = CARTESIAN_POINT ( 'NONE',  ( 0.000000000000000000, 0.000000000000000000, 155.0000000000000000 ) ) ;
#138 = ADVANCED_FACE ( 'NONE', ( #14 ), #143, .F. ) ;
#139 = DIRECTION ( 'NONE',  ( 0.000000000000000000, 0.000000000000000000, 1.000000000000000000 ) ) ;
#140 = EDGE_LOOP ( 'NONE', ( #98, #288, #55, #198 ) ) ;
#141 = AXIS2_PLACEMENT_3D ( 'NONE', #50, #116, #22 ) ;
#142 = CYLINDRICAL_SURFACE ( 'NONE', #220, 3.100000000000000089 ) ;
#143 = TOROIDAL_SURFACE ( 'NONE', #120, 5.500000000000000000, 0.5000000000000000000 ) ;
#144 = EDGE_LOOP ( 'NONE', ( #29, #94, #131, #72 ) ) ;
#145 = LINE ( 'NONE', #151, #3 ) ;
#146 = ORIENTED_EDGE ( 'NONE', *, *, #337, .F. ) ;
#147 = EDGE_CURVE ( 'NONE', #179, #348, #361, .T. ) ;
#148 = ADVANCED_FACE ( 'NONE', ( #189, #218 ), #246, .T. ) ;
#149 = DIRECTION ( 'NONE',  ( 0.000000000000000000, 0.000000000000000000, 1.000000000000000000 ) ) ;
#150 = EDGE_LOOP ( 'NONE', ( #255, #175 ) ) ;
#151 = CARTESIAN_POINT ( 'NONE',  ( -3.100000000000000089, 0.000000000000000000, 155.0000000000000000 ) ) ;
#152 = VERTEX_POINT ( 'NONE', #244 ) ;
#153 = CC_DESIGN_APPROVAL ( #362, ( #188 ) ) ;
#154 = ORIENTED_EDGE ( 'NONE', *, *, #333, .T. ) ;
#155 = LINE ( 'NONE', #266, #101 ) ;
#156 = DATE_AND_TIME ( #305, #296 ) ;
#157 = DIRECTION ( 'NONE',  ( 0.000000000000000000, 0.000000000000000000, 1.000000000000000000 ) ) ;
#158 = CIRCLE ( 'NONE', #177, 3.100000000000000089 ) ;
#159 = PRODUCT_DEFINITION_SHAPE ( 'NONE', 'NONE',  #186 ) ;
#160 = PERSON_AND_ORGANIZATION ( #184, #243 ) ;
#161 = VERTEX_POINT ( 'NONE', #13 ) ;
#162 = MECHANICAL_CONTEXT ( 'NONE', #247, 'mechanical' ) ;
#163 = ORIENTED_EDGE ( 'NONE', *, *, #77, .T. ) ;
#164 = DIRECTION ( 'NONE',  ( 1.000000000000000000, 0.000000000000000000, 0.000000000000000000 ) ) ;
#165 = DIRECTION ( 'NONE',  ( -0.000000000000000000, -0.000000000000000000, -1.000000000000000000 ) ) ;
#166 = CARTESIAN_POINT ( 'NONE',  ( 8.000000000000000000, 9.797174393178825657E-16, 5.000000000000000000 ) ) ;
#167 = CARTESIAN_POINT ( 'NONE',  ( -5.000000000000000000, 0.000000000000000000, 155.0000000000000000 ) ) ;
#168 = DIRECTION ( 'NONE',  ( 1.000000000000000000, 0.000000000000000000, 0.000000000000000000 ) ) ;
#169 = DIRECTION ( 'NONE',  ( 1.000000000000000000, 0.000000000000000000, 0.000000000000000000 ) ) ;
#170 = DIRECTION ( 'NONE',  ( -0.000000000000000000, -0.000000000000000000, -1.000000000000000000 ) ) ;
#171 = APPROVAL ( #324, 'NEURÈENÝ' ) ;
#172 = ORIENTED_EDGE ( 'NONE', *, *, #277, .T. ) ;
#173 = CARTESIAN_POINT ( 'NONE',  ( 0.000000000000000000, 0.000000000000000000, 0.000000000000000000 ) ) ;
#174 =( LENGTH_UNIT ( ) NAMED_UNIT ( * ) SI_UNIT ( .MILLI., .METRE. ) );
#175 = ORIENTED_EDGE ( 'NONE', *, *, #115, .T. ) ;
#176 = PERSON_AND_ORGANIZATION_ROLE ( 'creator' ) ;
#177 = AXIS2_PLACEMENT_3D ( 'NONE', #137, #216, #366 ) ;
#178 = DESIGN_CONTEXT ( 'detailed design', #284, 'design' ) ;
#179 = VERTEX_POINT ( 'NONE', #252 ) ;
#180 = COORDINATED_UNIVERSAL_TIME_OFFSET ( 1, 0, .AHEAD. ) ;
#181 = DIRECTION ( 'NONE',  ( 0.000000000000000000, 0.000000000000000000, 1.000000000000000000 ) ) ;
#182 = PERSON_AND_ORGANIZATION ( #184, #243 ) ;
#183 = ORIENTED_EDGE ( 'NONE', *, *, #7, .T. ) ;
#184 = PERSON ( 'NEURÈENÝ', 'NEURÈENÝ', 'NEURÈENÝ', ('NEURÈENÝ'), ('NEURÈENÝ'), ('NEURÈENÝ') ) ;
#185 = CARTESIAN_POINT ( 'NONE',  ( 0.000000000000000000, 0.000000000000000000, 5.000000000000000000 ) ) ;
#186 = PRODUCT_DEFINITION ( 'NEZNÁMÝ', '', #188, #178 ) ;
#187 = DIRECTION ( 'NONE',  ( 1.224646799147353207E-16, 1.000000000000000000, -0.000000000000000000 ) ) ;
#188 = PRODUCT_DEFINITION_FORMATION_WITH_SPECIFIED_SOURCE ( 'LIBOVOLNÝ', '', #67, .NOT_KNOWN. ) ;
#189 = FACE_BOUND ( 'NONE', #88, .T. ) ;
#190 = DIRECTION ( 'NONE',  ( 0.000000000000000000, 0.000000000000000000, 1.000000000000000000 ) ) ;
#191 = CC_DESIGN_PERSON_AND_ORGANIZATION_ASSIGNMENT ( #160, #329, ( #186 ) ) ;
#192 = AXIS2_PLACEMENT_3D ( 'NONE', #213, #187, #308 ) ;
#193 = CARTESIAN_POINT ( 'NONE',  ( 3.100000000000000089, 3.796405077356794918E-16, 0.000000000000000000 ) ) ;
#194 = CC_DESIGN_PERSON_AND_ORGANIZATION_ASSIGNMENT ( #356, #99, ( #128 ) ) ;
#195 = ORIENTED_EDGE ( 'NONE', *, *, #372, .T. ) ;
#196 = ORIENTED_EDGE ( 'NONE', *, *, #254, .T. ) ;
#197 = CARTESIAN_POINT ( 'NONE',  ( -3.100000000000000089, 0.000000000000000000, 0.000000000000000000 ) ) ;
#198 = ORIENTED_EDGE ( 'NONE', *, *, #108, .T. ) ;
#199 = DATE_AND_TIME ( #35, #42 ) ;
#200 = AXIS2_PLACEMENT_3D ( 'NONE', #210, #6, #130 ) ;
#201 = ORIENTED_EDGE ( 'NONE', *, *, #310, .F. ) ;
#202 = EDGE_CURVE ( 'NONE', #323, #345, #31, .T. ) ;
#203 = COORDINATED_UNIVERSAL_TIME_OFFSET ( 1, 0, .AHEAD. ) ;
#204 = CARTESIAN_POINT ( 'NONE',  ( 0.000000000000000000, 0.000000000000000000, 5.500000000000005329 ) ) ;
#205 = COORDINATED_UNIVERSAL_TIME_OFFSET ( 1, 0, .AHEAD. ) ;
#206 = FACE_OUTER_BOUND ( 'NONE', #222, .T. ) ;
#207 = DATE_TIME_ROLE ( 'classification_date' ) ;
#208 = DIRECTION ( 'NONE',  ( 0.000000000000000000, 0.000000000000000000, -1.000000000000000000 ) ) ;
#209 = PERSON_AND_ORGANIZATION ( #184, #243 ) ;
#210 = CARTESIAN_POINT ( 'NONE',  ( 0.000000000000000000, 0.000000000000000000, 155.0000000000000000 ) ) ;
#211 = VECTOR ( 'NONE', #117, 1000.000000000000000 ) ;
#212 = DIRECTION ( 'NONE',  ( -0.000000000000000000, -0.000000000000000000, -1.000000000000000000 ) ) ;
#213 = CARTESIAN_POINT ( 'NONE',  ( -5.500000000000000000, 6.735557395310442023E-16, 5.500000000000005329 ) ) ;
#214 = AXIS2_PLACEMENT_3D ( 'NONE', #26, #53, #315 ) ;
#215 = LOCAL_TIME ( 16, 51, 4.000000000000000000, #302 ) ;
#216 = DIRECTION ( 'NONE',  ( 0.000000000000000000, 0.000000000000000000, 1.000000000000000000 ) ) ;
#217 = DIRECTION ( 'NONE',  ( -1.000000000000000000, 0.000000000000000000, 0.000000000000000000 ) ) ;
#218 = FACE_OUTER_BOUND ( 'NONE', #330, .T. ) ;
#219 = AXIS2_PLACEMENT_3D ( 'NONE', #261, #289, #20 ) ;
#220 = AXIS2_PLACEMENT_3D ( 'NONE', #30, #226, #375 ) ;
#221 = DIRECTION ( 'NONE',  ( -1.000000000000000000, 0.000000000000000000, 0.000000000000000000 ) ) ;
#222 = EDGE_LOOP ( 'NONE', ( #321, #264, #378, #196 ) ) ;
#223 = PRODUCT_RELATED_PRODUCT_CATEGORY ( 'detail', '', ( #67 ) ) ;
#224 = ORIENTED_EDGE ( 'NONE', *, *, #267, .T. ) ;
#225 = CIRCLE ( 'NONE', #233, 3.100000000000000089 ) ;
#226 = DIRECTION ( 'NONE',  ( 0.000000000000000000, 0.000000000000000000, -1.000000000000000000 ) ) ;
#227 = ORIENTED_EDGE ( 'NONE', *, *, #133, .T. ) ;
#228 = CIRCLE ( 'NONE', #279, 5.000000000000000000 ) ;
#229 = CARTESIAN_POINT ( 'NONE',  ( 0.000000000000000000, 0.000000000000000000, 5.000000000000000000 ) ) ;
#230 = ORIENTED_EDGE ( 'NONE', *, *, #254, .F. ) ;
#231 = EDGE_LOOP ( 'NONE', ( #290, #24, #163, #59 ) ) ;
#232 = PERSON_AND_ORGANIZATION ( #184, #243 ) ;
#233 = AXIS2_PLACEMENT_3D ( 'NONE', #270, #334, #2 ) ;
#234 = CARTESIAN_POINT ( 'NONE',  ( 0.000000000000000000, 0.000000000000000000, 155.0000000000000000 ) ) ;
#235 = DATE_AND_TIME ( #71, #370 ) ;
#236 = CC_DESIGN_DATE_AND_TIME_ASSIGNMENT ( #235, #1, ( #186 ) ) ;
#237 = CALENDAR_DATE ( 2022, 8, 7 ) ;
#238 = CYLINDRICAL_SURFACE ( 'NONE', #200, 5.000000000000000000 ) ;
#239 = PERSON_AND_ORGANIZATION_ROLE ( 'design_owner' ) ;
#240 = FACE_BOUND ( 'NONE', #150, .T. ) ;
#241 = AXIS2_PLACEMENT_3D ( 'NONE', #69, #297, #208 ) ;
#242 = VERTEX_POINT ( 'NONE', #167 ) ;
#243 = ORGANIZATION ( 'NEURÈENÝ', 'NEURÈENÝ', '' ) ;
#244 = CARTESIAN_POINT ( 'NONE',  ( 3.100000000000000089, 3.796405077356794918E-16, 155.0000000000000000 ) ) ;
#245 = CC_DESIGN_PERSON_AND_ORGANIZATION_ASSIGNMENT ( #232, #176, ( #188 ) ) ;
#246 = PLANE ( 'NONE',  #12 ) ;
#247 = APPLICATION_CONTEXT ( 'configuration controlled 3d designs of mechanical parts and assemblies' ) ;
#248 = FACE_OUTER_BOUND ( 'NONE', #134, .T. ) ;
#249 = CC_DESIGN_APPROVAL ( #125, ( #128 ) ) ;
#250 = EDGE_CURVE ( 'NONE', #283, #152, #353, .T. ) ;
#251 = DIRECTION ( 'NONE',  ( 0.000000000000000000, 0.000000000000000000, 1.000000000000000000 ) ) ;
#252 = CARTESIAN_POINT ( 'NONE',  ( 8.000000000000000000, 9.797174393178825657E-16, 5.000000000000000000 ) ) ;
#253 = VECTOR ( 'NONE', #357, 1000.000000000000000 ) ;
#254 = EDGE_CURVE ( 'NONE', #257, #376, #346, .T. ) ;
#255 = ORIENTED_EDGE ( 'NONE', *, *, #78, .T. ) ;
#256 = CIRCLE ( 'NONE', #309, 5.500000000000000000 ) ;
#257 = VERTEX_POINT ( 'NONE', #80 ) ;
#258 = FACE_OUTER_BOUND ( 'NONE', #57, .T. ) ;
#259 = VERTEX_POINT ( 'NONE', #106 ) ;
#260 = CIRCLE ( 'NONE', #241, 0.5000000000000004441 ) ;
#261 = CARTESIAN_POINT ( 'NONE',  ( 0.000000000000000000, 0.000000000000000000, 155.0000000000000000 ) ) ;
#262 = ORIENTED_EDGE ( 'NONE', *, *, #23, .T. ) ;
#263 = AXIS2_PLACEMENT_3D ( 'NONE', #282, #139, #58 ) ;
#264 = ORIENTED_EDGE ( 'NONE', *, *, #277, .F. ) ;
#265 = CARTESIAN_POINT ( 'NONE',  ( 0.000000000000000000, 0.000000000000000000, 5.000000000000000000 ) ) ;
#266 = CARTESIAN_POINT ( 'NONE',  ( -5.000000000000000000, 0.000000000000000000, 155.0000000000000000 ) ) ;
#267 = EDGE_CURVE ( 'NONE', #257, #118, #54, .T. ) ;
#268 = DATE_AND_TIME ( #37, #215 ) ;
#269 = AXIS2_PLACEMENT_3D ( 'NONE', #136, #251, #112 ) ;
#270 = CARTESIAN_POINT ( 'NONE',  ( 0.000000000000000000, 0.000000000000000000, 0.000000000000000000 ) ) ;
#271 = VERTEX_POINT ( 'NONE', #43 ) ;
#272 = APPROVAL_DATE_TIME ( #268, #125 ) ;
#273 = ORIENTED_EDGE ( 'NONE', *, *, #147, .T. ) ;
#274 = DIRECTION ( 'NONE',  ( 0.000000000000000000, 0.000000000000000000, 1.000000000000000000 ) ) ;
#275 = CARTESIAN_POINT ( 'NONE',  ( 0.000000000000000000, 0.000000000000000000, 0.000000000000000000 ) ) ;
#276 = CARTESIAN_POINT ( 'NONE',  ( 0.000000000000000000, 0.000000000000000000, 5.500000000000005329 ) ) ;
#277 = EDGE_CURVE ( 'NONE', #242, #259, #228, .T. ) ;
#278 = DIRECTION ( 'NONE',  ( -0.000000000000000000, -0.000000000000000000, -1.000000000000000000 ) ) ;
#279 = AXIS2_PLACEMENT_3D ( 'NONE', #363, #190, #312 ) ;
#280 = CARTESIAN_POINT ( 'NONE',  ( 0.000000000000000000, 0.000000000000000000, 5.000000000000000000 ) ) ;
#281 = DIRECTION ( 'NONE',  ( 0.000000000000000000, 0.000000000000000000, -1.000000000000000000 ) ) ;
#282 = CARTESIAN_POINT ( 'NONE',  ( 0.000000000000000000, 0.000000000000000000, 0.000000000000000000 ) ) ;
#283 = VERTEX_POINT ( 'NONE', #44 ) ;
#284 = APPLICATION_CONTEXT ( 'configuration controlled 3d designs of mechanical parts and assemblies' ) ;
#285 = VECTOR ( 'NONE', #82, 1000.000000000000000 ) ;
#286 = CC_DESIGN_SECURITY_CLASSIFICATION ( #128, ( #188 ) ) ;
#287 = APPLICATION_PROTOCOL_DEFINITION ( 'international standard', 'config_control_design', 1994, #247 ) ;
#288 = ORIENTED_EDGE ( 'NONE', *, *, #105, .F. ) ;
#289 = DIRECTION ( 'NONE',  ( 0.000000000000000000, 0.000000000000000000, 1.000000000000000000 ) ) ;
#290 = ORIENTED_EDGE ( 'NONE', *, *, #344, .F. ) ;
#291 = ADVANCED_FACE ( 'NONE', ( #135, #248 ), #364, .F. ) ;
#292 = AXIS2_PLACEMENT_3D ( 'NONE', #204, #181, #332 ) ;
#293 =( NAMED_UNIT ( * ) PLANE_ANGLE_UNIT ( ) SI_UNIT ( $, .RADIAN. ) );
#294 = ORIENTED_EDGE ( 'NONE', *, *, #202, .F. ) ;
#295 = UNCERTAINTY_MEASURE_WITH_UNIT (LENGTH_MEASURE( 1.000000000000000082E-05 ), #174, 'distance_accuracy_value', 'NONE');
#296 = LOCAL_TIME ( 16, 51, 4.000000000000000000, #180 ) ;
#297 = DIRECTION ( 'NONE',  ( 0.000000000000000000, -1.000000000000000000, 0.000000000000000000 ) ) ;
#298 = ADVANCED_FACE ( 'NONE', ( #322 ), #342, .T. ) ;
#299 = ORIENTED_EDGE ( 'NONE', *, *, #105, .T. ) ;
#300 = APPROVAL_STATUS ( 'not_yet_approved' ) ;
#301 = ORIENTED_EDGE ( 'NONE', *, *, #108, .F. ) ;
#302 = COORDINATED_UNIVERSAL_TIME_OFFSET ( 1, 0, .AHEAD. ) ;
#303 = AXIS2_PLACEMENT_3D ( 'NONE', #75, #111, #340 ) ;
#304 = CYLINDRICAL_SURFACE ( 'NONE', #126, 3.100000000000000089 ) ;
#305 = CALENDAR_DATE ( 2022, 8, 7 ) ;
#306 = DIRECTION ( 'NONE',  ( -0.000000000000000000, -0.000000000000000000, -1.000000000000000000 ) ) ;
#307 = DIRECTION ( 'NONE',  ( 1.000000000000000000, 0.000000000000000000, 0.000000000000000000 ) ) ;
#308 = DIRECTION ( 'NONE',  ( -1.000000000000000000, 1.224646799147351482E-16, 0.000000000000000000 ) ) ;
#309 = AXIS2_PLACEMENT_3D ( 'NONE', #280, #278, #339 ) ;
#310 = EDGE_CURVE ( 'NONE', #91, #161, #319, .T. ) ;
#311 = DIRECTION ( 'NONE',  ( -0.000000000000000000, -0.000000000000000000, -1.000000000000000000 ) ) ;
#312 = DIRECTION ( 'NONE',  ( 1.000000000000000000, 0.000000000000000000, 0.000000000000000000 ) ) ;
#313 = CARTESIAN_POINT ( 'NONE',  ( 3.100000000000000089, 3.796405077356794918E-16, 155.0000000000000000 ) ) ;
#314 = CC_DESIGN_PERSON_AND_ORGANIZATION_ASSIGNMENT ( #182, #33, ( #188 ) ) ;
#315 = DIRECTION ( 'NONE',  ( 1.000000000000000000, 0.000000000000000000, -0.000000000000000000 ) ) ;
#316 = VECTOR ( 'NONE', #311, 1000.000000000000000 ) ;
#317 = APPROVAL_PERSON_ORGANIZATION ( #68, #125, #39 ) ;
#318 = ADVANCED_FACE ( 'NONE', ( #119 ), #121, .T. ) ;
#319 = LINE ( 'NONE', #52, #285 ) ;
#320 = ADVANCED_FACE ( 'NONE', ( #89 ), #377, .F. ) ;
#321 = ORIENTED_EDGE ( 'NONE', *, *, #65, .F. ) ;
#322 = FACE_OUTER_BOUND ( 'NONE', #231, .T. ) ;
#323 = VERTEX_POINT ( 'NONE', #193 ) ;
#324 = APPROVAL_STATUS ( 'not_yet_approved' ) ;
#325 = SHAPE_DEFINITION_REPRESENTATION ( #159, #47 ) ;
#326 = CARTESIAN_POINT ( 'NONE',  ( -8.000000000000000000, 0.000000000000000000, 5.000000000000000000 ) ) ;
#327 = APPROVAL_ROLE ( '' ) ;
#328 = EDGE_LOOP ( 'NONE', ( #85, #273, #195, #201 ) ) ;
#329 = PERSON_AND_ORGANIZATION_ROLE ( 'creator' ) ;
#330 = EDGE_LOOP ( 'NONE', ( #172, #104 ) ) ;
#331 = DIRECTION ( 'NONE',  ( 1.000000000000000000, 0.000000000000000000, 0.000000000000000000 ) ) ;
#332 = DIRECTION ( 'NONE',  ( 1.000000000000000000, 0.000000000000000000, 0.000000000000000000 ) ) ;
#333 = EDGE_CURVE ( 'NONE', #152, #323, #347, .T. ) ;
#334 = DIRECTION ( 'NONE',  ( -0.000000000000000000, -0.000000000000000000, -1.000000000000000000 ) ) ;
#335 = FACE_OUTER_BOUND ( 'NONE', #140, .T. ) ;
#336 = CIRCLE ( 'NONE', #365, 8.000000000000000000 ) ;
#337 = EDGE_CURVE ( 'NONE', #283, #345, #145, .T. ) ;
#338 = AXIS2_PLACEMENT_3D ( 'NONE', #229, #170, #221 ) ;
#339 = DIRECTION ( 'NONE',  ( 1.000000000000000000, 0.000000000000000000, 0.000000000000000000 ) ) ;
#340 = DIRECTION ( 'NONE',  ( 1.000000000000000000, 0.000000000000000000, 0.000000000000000000 ) ) ;
#341 = AXIS2_PLACEMENT_3D ( 'NONE', #79, #19, #168 ) ;
#342 = CYLINDRICAL_SURFACE ( 'NONE', #141, 5.000000000000000000 ) ;
#343 = ORIENTED_EDGE ( 'NONE', *, *, #133, .F. ) ;
#344 = EDGE_CURVE ( 'NONE', #259, #242, #49, .T. ) ;
#345 = VERTEX_POINT ( 'NONE', #197 ) ;
#346 = CIRCLE ( 'NONE', #303, 5.000000000000000000 ) ;
#347 = LINE ( 'NONE', #313, #211 ) ;
#348 = VERTEX_POINT ( 'NONE', #369 ) ;
#349 = CLOSED_SHELL ( 'NONE', ( #90, #320, #298, #318, #96, #18, #291, #51, #148, #138, #380 ) ) ;
#350 = APPLICATION_PROTOCOL_DEFINITION ( 'international standard', 'config_control_design', 1994, #284 ) ;
#351 = DIRECTION ( 'NONE',  ( -1.000000000000000000, 0.000000000000000000, 0.000000000000000000 ) ) ;
#352 = AXIS2_PLACEMENT_3D ( 'NONE', #17, #165, #217 ) ;
#353 = CIRCLE ( 'NONE', #269, 3.100000000000000089 ) ;
#354 =( GEOMETRIC_REPRESENTATION_CONTEXT ( 3 ) GLOBAL_UNCERTAINTY_ASSIGNED_CONTEXT ( ( #295 ) ) GLOBAL_UNIT_ASSIGNED_CONTEXT ( ( #174, #293, #371 ) ) REPRESENTATION_CONTEXT ( 'NONE', 'WORKASPACE' ) );
#355 = CARTESIAN_POINT ( 'NONE',  ( 0.000000000000000000, 0.000000000000000000, 5.000000000000000000 ) ) ;
#356 = PERSON_AND_ORGANIZATION ( #184, #243 ) ;
#357 = DIRECTION ( 'NONE',  ( -0.000000000000000000, -0.000000000000000000, -1.000000000000000000 ) ) ;
#358 = APPROVAL_STATUS ( 'not_yet_approved' ) ;
#359 = LINE ( 'NONE', #73, #253 ) ;
#360 = ORIENTED_EDGE ( 'NONE', *, *, #333, .F. ) ;
#361 = LINE ( 'NONE', #166, #316 ) ;
#362 = APPROVAL ( #300, 'NEURÈENÝ' ) ;
#363 = CARTESIAN_POINT ( 'NONE',  ( 0.000000000000000000, 0.000000000000000000, 155.0000000000000000 ) ) ;
#364 = PLANE ( 'NONE',  #214 ) ;
#365 = AXIS2_PLACEMENT_3D ( 'NONE', #185, #76, #164 ) ;
#366 = DIRECTION ( 'NONE',  ( 1.000000000000000000, 0.000000000000000000, 0.000000000000000000 ) ) ;
#367 = CC_DESIGN_PERSON_AND_ORGANIZATION_ASSIGNMENT ( #209, #239, ( #67 ) ) ;
#368 = DIRECTION ( 'NONE',  ( 1.000000000000000000, 0.000000000000000000, 0.000000000000000000 ) ) ;
#369 = CARTESIAN_POINT ( 'NONE',  ( 8.000000000000000000, 9.797174393178825657E-16, 0.000000000000000000 ) ) ;
#370 = LOCAL_TIME ( 16, 51, 4.000000000000000000, #129 ) ;
#371 =( NAMED_UNIT ( * ) SI_UNIT ( $, .STERADIAN. ) SOLID_ANGLE_UNIT ( ) );
#372 = EDGE_CURVE ( 'NONE', #348, #161, #113, .T. ) ;
#373 = CARTESIAN_POINT ( 'NONE',  ( 5.000000000000000000, 6.123233995736766282E-16, 5.500000000000005329 ) ) ;
#374 = ORIENTED_EDGE ( 'NONE', *, *, #372, .F. ) ;
#375 = DIRECTION ( 'NONE',  ( -1.000000000000000000, 0.000000000000000000, 0.000000000000000000 ) ) ;
#376 = VERTEX_POINT ( 'NONE', #373 ) ;
#377 = TOROIDAL_SURFACE ( 'NONE', #103, 5.500000000000000000, 0.5000000000000000000 ) ;
#378 = ORIENTED_EDGE ( 'NONE', *, *, #8, .T. ) ;
#379 = APPROVAL_ROLE ( '' ) ;
#380 = ADVANCED_FACE ( 'NONE', ( #258 ), #142, .F. ) ;
#381 = DIRECTION ( 'NONE',  ( 1.000000000000000000, 0.000000000000000000, 0.000000000000000000 ) ) ;
ENDSEC;
END-ISO-10303-21;
