ISO-10303-21;
HEADER;
FILE_DESCRIPTION (( 'STEP AP203' ),
    '1' );
FILE_NAME ('977a.STEP',
    '2022-07-08T15:51:55',
    ( '' ),
    ( '' ),
    'SwSTEP 2.0',
    'SolidWorks 2019',
    '' );
FILE_SCHEMA (( 'CONFIG_CONTROL_DESIGN' ));
ENDSEC;

DATA;
#1 = AXIS2_PLACEMENT_3D ( 'NONE', #101, #33, #219 ) ;
#2 = EDGE_CURVE ( 'NONE', #231, #347, #262, .T. ) ;
#3 = CARTESIAN_POINT ( 'NONE',  ( 0.000000000000000000, 0.000000000000000000, 3.000000000000000000 ) ) ;
#4 = AXIS2_PLACEMENT_3D ( 'NONE', #352, #268, #152 ) ;
#5 = PERSON_AND_ORGANIZATION_ROLE ( 'design_supplier' ) ;
#6 = PLANE ( 'NONE',  #232 ) ;
#7 = APPROVAL_STATUS ( 'not_yet_approved' ) ;
#8 = APPROVAL ( #7, 'NEURÈENÝ' ) ;
#9 = DIRECTION ( 'NONE',  ( 1.224646799147353207E-16, 1.000000000000000000, -0.000000000000000000 ) ) ;
#10 = AXIS2_PLACEMENT_3D ( 'NONE', #359, #159, #194 ) ;
#11 = PERSON_AND_ORGANIZATION ( #35, #32 ) ;
#12 = DIRECTION ( 'NONE',  ( -0.000000000000000000, -0.000000000000000000, -1.000000000000000000 ) ) ;
#13 = PERSON_AND_ORGANIZATION ( #35, #32 ) ;
#14 = CYLINDRICAL_SURFACE ( 'NONE', #289, 5.000000000000000000 ) ;
#15 = DIRECTION ( 'NONE',  ( 1.000000000000000000, 0.000000000000000000, 0.000000000000000000 ) ) ;
#16 = CIRCLE ( 'NONE', #64, 2.799999999999999822 ) ;
#17 = CARTESIAN_POINT ( 'NONE',  ( 0.000000000000000000, 0.000000000000000000, 278.0000000000000000 ) ) ;
#18 = CARTESIAN_POINT ( 'NONE',  ( 0.000000000000000000, 0.000000000000000000, 0.000000000000000000 ) ) ;
#19 = DIRECTION ( 'NONE',  ( 1.000000000000000000, 0.000000000000000000, 0.000000000000000000 ) ) ;
#20 = EDGE_CURVE ( 'NONE', #347, #29, #69, .T. ) ;
#21 = VECTOR ( 'NONE', #74, 1000.000000000000000 ) ;
#22 = EDGE_CURVE ( 'NONE', #355, #212, #63, .T. ) ;
#23 = DIRECTION ( 'NONE',  ( 1.000000000000000000, 0.000000000000000000, 0.000000000000000000 ) ) ;
#24 = VERTEX_POINT ( 'NONE', #309 ) ;
#25 = FACE_OUTER_BOUND ( 'NONE', #269, .T. ) ;
#26 = ORIENTED_EDGE ( 'NONE', *, *, #136, .F. ) ;
#27 = ORIENTED_EDGE ( 'NONE', *, *, #109, .F. ) ;
#28 = DIRECTION ( 'NONE',  ( -0.000000000000000000, -0.000000000000000000, -1.000000000000000000 ) ) ;
#29 = VERTEX_POINT ( 'NONE', #41 ) ;
#30 = CALENDAR_DATE ( 2022, 8, 7 ) ;
#31 = VERTEX_POINT ( 'NONE', #186 ) ;
#32 = ORGANIZATION ( 'NEURÈENÝ', 'NEURÈENÝ', '' ) ;
#33 = DIRECTION ( 'NONE',  ( 0.000000000000000000, 0.000000000000000000, 1.000000000000000000 ) ) ;
#34 = VECTOR ( 'NONE', #320, 1000.000000000000000 ) ;
#35 = PERSON ( 'NEURÈENÝ', 'NEURÈENÝ', 'NEURÈENÝ', ('NEURÈENÝ'), ('NEURÈENÝ'), ('NEURÈENÝ') ) ;
#36 = CC_DESIGN_PERSON_AND_ORGANIZATION_ASSIGNMENT ( #188, #281, ( #225 ) ) ;
#37 = ORIENTED_EDGE ( 'NONE', *, *, #49, .F. ) ;
#38 = APPROVAL_ROLE ( '' ) ;
#39 = FACE_OUTER_BOUND ( 'NONE', #181, .T. ) ;
#40 = CALENDAR_DATE ( 2022, 8, 7 ) ;
#41 = CARTESIAN_POINT ( 'NONE',  ( 2.799999999999999822, 0.000000000000000000, 3.000000000000012434 ) ) ;
#42 = AXIS2_PLACEMENT_3D ( 'NONE', #230, #341, #336 ) ;
#43 = CARTESIAN_POINT ( 'NONE',  ( 0.000000000000000000, 0.000000000000000000, 278.0000000000000000 ) ) ;
#44 = CARTESIAN_POINT ( 'NONE',  ( 0.000000000000000000, 0.000000000000000000, 278.0000000000000000 ) ) ;
#45 = ADVANCED_FACE ( 'NONE', ( #164 ), #14, .T. ) ;
#46 = DIRECTION ( 'NONE',  ( -1.000000000000000000, 0.000000000000000000, 0.000000000000000000 ) ) ;
#47 = DIRECTION ( 'NONE',  ( 0.000000000000000000, 0.000000000000000000, 1.000000000000000000 ) ) ;
#48 = DIRECTION ( 'NONE',  ( 0.000000000000000000, 0.000000000000000000, 1.000000000000000000 ) ) ;
#49 = EDGE_CURVE ( 'NONE', #381, #231, #350, .T. ) ;
#50 = CIRCLE ( 'NONE', #273, 2.500000000000000000 ) ;
#51 = CARTESIAN_POINT ( 'NONE',  ( -2.500000000000000000, 0.000000000000000000, 278.0000000000000000 ) ) ;
#52 = ORIENTED_EDGE ( 'NONE', *, *, #316, .F. ) ;
#53 = CARTESIAN_POINT ( 'NONE',  ( -2.500000000000000000, 0.000000000000000000, 278.0000000000000000 ) ) ;
#54 = ORIENTED_EDGE ( 'NONE', *, *, #58, .F. ) ;
#55 = PRODUCT_DEFINITION_SHAPE ( 'NONE', 'NONE',  #275 ) ;
#56 = CARTESIAN_POINT ( 'NONE',  ( -1.000000000000000000, 0.000000000000000000, 0.000000000000000000 ) ) ;
#57 = ORIENTED_EDGE ( 'NONE', *, *, #109, .T. ) ;
#58 = EDGE_CURVE ( 'NONE', #231, #381, #202, .T. ) ;
#59 = PLANE ( 'NONE',  #375 ) ;
#60 = CARTESIAN_POINT ( 'NONE',  ( 0.000000000000000000, 0.000000000000000000, 0.000000000000000000 ) ) ;
#61 = ORIENTED_EDGE ( 'NONE', *, *, #142, .F. ) ;
#62 = DATE_TIME_ROLE ( 'classification_date' ) ;
#63 = LINE ( 'NONE', #302, #89 ) ;
#64 = AXIS2_PLACEMENT_3D ( 'NONE', #189, #12, #131 ) ;
#65 = ADVANCED_FACE ( 'NONE', ( #39 ), #277, .T. ) ;
#66 = DIRECTION ( 'NONE',  ( 1.000000000000000000, 0.000000000000000000, -0.000000000000000000 ) ) ;
#67 = ORIENTED_EDGE ( 'NONE', *, *, #2, .F. ) ;
#68 = EDGE_LOOP ( 'NONE', ( #318, #361, #128, #52 ) ) ;
#69 = CIRCLE ( 'NONE', #10, 2.799999999999999822 ) ;
#70 = ADVANCED_FACE ( 'NONE', ( #155, #71 ), #6, .T. ) ;
#71 = FACE_OUTER_BOUND ( 'NONE', #177, .T. ) ;
#72 = CIRCLE ( 'NONE', #196, 1.000000000000000000 ) ;
#73 = DIRECTION ( 'NONE',  ( -0.000000000000000000, -0.000000000000000000, -1.000000000000000000 ) ) ;
#74 = DIRECTION ( 'NONE',  ( -0.000000000000000000, -0.000000000000000000, -1.000000000000000000 ) ) ;
#75 = APPROVAL ( #220, 'NEURÈENÝ' ) ;
#76 = DIRECTION ( 'NONE',  ( 0.000000000000000000, 0.000000000000000000, -1.000000000000000000 ) ) ;
#77 =( GEOMETRIC_REPRESENTATION_CONTEXT ( 3 ) GLOBAL_UNCERTAINTY_ASSIGNED_CONTEXT ( ( #116 ) ) GLOBAL_UNIT_ASSIGNED_CONTEXT ( ( #293, #207, #120 ) ) REPRESENTATION_CONTEXT ( 'NONE', 'WORKASPACE' ) );
#78 = AXIS2_PLACEMENT_3D ( 'NONE', #338, #283, #110 ) ;
#79 = LINE ( 'NONE', #313, #169 ) ;
#80 = DIRECTION ( 'NONE',  ( 1.000000000000000000, 0.000000000000000000, 0.000000000000000000 ) ) ;
#81 = FACE_OUTER_BOUND ( 'NONE', #68, .T. ) ;
#82 = EDGE_CURVE ( 'NONE', #29, #347, #16, .T. ) ;
#83 = ORIENTED_EDGE ( 'NONE', *, *, #190, .F. ) ;
#84 = CIRCLE ( 'NONE', #158, 1.000000000000000000 ) ;
#85 = DIRECTION ( 'NONE',  ( -1.000000000000000000, 0.000000000000000000, 0.000000000000000000 ) ) ;
#86 = ORIENTED_EDGE ( 'NONE', *, *, #20, .F. ) ;
#87 = ADVANCED_FACE ( 'NONE', ( #248 ), #270, .F. ) ;
#88 = DIRECTION ( 'NONE',  ( 1.000000000000000000, 0.000000000000000000, -0.000000000000000000 ) ) ;
#89 = VECTOR ( 'NONE', #126, 1000.000000000000000 ) ;
#90 = ORIENTED_EDGE ( 'NONE', *, *, #172, .F. ) ;
#91 = AXIS2_PLACEMENT_3D ( 'NONE', #43, #139, #46 ) ;
#92 = ORIENTED_EDGE ( 'NONE', *, *, #197, .F. ) ;
#93 = DATE_AND_TIME ( #358, #340 ) ;
#94 = EDGE_CURVE ( 'NONE', #243, #237, #357, .T. ) ;
#95 = ORIENTED_EDGE ( 'NONE', *, *, #165, .T. ) ;
#96 = COORDINATED_UNIVERSAL_TIME_OFFSET ( 1, 0, .AHEAD. ) ;
#97 = ORIENTED_EDGE ( 'NONE', *, *, #82, .T. ) ;
#98 = AXIS2_PLACEMENT_3D ( 'NONE', #221, #9, #363 ) ;
#99 = SECURITY_CLASSIFICATION ( '', '', #305 ) ;
#100 = APPROVAL_STATUS ( 'not_yet_approved' ) ;
#101 = CARTESIAN_POINT ( 'NONE',  ( 0.000000000000000000, 0.000000000000000000, 3.300000000000025135 ) ) ;
#102 = APPROVAL_ROLE ( '' ) ;
#103 = ORIENTED_EDGE ( 'NONE', *, *, #332, .T. ) ;
#104 = ADVANCED_FACE ( 'NONE', ( #135 ), #286, .F. ) ;
#105 = DIRECTION ( 'NONE',  ( -1.000000000000000000, 0.000000000000000000, 0.000000000000000000 ) ) ;
#106 = FACE_OUTER_BOUND ( 'NONE', #238, .T. ) ;
#107 = AXIS2_PLACEMENT_3D ( 'NONE', #168, #73, #315 ) ;
#108 = DIRECTION ( 'NONE',  ( 0.000000000000000000, 0.000000000000000000, 1.000000000000000000 ) ) ;
#109 = EDGE_CURVE ( 'NONE', #212, #31, #253, .T. ) ;
#110 = DIRECTION ( 'NONE',  ( 1.000000000000000000, 0.000000000000000000, 0.000000000000000000 ) ) ;
#111 = LINE ( 'NONE', #364, #21 ) ;
#112 = FACE_OUTER_BOUND ( 'NONE', #295, .T. ) ;
#113 = ADVANCED_FACE ( 'NONE', ( #106 ), #365, .F. ) ;
#114 = CARTESIAN_POINT ( 'NONE',  ( 0.000000000000000000, 0.000000000000000000, 3.000000000000000000 ) ) ;
#115 = EDGE_LOOP ( 'NONE', ( #26, #267, #57, #90 ) ) ;
#116 = UNCERTAINTY_MEASURE_WITH_UNIT (LENGTH_MEASURE( 1.000000000000000082E-05 ), #293, 'distance_accuracy_value', 'NONE');
#117 = AXIS2_PLACEMENT_3D ( 'NONE', #44, #76, #226 ) ;
#118 = CARTESIAN_POINT ( 'NONE',  ( 0.000000000000000000, 0.000000000000000000, 0.000000000000000000 ) ) ;
#119 = ORIENTED_EDGE ( 'NONE', *, *, #156, .T. ) ;
#120 =( NAMED_UNIT ( * ) SI_UNIT ( $, .STERADIAN. ) SOLID_ANGLE_UNIT ( ) );
#121 = CARTESIAN_POINT ( 'NONE',  ( -2.799999999999999822, 3.429011037612589276E-16, 3.000000000000012434 ) ) ;
#122 = ORIENTED_EDGE ( 'NONE', *, *, #299, .T. ) ;
#123 = EDGE_CURVE ( 'NONE', #381, #29, #280, .T. ) ;
#124 = MECHANICAL_CONTEXT ( 'NONE', #127, 'mechanical' ) ;
#125 = AXIS2_PLACEMENT_3D ( 'NONE', #200, #255, #19 ) ;
#126 = DIRECTION ( 'NONE',  ( -0.000000000000000000, -0.000000000000000000, -1.000000000000000000 ) ) ;
#127 = APPLICATION_CONTEXT ( 'configuration controlled 3d designs of mechanical parts and assemblies' ) ;
#128 = ORIENTED_EDGE ( 'NONE', *, *, #49, .T. ) ;
#129 = AXIS2_PLACEMENT_3D ( 'NONE', #60, #271, #182 ) ;
#130 = APPROVAL_DATE_TIME ( #354, #372 ) ;
#131 = DIRECTION ( 'NONE',  ( 1.000000000000000000, 0.000000000000000000, 0.000000000000000000 ) ) ;
#132 = AXIS2_PLACEMENT_3D ( 'NONE', #203, #378, #85 ) ;
#133 = COORDINATED_UNIVERSAL_TIME_OFFSET ( 1, 0, .AHEAD. ) ;
#134 = DIRECTION ( 'NONE',  ( -1.000000000000000000, 0.000000000000000000, 0.000000000000000000 ) ) ;
#135 = FACE_OUTER_BOUND ( 'NONE', #183, .T. ) ;
#136 = EDGE_CURVE ( 'NONE', #355, #292, #369, .T. ) ;
#137 = DIRECTION ( 'NONE',  ( 1.000000000000000000, 0.000000000000000000, 0.000000000000000000 ) ) ;
#138 = VECTOR ( 'NONE', #296, 1000.000000000000000 ) ;
#139 = DIRECTION ( 'NONE',  ( 0.000000000000000000, 0.000000000000000000, -1.000000000000000000 ) ) ;
#140 = CARTESIAN_POINT ( 'NONE',  ( 0.000000000000000000, 0.000000000000000000, 3.000000000000000000 ) ) ;
#141 = CARTESIAN_POINT ( 'NONE',  ( 5.000000000000000000, 6.123233995736766282E-16, 0.000000000000000000 ) ) ;
#142 = EDGE_CURVE ( 'NONE', #31, #212, #285, .T. ) ;
#143 = MANIFOLD_SOLID_BREP ( 'Odebrat vysunutím3', #167 ) ;
#144 = LINE ( 'NONE', #261, #34 ) ;
#145 = VERTEX_POINT ( 'NONE', #201 ) ;
#146 = AXIS2_PLACEMENT_3D ( 'NONE', #259, #108, #366 ) ;
#147 = CC_DESIGN_DATE_AND_TIME_ASSIGNMENT ( #307, #62, ( #99 ) ) ;
#148 = FACE_OUTER_BOUND ( 'NONE', #192, .T. ) ;
#149 = ORIENTED_EDGE ( 'NONE', *, *, #20, .T. ) ;
#150 = APPLICATION_CONTEXT ( 'configuration controlled 3d designs of mechanical parts and assemblies' ) ;
#151 = CARTESIAN_POINT ( 'NONE',  ( 5.000000000000000000, 6.123233995736766282E-16, 3.000000000000000000 ) ) ;
#152 = DIRECTION ( 'NONE',  ( -1.000000000000000000, 0.000000000000000000, 0.000000000000000000 ) ) ;
#153 = ORIENTED_EDGE ( 'NONE', *, *, #58, .T. ) ;
#154 = PERSON_AND_ORGANIZATION_ROLE ( 'classification_officer' ) ;
#155 = FACE_BOUND ( 'NONE', #179, .T. ) ;
#156 = EDGE_CURVE ( 'NONE', #237, #243, #84, .T. ) ;
#157 = PRODUCT ( '977a', '977a', '', ( #124 ) ) ;
#158 = AXIS2_PLACEMENT_3D ( 'NONE', #311, #288, #15 ) ;
#159 = DIRECTION ( 'NONE',  ( -0.000000000000000000, -0.000000000000000000, -1.000000000000000000 ) ) ;
#160 = ORIENTED_EDGE ( 'NONE', *, *, #228, .F. ) ;
#161 = ADVANCED_FACE ( 'NONE', ( #112 ), #252, .F. ) ;
#162 = DIRECTION ( 'NONE',  ( -0.000000000000000000, -0.000000000000000000, -1.000000000000000000 ) ) ;
#163 = PERSON_AND_ORGANIZATION_ROLE ( 'creator' ) ;
#164 = FACE_OUTER_BOUND ( 'NONE', #115, .T. ) ;
#165 = EDGE_CURVE ( 'NONE', #345, #145, #72, .T. ) ;
#166 = CARTESIAN_POINT ( 'NONE',  ( 0.000000000000000000, 0.000000000000000000, 278.0000000000000000 ) ) ;
#167 = CLOSED_SHELL ( 'NONE', ( #161, #87, #308, #45, #65, #256, #239, #251, #70, #113, #104 ) ) ;
#168 = CARTESIAN_POINT ( 'NONE',  ( 0.000000000000000000, 0.000000000000000000, 0.000000000000000000 ) ) ;
#169 = VECTOR ( 'NONE', #170, 1000.000000000000000 ) ;
#170 = DIRECTION ( 'NONE',  ( -0.000000000000000000, -0.000000000000000000, -1.000000000000000000 ) ) ;
#171 = DIRECTION ( 'NONE',  ( 1.000000000000000000, 0.000000000000000000, 0.000000000000000000 ) ) ;
#172 = EDGE_CURVE ( 'NONE', #292, #31, #79, .T. ) ;
#173 = APPLICATION_PROTOCOL_DEFINITION ( 'international standard', 'config_control_design', 1994, #127 ) ;
#174 = CIRCLE ( 'NONE', #125, 1.000000000000000000 ) ;
#175 = PLANE ( 'NONE',  #246 ) ;
#176 = ORIENTED_EDGE ( 'NONE', *, *, #197, .T. ) ;
#177 = EDGE_LOOP ( 'NONE', ( #210, #260 ) ) ;
#178 = CARTESIAN_POINT ( 'NONE',  ( 2.500000000000000000, 3.061616997868383141E-16, 3.300000000000025135 ) ) ;
#179 = EDGE_LOOP ( 'NONE', ( #205, #92 ) ) ;
#180 = CC_DESIGN_APPROVAL ( #372, ( #225 ) ) ;
#181 = EDGE_LOOP ( 'NONE', ( #322, #160, #208, #234 ) ) ;
#182 = DIRECTION ( 'NONE',  ( 1.000000000000000000, 0.000000000000000000, 0.000000000000000000 ) ) ;
#183 = EDGE_LOOP ( 'NONE', ( #376, #176, #103, #371 ) ) ;
#184 = EDGE_CURVE ( 'NONE', #24, #245, #213, .T. ) ;
#185 = AXIS2_PLACEMENT_3D ( 'NONE', #3, #162, #105 ) ;
#186 = CARTESIAN_POINT ( 'NONE',  ( -5.000000000000000000, 0.000000000000000000, 0.000000000000000000 ) ) ;
#187 = AXIS2_PLACEMENT_3D ( 'NONE', #367, #224, #370 ) ;
#188 = PERSON_AND_ORGANIZATION ( #35, #32 ) ;
#189 = CARTESIAN_POINT ( 'NONE',  ( 0.000000000000000000, 0.000000000000000000, 3.000000000000000000 ) ) ;
#190 = EDGE_CURVE ( 'NONE', #24, #381, #111, .T. ) ;
#191 = PERSON_AND_ORGANIZATION ( #35, #32 ) ;
#192 = EDGE_LOOP ( 'NONE', ( #83, #298, #353, #153 ) ) ;
#193 = PERSON_AND_ORGANIZATION_ROLE ( 'design_owner' ) ;
#194 = DIRECTION ( 'NONE',  ( 1.000000000000000000, 0.000000000000000000, 0.000000000000000000 ) ) ;
#195 = EDGE_LOOP ( 'NONE', ( #54, #349, #222, #310 ) ) ;
#196 = AXIS2_PLACEMENT_3D ( 'NONE', #166, #314, #80 ) ;
#197 = EDGE_CURVE ( 'NONE', #145, #345, #174, .T. ) ;
#198 = DIRECTION ( 'NONE',  ( 0.000000000000000000, 0.000000000000000000, 1.000000000000000000 ) ) ;
#199 = ADVANCED_BREP_SHAPE_REPRESENTATION ( '977a', ( #143, #129 ), #77 ) ;
#200 = CARTESIAN_POINT ( 'NONE',  ( 0.000000000000000000, 0.000000000000000000, 278.0000000000000000 ) ) ;
#201 = CARTESIAN_POINT ( 'NONE',  ( 1.000000000000000000, 1.224646799147353207E-16, 278.0000000000000000 ) ) ;
#202 = CIRCLE ( 'NONE', #300, 2.500000000000000000 ) ;
#203 = CARTESIAN_POINT ( 'NONE',  ( 0.000000000000000000, 0.000000000000000000, 278.0000000000000000 ) ) ;
#204 = LOCAL_TIME ( 17, 51, 55.00000000000000000, #301 ) ;
#205 = ORIENTED_EDGE ( 'NONE', *, *, #165, .F. ) ;
#206 = CC_DESIGN_DATE_AND_TIME_ASSIGNMENT ( #93, #330, ( #275 ) ) ;
#207 =( NAMED_UNIT ( * ) PLANE_ANGLE_UNIT ( ) SI_UNIT ( $, .RADIAN. ) );
#208 = ORIENTED_EDGE ( 'NONE', *, *, #172, .T. ) ;
#209 = CARTESIAN_POINT ( 'NONE',  ( 0.000000000000000000, 0.000000000000000000, 278.0000000000000000 ) ) ;
#210 = ORIENTED_EDGE ( 'NONE', *, *, #312, .T. ) ;
#211 = DIRECTION ( 'NONE',  ( 0.000000000000000000, 0.000000000000000000, 1.000000000000000000 ) ) ;
#212 = VERTEX_POINT ( 'NONE', #141 ) ;
#213 = CIRCLE ( 'NONE', #329, 2.500000000000000000 ) ;
#214 = PERSON_AND_ORGANIZATION ( #35, #32 ) ;
#215 = DATE_AND_TIME ( #30, #294 ) ;
#216 = CALENDAR_DATE ( 2022, 8, 7 ) ;
#217 = DIRECTION ( 'NONE',  ( -0.000000000000000000, -0.000000000000000000, -1.000000000000000000 ) ) ;
#218 = CC_DESIGN_PERSON_AND_ORGANIZATION_ASSIGNMENT ( #13, #154, ( #99 ) ) ;
#219 = DIRECTION ( 'NONE',  ( 1.000000000000000000, 0.000000000000000000, 0.000000000000000000 ) ) ;
#220 = APPROVAL_STATUS ( 'not_yet_approved' ) ;
#221 = CARTESIAN_POINT ( 'NONE',  ( -2.799999999999999822, 3.429011037612588783E-16, 3.300000000000025135 ) ) ;
#222 = ORIENTED_EDGE ( 'NONE', *, *, #82, .F. ) ;
#223 = LOCAL_TIME ( 17, 51, 55.00000000000000000, #133 ) ;
#224 = DIRECTION ( 'NONE',  ( 0.000000000000000000, 0.000000000000000000, 1.000000000000000000 ) ) ;
#225 = PRODUCT_DEFINITION_FORMATION_WITH_SPECIFIED_SOURCE ( 'LIBOVOLNÝ', '', #157, .NOT_KNOWN. ) ;
#226 = DIRECTION ( 'NONE',  ( -1.000000000000000000, 0.000000000000000000, 0.000000000000000000 ) ) ;
#227 = DIRECTION ( 'NONE',  ( 0.000000000000000000, 0.000000000000000000, 1.000000000000000000 ) ) ;
#228 = EDGE_CURVE ( 'NONE', #292, #355, #335, .T. ) ;
#229 = DIRECTION ( 'NONE',  ( 1.000000000000000000, 0.000000000000000000, 0.000000000000000000 ) ) ;
#230 = CARTESIAN_POINT ( 'NONE',  ( 2.799999999999999822, 0.000000000000000000, 3.300000000000025135 ) ) ;
#231 = VERTEX_POINT ( 'NONE', #257 ) ;
#232 = AXIS2_PLACEMENT_3D ( 'NONE', #272, #279, #66 ) ;
#233 = CC_DESIGN_APPROVAL ( #8, ( #275 ) ) ;
#234 = ORIENTED_EDGE ( 'NONE', *, *, #142, .T. ) ;
#235 = AXIS2_PLACEMENT_3D ( 'NONE', #18, #198, #171 ) ;
#236 = CYLINDRICAL_SURFACE ( 'NONE', #4, 2.500000000000000000 ) ;
#237 = VERTEX_POINT ( 'NONE', #368 ) ;
#238 = EDGE_LOOP ( 'NONE', ( #67, #37, #379, #86 ) ) ;
#239 = ADVANCED_FACE ( 'NONE', ( #263, #25 ), #175, .F. ) ;
#240 = ORIENTED_EDGE ( 'NONE', *, *, #94, .F. ) ;
#241 = AXIS2_PLACEMENT_3D ( 'NONE', #339, #47, #229 ) ;
#242 = APPLICATION_PROTOCOL_DEFINITION ( 'international standard', 'config_control_design', 1994, #150 ) ;
#243 = VERTEX_POINT ( 'NONE', #56 ) ;
#244 = CC_DESIGN_PERSON_AND_ORGANIZATION_ASSIGNMENT ( #276, #163, ( #275 ) ) ;
#245 = VERTEX_POINT ( 'NONE', #51 ) ;
#246 = AXIS2_PLACEMENT_3D ( 'NONE', #118, #266, #348 ) ;
#247 = PERSON_AND_ORGANIZATION ( #35, #32 ) ;
#248 = FACE_OUTER_BOUND ( 'NONE', #195, .T. ) ;
#249 = CALENDAR_DATE ( 2022, 8, 7 ) ;
#250 = DIRECTION ( 'NONE',  ( 1.000000000000000000, 0.000000000000000000, 0.000000000000000000 ) ) ;
#251 = ADVANCED_FACE ( 'NONE', ( #148 ), #236, .T. ) ;
#252 = CYLINDRICAL_SURFACE ( 'NONE', #91, 1.000000000000000000 ) ;
#253 = CIRCLE ( 'NONE', #187, 5.000000000000000000 ) ;
#254 = CC_DESIGN_APPROVAL ( #75, ( #99 ) ) ;
#255 = DIRECTION ( 'NONE',  ( 0.000000000000000000, 0.000000000000000000, 1.000000000000000000 ) ) ;
#256 = ADVANCED_FACE ( 'NONE', ( #374, #290 ), #59, .T. ) ;
#257 = CARTESIAN_POINT ( 'NONE',  ( -2.500000000000000000, 0.000000000000000000, 3.300000000000025135 ) ) ;
#258 = PRODUCT_RELATED_PRODUCT_CATEGORY ( 'detail', '', ( #157 ) ) ;
#259 = CARTESIAN_POINT ( 'NONE',  ( 0.000000000000000000, 0.000000000000000000, 3.300000000000025135 ) ) ;
#260 = ORIENTED_EDGE ( 'NONE', *, *, #184, .T. ) ;
#261 = CARTESIAN_POINT ( 'NONE',  ( -1.000000000000000000, 0.000000000000000000, 278.0000000000000000 ) ) ;
#262 = CIRCLE ( 'NONE', #98, 0.2999999999999999334 ) ;
#263 = FACE_BOUND ( 'NONE', #297, .T. ) ;
#264 = CC_DESIGN_SECURITY_CLASSIFICATION ( #99, ( #225 ) ) ;
#265 = VECTOR ( 'NONE', #28, 1000.000000000000000 ) ;
#266 = DIRECTION ( 'NONE',  ( 0.000000000000000000, 0.000000000000000000, 1.000000000000000000 ) ) ;
#267 = ORIENTED_EDGE ( 'NONE', *, *, #22, .T. ) ;
#268 = DIRECTION ( 'NONE',  ( -0.000000000000000000, -0.000000000000000000, -1.000000000000000000 ) ) ;
#269 = EDGE_LOOP ( 'NONE', ( #61, #27 ) ) ;
#270 = TOROIDAL_SURFACE ( 'NONE', #146, 2.799999999999999822, 0.2999999999999999889 ) ;
#271 = DIRECTION ( 'NONE',  ( 0.000000000000000000, 0.000000000000000000, 1.000000000000000000 ) ) ;
#272 = CARTESIAN_POINT ( 'NONE',  ( 0.000000000000000000, 0.000000000000000000, 278.0000000000000000 ) ) ;
#273 = AXIS2_PLACEMENT_3D ( 'NONE', #209, #211, #23 ) ;
#274 = APPROVAL_PERSON_ORGANIZATION ( #11, #8, #278 ) ;
#275 = PRODUCT_DEFINITION ( 'NEZNÁMÝ', '', #225, #377 ) ;
#276 = PERSON_AND_ORGANIZATION ( #35, #32 ) ;
#277 = CYLINDRICAL_SURFACE ( 'NONE', #185, 5.000000000000000000 ) ;
#278 = APPROVAL_ROLE ( '' ) ;
#279 = DIRECTION ( 'NONE',  ( 0.000000000000000000, 0.000000000000000000, 1.000000000000000000 ) ) ;
#280 = CIRCLE ( 'NONE', #42, 0.2999999999999999334 ) ;
#281 = PERSON_AND_ORGANIZATION_ROLE ( 'creator' ) ;
#282 = ORIENTED_EDGE ( 'NONE', *, *, #136, .T. ) ;
#283 = DIRECTION ( 'NONE',  ( 0.000000000000000000, 0.000000000000000000, 1.000000000000000000 ) ) ;
#284 = CC_DESIGN_PERSON_AND_ORGANIZATION_ASSIGNMENT ( #247, #5, ( #225 ) ) ;
#285 = CIRCLE ( 'NONE', #235, 5.000000000000000000 ) ;
#286 = CYLINDRICAL_SURFACE ( 'NONE', #117, 1.000000000000000000 ) ;
#287 = DIRECTION ( 'NONE',  ( 0.000000000000000000, 0.000000000000000000, 1.000000000000000000 ) ) ;
#288 = DIRECTION ( 'NONE',  ( -0.000000000000000000, -0.000000000000000000, -1.000000000000000000 ) ) ;
#289 = AXIS2_PLACEMENT_3D ( 'NONE', #306, #217, #134 ) ;
#290 = FACE_OUTER_BOUND ( 'NONE', #326, .T. ) ;
#291 = LINE ( 'NONE', #53, #265 ) ;
#292 = VERTEX_POINT ( 'NONE', #346 ) ;
#293 =( LENGTH_UNIT ( ) NAMED_UNIT ( * ) SI_UNIT ( .MILLI., .METRE. ) );
#294 = LOCAL_TIME ( 17, 51, 55.00000000000000000, #96 ) ;
#295 = EDGE_LOOP ( 'NONE', ( #95, #122, #119, #343 ) ) ;
#296 = DIRECTION ( 'NONE',  ( 0.000000000000000000, 0.000000000000000000, -1.000000000000000000 ) ) ;
#297 = EDGE_LOOP ( 'NONE', ( #240, #334 ) ) ;
#298 = ORIENTED_EDGE ( 'NONE', *, *, #312, .F. ) ;
#299 = EDGE_CURVE ( 'NONE', #145, #237, #321, .T. ) ;
#300 = AXIS2_PLACEMENT_3D ( 'NONE', #331, #328, #250 ) ;
#301 = COORDINATED_UNIVERSAL_TIME_OFFSET ( 1, 0, .AHEAD. ) ;
#302 = CARTESIAN_POINT ( 'NONE',  ( 5.000000000000000000, 6.123233995736766282E-16, 3.000000000000000000 ) ) ;
#303 = AXIS2_PLACEMENT_3D ( 'NONE', #140, #227, #342 ) ;
#304 = APPROVAL_PERSON_ORGANIZATION ( #191, #372, #102 ) ;
#305 = SECURITY_CLASSIFICATION_LEVEL ( 'unclassified' ) ;
#306 = CARTESIAN_POINT ( 'NONE',  ( 0.000000000000000000, 0.000000000000000000, 3.000000000000000000 ) ) ;
#307 = DATE_AND_TIME ( #249, #223 ) ;
#308 = ADVANCED_FACE ( 'NONE', ( #81 ), #380, .T. ) ;
#309 = CARTESIAN_POINT ( 'NONE',  ( 2.500000000000000000, 3.061616997868383141E-16, 278.0000000000000000 ) ) ;
#310 = ORIENTED_EDGE ( 'NONE', *, *, #123, .F. ) ;
#311 = CARTESIAN_POINT ( 'NONE',  ( 0.000000000000000000, 0.000000000000000000, 0.000000000000000000 ) ) ;
#312 = EDGE_CURVE ( 'NONE', #245, #24, #50, .T. ) ;
#313 = CARTESIAN_POINT ( 'NONE',  ( -5.000000000000000000, 0.000000000000000000, 3.000000000000000000 ) ) ;
#314 = DIRECTION ( 'NONE',  ( 0.000000000000000000, 0.000000000000000000, 1.000000000000000000 ) ) ;
#315 = DIRECTION ( 'NONE',  ( 1.000000000000000000, 0.000000000000000000, 0.000000000000000000 ) ) ;
#316 = EDGE_CURVE ( 'NONE', #245, #231, #291, .T. ) ;
#317 = APPROVAL_PERSON_ORGANIZATION ( #333, #75, #38 ) ;
#318 = ORIENTED_EDGE ( 'NONE', *, *, #184, .F. ) ;
#319 = EDGE_LOOP ( 'NONE', ( #97, #149 ) ) ;
#320 = DIRECTION ( 'NONE',  ( 0.000000000000000000, 0.000000000000000000, -1.000000000000000000 ) ) ;
#321 = LINE ( 'NONE', #344, #138 ) ;
#322 = ORIENTED_EDGE ( 'NONE', *, *, #22, .F. ) ;
#323 = DATE_AND_TIME ( #40, #351 ) ;
#324 = ORIENTED_EDGE ( 'NONE', *, *, #228, .T. ) ;
#325 = COORDINATED_UNIVERSAL_TIME_OFFSET ( 1, 0, .AHEAD. ) ;
#326 = EDGE_LOOP ( 'NONE', ( #324, #282 ) ) ;
#327 = SHAPE_DEFINITION_REPRESENTATION ( #55, #199 ) ;
#328 = DIRECTION ( 'NONE',  ( 0.000000000000000000, 0.000000000000000000, 1.000000000000000000 ) ) ;
#329 = AXIS2_PLACEMENT_3D ( 'NONE', #17, #287, #137 ) ;
#330 = DATE_TIME_ROLE ( 'creation_date' ) ;
#331 = CARTESIAN_POINT ( 'NONE',  ( 0.000000000000000000, 0.000000000000000000, 3.300000000000025135 ) ) ;
#332 = EDGE_CURVE ( 'NONE', #345, #243, #144, .T. ) ;
#333 = PERSON_AND_ORGANIZATION ( #35, #32 ) ;
#334 = ORIENTED_EDGE ( 'NONE', *, *, #156, .F. ) ;
#335 = CIRCLE ( 'NONE', #303, 5.000000000000000000 ) ;
#336 = DIRECTION ( 'NONE',  ( 0.000000000000000000, 0.000000000000000000, -1.000000000000000000 ) ) ;
#337 = CC_DESIGN_PERSON_AND_ORGANIZATION_ASSIGNMENT ( #214, #193, ( #157 ) ) ;
#338 = CARTESIAN_POINT ( 'NONE',  ( 0.000000000000000000, 0.000000000000000000, 3.000000000000000000 ) ) ;
#339 = CARTESIAN_POINT ( 'NONE',  ( 0.000000000000000000, 0.000000000000000000, 3.300000000000025135 ) ) ;
#340 = LOCAL_TIME ( 17, 51, 55.00000000000000000, #325 ) ;
#341 = DIRECTION ( 'NONE',  ( 0.000000000000000000, -1.000000000000000000, 0.000000000000000000 ) ) ;
#342 = DIRECTION ( 'NONE',  ( 1.000000000000000000, 0.000000000000000000, 0.000000000000000000 ) ) ;
#343 = ORIENTED_EDGE ( 'NONE', *, *, #332, .F. ) ;
#344 = CARTESIAN_POINT ( 'NONE',  ( 1.000000000000000000, 1.224646799147353207E-16, 278.0000000000000000 ) ) ;
#345 = VERTEX_POINT ( 'NONE', #373 ) ;
#346 = CARTESIAN_POINT ( 'NONE',  ( -5.000000000000000000, 0.000000000000000000, 3.000000000000000000 ) ) ;
#347 = VERTEX_POINT ( 'NONE', #121 ) ;
#348 = DIRECTION ( 'NONE',  ( 1.000000000000000000, 0.000000000000000000, -0.000000000000000000 ) ) ;
#349 = ORIENTED_EDGE ( 'NONE', *, *, #2, .T. ) ;
#350 = CIRCLE ( 'NONE', #1, 2.500000000000000000 ) ;
#351 = LOCAL_TIME ( 17, 51, 55.00000000000000000, #362 ) ;
#352 = CARTESIAN_POINT ( 'NONE',  ( 0.000000000000000000, 0.000000000000000000, 278.0000000000000000 ) ) ;
#353 = ORIENTED_EDGE ( 'NONE', *, *, #316, .T. ) ;
#354 = DATE_AND_TIME ( #216, #204 ) ;
#355 = VERTEX_POINT ( 'NONE', #151 ) ;
#356 = APPROVAL_DATE_TIME ( #323, #75 ) ;
#357 = CIRCLE ( 'NONE', #107, 1.000000000000000000 ) ;
#358 = CALENDAR_DATE ( 2022, 8, 7 ) ;
#359 = CARTESIAN_POINT ( 'NONE',  ( 0.000000000000000000, 0.000000000000000000, 3.000000000000000000 ) ) ;
#360 = APPROVAL_DATE_TIME ( #215, #8 ) ;
#361 = ORIENTED_EDGE ( 'NONE', *, *, #190, .T. ) ;
#362 = COORDINATED_UNIVERSAL_TIME_OFFSET ( 1, 0, .AHEAD. ) ;
#363 = DIRECTION ( 'NONE',  ( -1.000000000000000000, 1.224646799147353207E-16, 0.000000000000000000 ) ) ;
#364 = CARTESIAN_POINT ( 'NONE',  ( 2.500000000000000000, 3.061616997868383141E-16, 278.0000000000000000 ) ) ;
#365 = TOROIDAL_SURFACE ( 'NONE', #241, 2.799999999999999822, 0.2999999999999999889 ) ;
#366 = DIRECTION ( 'NONE',  ( 1.000000000000000000, 0.000000000000000000, 0.000000000000000000 ) ) ;
#367 = CARTESIAN_POINT ( 'NONE',  ( 0.000000000000000000, 0.000000000000000000, 0.000000000000000000 ) ) ;
#368 = CARTESIAN_POINT ( 'NONE',  ( 1.000000000000000000, 1.224646799147353207E-16, 0.000000000000000000 ) ) ;
#369 = CIRCLE ( 'NONE', #78, 5.000000000000000000 ) ;
#370 = DIRECTION ( 'NONE',  ( 1.000000000000000000, 0.000000000000000000, 0.000000000000000000 ) ) ;
#371 = ORIENTED_EDGE ( 'NONE', *, *, #94, .T. ) ;
#372 = APPROVAL ( #100, 'NEURÈENÝ' ) ;
#373 = CARTESIAN_POINT ( 'NONE',  ( -1.000000000000000000, 0.000000000000000000, 278.0000000000000000 ) ) ;
#374 = FACE_BOUND ( 'NONE', #319, .T. ) ;
#375 = AXIS2_PLACEMENT_3D ( 'NONE', #114, #48, #88 ) ;
#376 = ORIENTED_EDGE ( 'NONE', *, *, #299, .F. ) ;
#377 = DESIGN_CONTEXT ( 'detailed design', #150, 'design' ) ;
#378 = DIRECTION ( 'NONE',  ( -0.000000000000000000, -0.000000000000000000, -1.000000000000000000 ) ) ;
#379 = ORIENTED_EDGE ( 'NONE', *, *, #123, .T. ) ;
#380 = CYLINDRICAL_SURFACE ( 'NONE', #132, 2.500000000000000000 ) ;
#381 = VERTEX_POINT ( 'NONE', #178 ) ;
ENDSEC;
END-ISO-10303-21;
