ISO-10303-21;
HEADER;
FILE_DESCRIPTION (( 'STEP AP203' ),
    '1' );
FILE_NAME ('2300.STEP',
    '2022-07-08T14:36:30',
    ( '' ),
    ( '' ),
    'SwSTEP 2.0',
    'SolidWorks 2019',
    '' );
FILE_SCHEMA (( 'CONFIG_CONTROL_DESIGN' ));
ENDSEC;

DATA;
#1 = PERSON_AND_ORGANIZATION ( #345, #98 ) ;
#2 = FACE_OUTER_BOUND ( 'NONE', #257, .T. ) ;
#3 = EDGE_CURVE ( 'NONE', #346, #370, #234, .T. ) ;
#4 = APPROVAL_DATE_TIME ( #168, #240 ) ;
#5 = DIRECTION ( 'NONE',  ( -1.000000000000000000, 0.000000000000000000, 0.000000000000000000 ) ) ;
#6 = APPROVAL_STATUS ( 'not_yet_approved' ) ;
#7 = DIRECTION ( 'NONE',  ( 1.000000000000000000, 0.000000000000000000, 0.000000000000000000 ) ) ;
#8 = FACE_OUTER_BOUND ( 'NONE', #48, .T. ) ;
#9 = CC_DESIGN_DATE_AND_TIME_ASSIGNMENT ( #148, #232, ( #83 ) ) ;
#10 = EDGE_CURVE ( 'NONE', #169, #242, #336, .T. ) ;
#11 = TOROIDAL_SURFACE ( 'NONE', #123, 6.700000000000001066, 0.6999999999999999556 ) ;
#12 = CC_DESIGN_PERSON_AND_ORGANIZATION_ASSIGNMENT ( #128, #355, ( #276 ) ) ;
#13 = EDGE_LOOP ( 'NONE', ( #253, #256, #372, #288 ) ) ;
#14 = UNCERTAINTY_MEASURE_WITH_UNIT (LENGTH_MEASURE( 1.000000000000000082E-05 ), #222, 'distance_accuracy_value', 'NONE');
#15 = CARTESIAN_POINT ( 'NONE',  ( 0.000000000000000000, 0.000000000000000000, 7.000000000000000000 ) ) ;
#16 = AXIS2_PLACEMENT_3D ( 'NONE', #146, #300, #7 ) ;
#17 = APPLICATION_PROTOCOL_DEFINITION ( 'international standard', 'config_control_design', 1994, #252 ) ;
#18 = ORIENTED_EDGE ( 'NONE', *, *, #3, .T. ) ;
#19 = MECHANICAL_CONTEXT ( 'NONE', #252, 'mechanical' ) ;
#20 = ORIENTED_EDGE ( 'NONE', *, *, #313, .F. ) ;
#21 = FACE_BOUND ( 'NONE', #22, .T. ) ;
#22 = EDGE_LOOP ( 'NONE', ( #215, #144 ) ) ;
#23 = LINE ( 'NONE', #220, #344 ) ;
#24 = ORIENTED_EDGE ( 'NONE', *, *, #92, .T. ) ;
#25 = AXIS2_PLACEMENT_3D ( 'NONE', #356, #237, #293 ) ;
#26 = VERTEX_POINT ( 'NONE', #358 ) ;
#27 = PERSON_AND_ORGANIZATION ( #345, #98 ) ;
#28 = DIRECTION ( 'NONE',  ( 0.000000000000000000, 0.000000000000000000, 1.000000000000000000 ) ) ;
#29 = CC_DESIGN_PERSON_AND_ORGANIZATION_ASSIGNMENT ( #380, #32, ( #276 ) ) ;
#30 = CALENDAR_DATE ( 2022, 8, 7 ) ;
#31 = CARTESIAN_POINT ( 'NONE',  ( 0.000000000000000000, 0.000000000000000000, 0.000000000000000000 ) ) ;
#32 = PERSON_AND_ORGANIZATION_ROLE ( 'design_supplier' ) ;
#33 = DIRECTION ( 'NONE',  ( 1.000000000000000000, 0.000000000000000000, 0.000000000000000000 ) ) ;
#34 = DATE_AND_TIME ( #203, #307 ) ;
#35 = CARTESIAN_POINT ( 'NONE',  ( 6.700000000000001066, 0.000000000000000000, 7.700000000000040146 ) ) ;
#36 = DIRECTION ( 'NONE',  ( 0.000000000000000000, 0.000000000000000000, -1.000000000000000000 ) ) ;
#37 = CC_DESIGN_PERSON_AND_ORGANIZATION_ASSIGNMENT ( #199, #59, ( #258 ) ) ;
#38 = ORIENTED_EDGE ( 'NONE', *, *, #155, .T. ) ;
#39 = DIRECTION ( 'NONE',  ( 0.000000000000000000, 0.000000000000000000, 1.000000000000000000 ) ) ;
#40 = LOCAL_TIME ( 16, 36, 30.00000000000000000, #235 ) ;
#41 = DIRECTION ( 'NONE',  ( 1.000000000000000000, 0.000000000000000000, -0.000000000000000000 ) ) ;
#42 = EDGE_CURVE ( 'NONE', #46, #26, #219, .T. ) ;
#43 = FACE_OUTER_BOUND ( 'NONE', #223, .T. ) ;
#44 = VERTEX_POINT ( 'NONE', #178 ) ;
#45 = AXIS2_PLACEMENT_3D ( 'NONE', #141, #373, #366 ) ;
#46 = VERTEX_POINT ( 'NONE', #94 ) ;
#47 = CARTESIAN_POINT ( 'NONE',  ( 0.000000000000000000, 0.000000000000000000, 7.700000000000040146 ) ) ;
#48 = EDGE_LOOP ( 'NONE', ( #189, #317, #188, #20 ) ) ;
#49 = DIRECTION ( 'NONE',  ( -0.000000000000000000, -0.000000000000000000, -1.000000000000000000 ) ) ;
#50 = ORIENTED_EDGE ( 'NONE', *, *, #107, .F. ) ;
#51 = AXIS2_PLACEMENT_3D ( 'NONE', #125, #153, #99 ) ;
#52 = SECURITY_CLASSIFICATION_LEVEL ( 'unclassified' ) ;
#53 = ORIENTED_EDGE ( 'NONE', *, *, #119, .F. ) ;
#54 = AXIS2_PLACEMENT_3D ( 'NONE', #212, #69, #363 ) ;
#55 = CARTESIAN_POINT ( 'NONE',  ( 0.000000000000000000, 0.000000000000000000, 807.0000000000000000 ) ) ;
#56 = APPROVAL_STATUS ( 'not_yet_approved' ) ;
#57 = DIRECTION ( 'NONE',  ( 0.000000000000000000, 0.000000000000000000, 1.000000000000000000 ) ) ;
#58 = AXIS2_PLACEMENT_3D ( 'NONE', #322, #198, #302 ) ;
#59 = PERSON_AND_ORGANIZATION_ROLE ( 'design_owner' ) ;
#60 = CYLINDRICAL_SURFACE ( 'NONE', #51, 6.000000000000000888 ) ;
#61 = AXIS2_PLACEMENT_3D ( 'NONE', #379, #151, #349 ) ;
#62 = AXIS2_PLACEMENT_3D ( 'NONE', #74, #340, #284 ) ;
#63 = DATE_AND_TIME ( #30, #71 ) ;
#64 = CARTESIAN_POINT ( 'NONE',  ( 10.00000000000000000, 1.224646799147353256E-15, 7.000000000000000000 ) ) ;
#65 = MANIFOLD_SOLID_BREP ( 'Odebrat vysunutím3', #78 ) ;
#66 = DIRECTION ( 'NONE',  ( 1.000000000000000000, 0.000000000000000000, 0.000000000000000000 ) ) ;
#67 = CARTESIAN_POINT ( 'NONE',  ( 0.000000000000000000, 0.000000000000000000, 7.000000000000000000 ) ) ;
#68 =( GEOMETRIC_REPRESENTATION_CONTEXT ( 3 ) GLOBAL_UNCERTAINTY_ASSIGNED_CONTEXT ( ( #14 ) ) GLOBAL_UNIT_ASSIGNED_CONTEXT ( ( #222, #371, #280 ) ) REPRESENTATION_CONTEXT ( 'NONE', 'WORKASPACE' ) );
#69 = DIRECTION ( 'NONE',  ( 0.000000000000000000, 0.000000000000000000, 1.000000000000000000 ) ) ;
#70 = DIRECTION ( 'NONE',  ( -0.000000000000000000, -0.000000000000000000, -1.000000000000000000 ) ) ;
#71 = LOCAL_TIME ( 16, 36, 30.00000000000000000, #328 ) ;
#72 = PLANE ( 'NONE',  #306 ) ;
#73 = ORIENTED_EDGE ( 'NONE', *, *, #272, .F. ) ;
#74 = CARTESIAN_POINT ( 'NONE',  ( 0.000000000000000000, 0.000000000000000000, 0.000000000000000000 ) ) ;
#75 = CC_DESIGN_PERSON_AND_ORGANIZATION_ASSIGNMENT ( #171, #260, ( #83 ) ) ;
#76 = ORIENTED_EDGE ( 'NONE', *, *, #107, .T. ) ;
#77 = DIRECTION ( 'NONE',  ( -0.000000000000000000, -0.000000000000000000, -1.000000000000000000 ) ) ;
#78 = CLOSED_SHELL ( 'NONE', ( #170, #320, #378, #362, #259, #347, #294, #95, #327, #304, #205 ) ) ;
#79 = ORIENTED_EDGE ( 'NONE', *, *, #325, .T. ) ;
#80 = DIRECTION ( 'NONE',  ( 0.000000000000000000, 0.000000000000000000, 1.000000000000000000 ) ) ;
#81 = TOROIDAL_SURFACE ( 'NONE', #357, 6.700000000000001066, 0.6999999999999999556 ) ;
#82 = VERTEX_POINT ( 'NONE', #120 ) ;
#83 = PRODUCT_DEFINITION ( 'NEZNÁMÝ', '', #276, #244 ) ;
#84 = ORIENTED_EDGE ( 'NONE', *, *, #325, .F. ) ;
#85 = DIRECTION ( 'NONE',  ( 1.000000000000000000, 0.000000000000000000, -0.000000000000000000 ) ) ;
#86 = ORIENTED_EDGE ( 'NONE', *, *, #42, .F. ) ;
#87 = VECTOR ( 'NONE', #127, 1000.000000000000000 ) ;
#88 = FACE_OUTER_BOUND ( 'NONE', #186, .T. ) ;
#89 = LOCAL_TIME ( 16, 36, 30.00000000000000000, #351 ) ;
#90 = APPROVAL_ROLE ( '' ) ;
#91 = CARTESIAN_POINT ( 'NONE',  ( 0.000000000000000000, 0.000000000000000000, 7.700000000000040146 ) ) ;
#92 = EDGE_CURVE ( 'NONE', #116, #291, #286, .T. ) ;
#93 = APPROVAL_DATE_TIME ( #230, #102 ) ;
#94 = CARTESIAN_POINT ( 'NONE',  ( 4.000000000000000000, 4.898587196589412829E-16, 0.000000000000000000 ) ) ;
#95 = ADVANCED_FACE ( 'NONE', ( #326 ), #60, .T. ) ;
#96 = PERSON_AND_ORGANIZATION_ROLE ( 'classification_officer' ) ;
#97 = LINE ( 'NONE', #266, #321 ) ;
#98 = ORGANIZATION ( 'NEURÈENÝ', 'NEURÈENÝ', '' ) ;
#99 = DIRECTION ( 'NONE',  ( -1.000000000000000000, 0.000000000000000000, 0.000000000000000000 ) ) ;
#100 = APPLICATION_CONTEXT ( 'configuration controlled 3d designs of mechanical parts and assemblies' ) ;
#101 = CARTESIAN_POINT ( 'NONE',  ( -10.00000000000000000, 0.000000000000000000, 7.000000000000000000 ) ) ;
#102 = APPROVAL ( #56, 'NEURÈENÝ' ) ;
#103 = CC_DESIGN_SECURITY_CLASSIFICATION ( #364, ( #276 ) ) ;
#104 = FACE_BOUND ( 'NONE', #339, .T. ) ;
#105 = CARTESIAN_POINT ( 'NONE',  ( -6.700000000000001066, 8.205133554287267548E-16, 7.000000000000020428 ) ) ;
#106 = AXIS2_PLACEMENT_3D ( 'NONE', #361, #39, #206 ) ;
#107 = EDGE_CURVE ( 'NONE', #26, #46, #211, .T. ) ;
#108 = AXIS2_PLACEMENT_3D ( 'NONE', #255, #135, #85 ) ;
#109 = CARTESIAN_POINT ( 'NONE',  ( 4.000000000000000000, 4.898587196589412829E-16, 807.0000000000000000 ) ) ;
#110 = VERTEX_POINT ( 'NONE', #381 ) ;
#111 = DIRECTION ( 'NONE',  ( 0.000000000000000000, 0.000000000000000000, 1.000000000000000000 ) ) ;
#112 = EDGE_LOOP ( 'NONE', ( #138, #24, #218, #374 ) ) ;
#113 = ORIENTED_EDGE ( 'NONE', *, *, #3, .F. ) ;
#114 = CARTESIAN_POINT ( 'NONE',  ( -10.00000000000000000, 0.000000000000000000, 7.000000000000000000 ) ) ;
#115 = AXIS2_PLACEMENT_3D ( 'NONE', #55, #36, #5 ) ;
#116 = VERTEX_POINT ( 'NONE', #194 ) ;
#117 = DIRECTION ( 'NONE',  ( -1.000000000000000000, 0.000000000000000000, 0.000000000000000000 ) ) ;
#118 = ORIENTED_EDGE ( 'NONE', *, *, #10, .T. ) ;
#119 = EDGE_CURVE ( 'NONE', #242, #169, #152, .T. ) ;
#120 = CARTESIAN_POINT ( 'NONE',  ( 6.000000000000000888, 7.347880794884120722E-16, 7.700000000000040146 ) ) ;
#121 = CIRCLE ( 'NONE', #243, 0.7000000000000000666 ) ;
#122 = DIRECTION ( 'NONE',  ( 1.224646799147353207E-16, 1.000000000000000000, -0.000000000000000000 ) ) ;
#123 = AXIS2_PLACEMENT_3D ( 'NONE', #239, #360, #331 ) ;
#124 = APPROVAL_ROLE ( '' ) ;
#125 = CARTESIAN_POINT ( 'NONE',  ( 0.000000000000000000, 0.000000000000000000, 807.0000000000000000 ) ) ;
#126 = SHAPE_DEFINITION_REPRESENTATION ( #195, #275 ) ;
#127 = DIRECTION ( 'NONE',  ( -0.000000000000000000, -0.000000000000000000, -1.000000000000000000 ) ) ;
#128 = PERSON_AND_ORGANIZATION ( #345, #98 ) ;
#129 = DIRECTION ( 'NONE',  ( 1.000000000000000000, 0.000000000000000000, 0.000000000000000000 ) ) ;
#130 = DIRECTION ( 'NONE',  ( -1.000000000000000000, 0.000000000000000000, 0.000000000000000000 ) ) ;
#131 = EDGE_CURVE ( 'NONE', #283, #44, #279, .T. ) ;
#132 = CC_DESIGN_APPROVAL ( #162, ( #83 ) ) ;
#133 = LINE ( 'NONE', #332, #367 ) ;
#134 = DIRECTION ( 'NONE',  ( 1.000000000000000000, 0.000000000000000000, 0.000000000000000000 ) ) ;
#135 = DIRECTION ( 'NONE',  ( 0.000000000000000000, 0.000000000000000000, 1.000000000000000000 ) ) ;
#136 = VECTOR ( 'NONE', #49, 1000.000000000000000 ) ;
#137 = ORIENTED_EDGE ( 'NONE', *, *, #335, .F. ) ;
#138 = ORIENTED_EDGE ( 'NONE', *, *, #262, .F. ) ;
#139 = CARTESIAN_POINT ( 'NONE',  ( -4.000000000000000000, 0.000000000000000000, 807.0000000000000000 ) ) ;
#140 = ORIENTED_EDGE ( 'NONE', *, *, #359, .F. ) ;
#141 = CARTESIAN_POINT ( 'NONE',  ( 0.000000000000000000, 0.000000000000000000, 807.0000000000000000 ) ) ;
#142 = VECTOR ( 'NONE', #165, 1000.000000000000000 ) ;
#143 = ORIENTED_EDGE ( 'NONE', *, *, #333, .T. ) ;
#144 = ORIENTED_EDGE ( 'NONE', *, *, #313, .T. ) ;
#145 = DATE_TIME_ROLE ( 'classification_date' ) ;
#146 = CARTESIAN_POINT ( 'NONE',  ( 0.000000000000000000, 0.000000000000000000, 807.0000000000000000 ) ) ;
#147 = CARTESIAN_POINT ( 'NONE',  ( -6.000000000000000888, 0.000000000000000000, 807.0000000000000000 ) ) ;
#148 = DATE_AND_TIME ( #297, #181 ) ;
#149 = DIRECTION ( 'NONE',  ( 1.000000000000000000, 0.000000000000000000, 0.000000000000000000 ) ) ;
#150 = APPROVAL_DATE_TIME ( #34, #162 ) ;
#151 = DIRECTION ( 'NONE',  ( 0.000000000000000000, 0.000000000000000000, -1.000000000000000000 ) ) ;
#152 = CIRCLE ( 'NONE', #226, 6.000000000000000888 ) ;
#153 = DIRECTION ( 'NONE',  ( -0.000000000000000000, -0.000000000000000000, -1.000000000000000000 ) ) ;
#154 = EDGE_CURVE ( 'NONE', #82, #377, #121, .T. ) ;
#155 = EDGE_CURVE ( 'NONE', #44, #281, #324, .T. ) ;
#156 = ORIENTED_EDGE ( 'NONE', *, *, #217, .T. ) ;
#157 = DIRECTION ( 'NONE',  ( 1.000000000000000000, 0.000000000000000000, -0.000000000000000000 ) ) ;
#158 = ORIENTED_EDGE ( 'NONE', *, *, #238, .T. ) ;
#159 = AXIS2_PLACEMENT_3D ( 'NONE', #296, #204, #33 ) ;
#160 = CYLINDRICAL_SURFACE ( 'NONE', #177, 10.00000000000000000 ) ;
#161 = ORIENTED_EDGE ( 'NONE', *, *, #292, .F. ) ;
#162 = APPROVAL ( #6, 'NEURÈENÝ' ) ;
#163 = CARTESIAN_POINT ( 'NONE',  ( 0.000000000000000000, 0.000000000000000000, 0.000000000000000000 ) ) ;
#164 = ORIENTED_EDGE ( 'NONE', *, *, #210, .F. ) ;
#165 = DIRECTION ( 'NONE',  ( 0.000000000000000000, 0.000000000000000000, -1.000000000000000000 ) ) ;
#166 = ORIENTED_EDGE ( 'NONE', *, *, #210, .T. ) ;
#167 = ORIENTED_EDGE ( 'NONE', *, *, #184, .F. ) ;
#168 = DATE_AND_TIME ( #295, #40 ) ;
#169 = VERTEX_POINT ( 'NONE', #299 ) ;
#170 = ADVANCED_FACE ( 'NONE', ( #233 ), #231, .F. ) ;
#171 = PERSON_AND_ORGANIZATION ( #345, #98 ) ;
#172 = CARTESIAN_POINT ( 'NONE',  ( 0.000000000000000000, 0.000000000000000000, 7.000000000000000000 ) ) ;
#173 = COORDINATED_UNIVERSAL_TIME_OFFSET ( 1, 0, .AHEAD. ) ;
#174 = DIRECTION ( 'NONE',  ( 1.000000000000000000, 0.000000000000000000, 0.000000000000000000 ) ) ;
#175 = COORDINATED_UNIVERSAL_TIME_OFFSET ( 1, 0, .AHEAD. ) ;
#176 = CARTESIAN_POINT ( 'NONE',  ( 0.000000000000000000, 0.000000000000000000, 807.0000000000000000 ) ) ;
#177 = AXIS2_PLACEMENT_3D ( 'NONE', #15, #77, #117 ) ;
#178 = CARTESIAN_POINT ( 'NONE',  ( 10.00000000000000000, 1.224646799147353256E-15, 7.000000000000000000 ) ) ;
#179 = DIRECTION ( 'NONE',  ( 0.000000000000000000, 0.000000000000000000, 1.000000000000000000 ) ) ;
#180 = CARTESIAN_POINT ( 'NONE',  ( 10.00000000000000000, 1.224646799147353256E-15, 0.000000000000000000 ) ) ;
#181 = LOCAL_TIME ( 16, 36, 30.00000000000000000, #175 ) ;
#182 = CARTESIAN_POINT ( 'NONE',  ( 0.000000000000000000, 0.000000000000000000, 0.000000000000000000 ) ) ;
#183 = ORIENTED_EDGE ( 'NONE', *, *, #359, .T. ) ;
#184 = EDGE_CURVE ( 'NONE', #346, #46, #97, .T. ) ;
#185 = FACE_OUTER_BOUND ( 'NONE', #337, .T. ) ;
#186 = EDGE_LOOP ( 'NONE', ( #167, #18, #143, #76 ) ) ;
#187 = DIRECTION ( 'NONE',  ( 1.000000000000000000, 0.000000000000000000, 0.000000000000000000 ) ) ;
#188 = ORIENTED_EDGE ( 'NONE', *, *, #154, .T. ) ;
#189 = ORIENTED_EDGE ( 'NONE', *, *, #92, .F. ) ;
#190 = PLANE ( 'NONE',  #108 ) ;
#191 = AXIS2_PLACEMENT_3D ( 'NONE', #329, #179, #129 ) ;
#192 = ORIENTED_EDGE ( 'NONE', *, *, #131, .F. ) ;
#193 = CC_DESIGN_APPROVAL ( #240, ( #364 ) ) ;
#194 = CARTESIAN_POINT ( 'NONE',  ( -6.000000000000000888, 0.000000000000000000, 7.700000000000040146 ) ) ;
#195 = PRODUCT_DEFINITION_SHAPE ( 'NONE', 'NONE',  #83 ) ;
#196 = PERSON_AND_ORGANIZATION ( #345, #98 ) ;
#197 = DIRECTION ( 'NONE',  ( 0.000000000000000000, 0.000000000000000000, 1.000000000000000000 ) ) ;
#198 = DIRECTION ( 'NONE',  ( -0.000000000000000000, -0.000000000000000000, -1.000000000000000000 ) ) ;
#199 = PERSON_AND_ORGANIZATION ( #345, #98 ) ;
#200 = DIRECTION ( 'NONE',  ( 0.000000000000000000, 0.000000000000000000, -1.000000000000000000 ) ) ;
#201 = AXIS2_PLACEMENT_3D ( 'NONE', #172, #57, #352 ) ;
#202 = CC_DESIGN_APPROVAL ( #102, ( #276 ) ) ;
#203 = CALENDAR_DATE ( 2022, 8, 7 ) ;
#204 = DIRECTION ( 'NONE',  ( 0.000000000000000000, 0.000000000000000000, 1.000000000000000000 ) ) ;
#205 = ADVANCED_FACE ( 'NONE', ( #88 ), #229, .F. ) ;
#206 = DIRECTION ( 'NONE',  ( 1.000000000000000000, 0.000000000000000000, 0.000000000000000000 ) ) ;
#207 = AXIS2_PLACEMENT_3D ( 'NONE', #365, #70, #130 ) ;
#208 = AXIS2_PLACEMENT_3D ( 'NONE', #273, #241, #134 ) ;
#209 = DIRECTION ( 'NONE',  ( -0.000000000000000000, -0.000000000000000000, -1.000000000000000000 ) ) ;
#210 = EDGE_CURVE ( 'NONE', #44, #283, #375, .T. ) ;
#211 = CIRCLE ( 'NONE', #318, 4.000000000000000000 ) ;
#212 = CARTESIAN_POINT ( 'NONE',  ( 0.000000000000000000, 0.000000000000000000, 807.0000000000000000 ) ) ;
#213 = AXIS2_PLACEMENT_3D ( 'NONE', #163, #282, #187 ) ;
#214 = DIRECTION ( 'NONE',  ( 1.000000000000000000, 0.000000000000000000, 0.000000000000000000 ) ) ;
#215 = ORIENTED_EDGE ( 'NONE', *, *, #278, .T. ) ;
#216 = FACE_OUTER_BOUND ( 'NONE', #348, .T. ) ;
#217 = EDGE_CURVE ( 'NONE', #110, #281, #305, .T. ) ;
#218 = ORIENTED_EDGE ( 'NONE', *, *, #278, .F. ) ;
#219 = CIRCLE ( 'NONE', #58, 4.000000000000000000 ) ;
#220 = CARTESIAN_POINT ( 'NONE',  ( 6.000000000000000888, 7.347880794884120722E-16, 807.0000000000000000 ) ) ;
#221 = EDGE_LOOP ( 'NONE', ( #84, #53, #274, #343 ) ) ;
#222 =( LENGTH_UNIT ( ) NAMED_UNIT ( * ) SI_UNIT ( .MILLI., .METRE. ) );
#223 = EDGE_LOOP ( 'NONE', ( #164, #38, #315, #140 ) ) ;
#224 = CARTESIAN_POINT ( 'NONE',  ( -4.000000000000000000, 0.000000000000000000, 807.0000000000000000 ) ) ;
#225 = ORIENTED_EDGE ( 'NONE', *, *, #217, .F. ) ;
#226 = AXIS2_PLACEMENT_3D ( 'NONE', #176, #28, #66 ) ;
#227 = DIRECTION ( 'NONE',  ( 0.000000000000000000, -1.000000000000000000, 0.000000000000000000 ) ) ;
#228 = CIRCLE ( 'NONE', #350, 6.700000000000001066 ) ;
#229 = CYLINDRICAL_SURFACE ( 'NONE', #115, 4.000000000000000000 ) ;
#230 = DATE_AND_TIME ( #267, #89 ) ;
#231 = CYLINDRICAL_SURFACE ( 'NONE', #61, 4.000000000000000000 ) ;
#232 = DATE_TIME_ROLE ( 'creation_date' ) ;
#233 = FACE_OUTER_BOUND ( 'NONE', #13, .T. ) ;
#234 = CIRCLE ( 'NONE', #16, 4.000000000000000000 ) ;
#235 = COORDINATED_UNIVERSAL_TIME_OFFSET ( 1, 0, .AHEAD. ) ;
#236 = AXIS2_PLACEMENT_3D ( 'NONE', #91, #197, #174 ) ;
#237 = DIRECTION ( 'NONE',  ( 0.000000000000000000, 0.000000000000000000, 1.000000000000000000 ) ) ;
#238 = EDGE_CURVE ( 'NONE', #82, #116, #270, .T. ) ;
#239 = CARTESIAN_POINT ( 'NONE',  ( 0.000000000000000000, 0.000000000000000000, 7.700000000000040146 ) ) ;
#240 = APPROVAL ( #323, 'NEURÈENÝ' ) ;
#241 = DIRECTION ( 'NONE',  ( -0.000000000000000000, -0.000000000000000000, -1.000000000000000000 ) ) ;
#242 = VERTEX_POINT ( 'NONE', #147 ) ;
#243 = AXIS2_PLACEMENT_3D ( 'NONE', #35, #227, #200 ) ;
#244 = DESIGN_CONTEXT ( 'detailed design', #100, 'design' ) ;
#245 = CIRCLE ( 'NONE', #208, 6.700000000000001066 ) ;
#246 = CIRCLE ( 'NONE', #54, 4.000000000000000000 ) ;
#247 = FACE_BOUND ( 'NONE', #250, .T. ) ;
#248 = ORIENTED_EDGE ( 'NONE', *, *, #119, .T. ) ;
#249 = CYLINDRICAL_SURFACE ( 'NONE', #45, 6.000000000000000888 ) ;
#250 = EDGE_LOOP ( 'NONE', ( #161, #113 ) ) ;
#251 = CARTESIAN_POINT ( 'NONE',  ( 6.700000000000001066, 0.000000000000000000, 7.000000000000020428 ) ) ;
#252 = APPLICATION_CONTEXT ( 'configuration controlled 3d designs of mechanical parts and assemblies' ) ;
#253 = ORIENTED_EDGE ( 'NONE', *, *, #292, .T. ) ;
#254 = PRODUCT_RELATED_PRODUCT_CATEGORY ( 'detail', '', ( #258 ) ) ;
#255 = CARTESIAN_POINT ( 'NONE',  ( 0.000000000000000000, 0.000000000000000000, 7.000000000000000000 ) ) ;
#256 = ORIENTED_EDGE ( 'NONE', *, *, #184, .T. ) ;
#257 = EDGE_LOOP ( 'NONE', ( #319, #192, #183, #156 ) ) ;
#258 = PRODUCT ( '2300', '2300', '', ( #19 ) ) ;
#259 = ADVANCED_FACE ( 'NONE', ( #2 ), #354, .T. ) ;
#260 = PERSON_AND_ORGANIZATION_ROLE ( 'creator' ) ;
#261 = DIRECTION ( 'NONE',  ( -1.000000000000000000, 1.224646799147353454E-16, 0.000000000000000000 ) ) ;
#262 = EDGE_CURVE ( 'NONE', #116, #82, #289, .T. ) ;
#263 = APPROVAL_PERSON_ORGANIZATION ( #196, #240, #353 ) ;
#264 = CARTESIAN_POINT ( 'NONE',  ( -6.700000000000001066, 8.205133554287267548E-16, 7.700000000000040146 ) ) ;
#265 = PERSON_AND_ORGANIZATION ( #345, #98 ) ;
#266 = CARTESIAN_POINT ( 'NONE',  ( 4.000000000000000000, 4.898587196589412829E-16, 807.0000000000000000 ) ) ;
#267 = CALENDAR_DATE ( 2022, 8, 7 ) ;
#268 = DIRECTION ( 'NONE',  ( 0.000000000000000000, 0.000000000000000000, -1.000000000000000000 ) ) ;
#269 = AXIS2_PLACEMENT_3D ( 'NONE', #264, #122, #261 ) ;
#270 = CIRCLE ( 'NONE', #236, 6.000000000000000888 ) ;
#271 = CIRCLE ( 'NONE', #62, 10.00000000000000000 ) ;
#272 = EDGE_CURVE ( 'NONE', #242, #116, #133, .T. ) ;
#273 = CARTESIAN_POINT ( 'NONE',  ( 0.000000000000000000, 0.000000000000000000, 7.000000000000000000 ) ) ;
#274 = ORIENTED_EDGE ( 'NONE', *, *, #272, .T. ) ;
#275 = ADVANCED_BREP_SHAPE_REPRESENTATION ( '2300', ( #65, #213 ), #68 ) ;
#276 = PRODUCT_DEFINITION_FORMATION_WITH_SPECIFIED_SOURCE ( 'LIBOVOLNÝ', '', #258, .NOT_KNOWN. ) ;
#277 = DIRECTION ( 'NONE',  ( -0.000000000000000000, -0.000000000000000000, -1.000000000000000000 ) ) ;
#278 = EDGE_CURVE ( 'NONE', #377, #291, #245, .T. ) ;
#279 = CIRCLE ( 'NONE', #191, 10.00000000000000000 ) ;
#280 =( NAMED_UNIT ( * ) SI_UNIT ( $, .STERADIAN. ) SOLID_ANGLE_UNIT ( ) );
#281 = VERTEX_POINT ( 'NONE', #180 ) ;
#282 = DIRECTION ( 'NONE',  ( 0.000000000000000000, 0.000000000000000000, 1.000000000000000000 ) ) ;
#283 = VERTEX_POINT ( 'NONE', #101 ) ;
#284 = DIRECTION ( 'NONE',  ( 1.000000000000000000, 0.000000000000000000, 0.000000000000000000 ) ) ;
#285 = EDGE_LOOP ( 'NONE', ( #225, #137 ) ) ;
#286 = CIRCLE ( 'NONE', #269, 0.7000000000000000666 ) ;
#287 = CARTESIAN_POINT ( 'NONE',  ( 0.000000000000000000, 0.000000000000000000, 807.0000000000000000 ) ) ;
#288 = ORIENTED_EDGE ( 'NONE', *, *, #333, .F. ) ;
#289 = CIRCLE ( 'NONE', #106, 6.000000000000000888 ) ;
#290 = APPLICATION_PROTOCOL_DEFINITION ( 'international standard', 'config_control_design', 1994, #100 ) ;
#291 = VERTEX_POINT ( 'NONE', #105 ) ;
#292 = EDGE_CURVE ( 'NONE', #370, #346, #246, .T. ) ;
#293 = DIRECTION ( 'NONE',  ( 1.000000000000000000, 0.000000000000000000, 0.000000000000000000 ) ) ;
#294 = ADVANCED_FACE ( 'NONE', ( #104, #338 ), #72, .F. ) ;
#295 = CALENDAR_DATE ( 2022, 8, 7 ) ;
#296 = CARTESIAN_POINT ( 'NONE',  ( 0.000000000000000000, 0.000000000000000000, 807.0000000000000000 ) ) ;
#297 = CALENDAR_DATE ( 2022, 8, 7 ) ;
#298 = APPROVAL_PERSON_ORGANIZATION ( #27, #102, #90 ) ;
#299 = CARTESIAN_POINT ( 'NONE',  ( 6.000000000000000888, 7.347880794884120722E-16, 807.0000000000000000 ) ) ;
#300 = DIRECTION ( 'NONE',  ( 0.000000000000000000, 0.000000000000000000, 1.000000000000000000 ) ) ;
#301 = CC_DESIGN_DATE_AND_TIME_ASSIGNMENT ( #63, #145, ( #364 ) ) ;
#302 = DIRECTION ( 'NONE',  ( 1.000000000000000000, 0.000000000000000000, 0.000000000000000000 ) ) ;
#303 = FACE_OUTER_BOUND ( 'NONE', #112, .T. ) ;
#304 = ADVANCED_FACE ( 'NONE', ( #8 ), #11, .F. ) ;
#305 = CIRCLE ( 'NONE', #25, 10.00000000000000000 ) ;
#306 = AXIS2_PLACEMENT_3D ( 'NONE', #182, #308, #41 ) ;
#307 = LOCAL_TIME ( 16, 36, 30.00000000000000000, #173 ) ;
#308 = DIRECTION ( 'NONE',  ( 0.000000000000000000, 0.000000000000000000, 1.000000000000000000 ) ) ;
#309 = FACE_OUTER_BOUND ( 'NONE', #341, .T. ) ;
#310 = ORIENTED_EDGE ( 'NONE', *, *, #131, .T. ) ;
#311 = ORIENTED_EDGE ( 'NONE', *, *, #10, .F. ) ;
#312 = AXIS2_PLACEMENT_3D ( 'NONE', #287, #80, #157 ) ;
#313 = EDGE_CURVE ( 'NONE', #291, #377, #228, .T. ) ;
#314 = DIRECTION ( 'NONE',  ( -0.000000000000000000, -0.000000000000000000, -1.000000000000000000 ) ) ;
#315 = ORIENTED_EDGE ( 'NONE', *, *, #335, .T. ) ;
#316 = LINE ( 'NONE', #114, #136 ) ;
#317 = ORIENTED_EDGE ( 'NONE', *, *, #238, .F. ) ;
#318 = AXIS2_PLACEMENT_3D ( 'NONE', #31, #330, #149 ) ;
#319 = ORIENTED_EDGE ( 'NONE', *, *, #155, .F. ) ;
#320 = ADVANCED_FACE ( 'NONE', ( #303 ), #81, .F. ) ;
#321 = VECTOR ( 'NONE', #268, 1000.000000000000000 ) ;
#322 = CARTESIAN_POINT ( 'NONE',  ( 0.000000000000000000, 0.000000000000000000, 0.000000000000000000 ) ) ;
#323 = APPROVAL_STATUS ( 'not_yet_approved' ) ;
#324 = LINE ( 'NONE', #64, #87 ) ;
#325 = EDGE_CURVE ( 'NONE', #169, #82, #23, .T. ) ;
#326 = FACE_OUTER_BOUND ( 'NONE', #221, .T. ) ;
#327 = ADVANCED_FACE ( 'NONE', ( #247, #309 ), #369, .T. ) ;
#328 = COORDINATED_UNIVERSAL_TIME_OFFSET ( 1, 0, .AHEAD. ) ;
#329 = CARTESIAN_POINT ( 'NONE',  ( 0.000000000000000000, 0.000000000000000000, 7.000000000000000000 ) ) ;
#330 = DIRECTION ( 'NONE',  ( -0.000000000000000000, -0.000000000000000000, -1.000000000000000000 ) ) ;
#331 = DIRECTION ( 'NONE',  ( 1.000000000000000000, 0.000000000000000000, 0.000000000000000000 ) ) ;
#332 = CARTESIAN_POINT ( 'NONE',  ( -6.000000000000000888, 0.000000000000000000, 807.0000000000000000 ) ) ;
#333 = EDGE_CURVE ( 'NONE', #370, #26, #376, .T. ) ;
#334 = DIRECTION ( 'NONE',  ( 1.000000000000000000, 0.000000000000000000, 0.000000000000000000 ) ) ;
#335 = EDGE_CURVE ( 'NONE', #281, #110, #271, .T. ) ;
#336 = CIRCLE ( 'NONE', #159, 6.000000000000000888 ) ;
#337 = EDGE_LOOP ( 'NONE', ( #311, #79, #158, #73 ) ) ;
#338 = FACE_OUTER_BOUND ( 'NONE', #285, .T. ) ;
#339 = EDGE_LOOP ( 'NONE', ( #50, #86 ) ) ;
#340 = DIRECTION ( 'NONE',  ( 0.000000000000000000, 0.000000000000000000, 1.000000000000000000 ) ) ;
#341 = EDGE_LOOP ( 'NONE', ( #248, #118 ) ) ;
#342 = CC_DESIGN_PERSON_AND_ORGANIZATION_ASSIGNMENT ( #265, #96, ( #364 ) ) ;
#343 = ORIENTED_EDGE ( 'NONE', *, *, #262, .T. ) ;
#344 = VECTOR ( 'NONE', #314, 1000.000000000000000 ) ;
#345 = PERSON ( 'NEURÈENÝ', 'NEURÈENÝ', 'NEURÈENÝ', ('NEURÈENÝ'), ('NEURÈENÝ'), ('NEURÈENÝ') ) ;
#346 = VERTEX_POINT ( 'NONE', #109 ) ;
#347 = ADVANCED_FACE ( 'NONE', ( #21, #216 ), #190, .T. ) ;
#348 = EDGE_LOOP ( 'NONE', ( #310, #166 ) ) ;
#349 = DIRECTION ( 'NONE',  ( -1.000000000000000000, 0.000000000000000000, 0.000000000000000000 ) ) ;
#350 = AXIS2_PLACEMENT_3D ( 'NONE', #67, #209, #334 ) ;
#351 = COORDINATED_UNIVERSAL_TIME_OFFSET ( 1, 0, .AHEAD. ) ;
#352 = DIRECTION ( 'NONE',  ( 1.000000000000000000, 0.000000000000000000, 0.000000000000000000 ) ) ;
#353 = APPROVAL_ROLE ( '' ) ;
#354 = CYLINDRICAL_SURFACE ( 'NONE', #207, 10.00000000000000000 ) ;
#355 = PERSON_AND_ORGANIZATION_ROLE ( 'creator' ) ;
#356 = CARTESIAN_POINT ( 'NONE',  ( 0.000000000000000000, 0.000000000000000000, 0.000000000000000000 ) ) ;
#357 = AXIS2_PLACEMENT_3D ( 'NONE', #47, #111, #214 ) ;
#358 = CARTESIAN_POINT ( 'NONE',  ( -4.000000000000000000, 0.000000000000000000, 0.000000000000000000 ) ) ;
#359 = EDGE_CURVE ( 'NONE', #283, #110, #316, .T. ) ;
#360 = DIRECTION ( 'NONE',  ( 0.000000000000000000, 0.000000000000000000, 1.000000000000000000 ) ) ;
#361 = CARTESIAN_POINT ( 'NONE',  ( 0.000000000000000000, 0.000000000000000000, 7.700000000000040146 ) ) ;
#362 = ADVANCED_FACE ( 'NONE', ( #43 ), #160, .T. ) ;
#363 = DIRECTION ( 'NONE',  ( 1.000000000000000000, 0.000000000000000000, 0.000000000000000000 ) ) ;
#364 = SECURITY_CLASSIFICATION ( '', '', #52 ) ;
#365 = CARTESIAN_POINT ( 'NONE',  ( 0.000000000000000000, 0.000000000000000000, 7.000000000000000000 ) ) ;
#366 = DIRECTION ( 'NONE',  ( -1.000000000000000000, 0.000000000000000000, 0.000000000000000000 ) ) ;
#367 = VECTOR ( 'NONE', #277, 1000.000000000000000 ) ;
#368 = APPROVAL_PERSON_ORGANIZATION ( #1, #162, #124 ) ;
#369 = PLANE ( 'NONE',  #312 ) ;
#370 = VERTEX_POINT ( 'NONE', #139 ) ;
#371 =( NAMED_UNIT ( * ) PLANE_ANGLE_UNIT ( ) SI_UNIT ( $, .RADIAN. ) );
#372 = ORIENTED_EDGE ( 'NONE', *, *, #42, .T. ) ;
#373 = DIRECTION ( 'NONE',  ( -0.000000000000000000, -0.000000000000000000, -1.000000000000000000 ) ) ;
#374 = ORIENTED_EDGE ( 'NONE', *, *, #154, .F. ) ;
#375 = CIRCLE ( 'NONE', #201, 10.00000000000000000 ) ;
#376 = LINE ( 'NONE', #224, #142 ) ;
#377 = VERTEX_POINT ( 'NONE', #251 ) ;
#378 = ADVANCED_FACE ( 'NONE', ( #185 ), #249, .T. ) ;
#379 = CARTESIAN_POINT ( 'NONE',  ( 0.000000000000000000, 0.000000000000000000, 807.0000000000000000 ) ) ;
#380 = PERSON_AND_ORGANIZATION ( #345, #98 ) ;
#381 = CARTESIAN_POINT ( 'NONE',  ( -10.00000000000000000, 0.000000000000000000, 0.000000000000000000 ) ) ;
ENDSEC;
END-ISO-10303-21;
