ISO-10303-21;
HEADER;
FILE_DESCRIPTION (( 'STEP AP203' ),
    '1' );
FILE_NAME ('680f.STEP',
    '2022-07-08T15:24:26',
    ( '' ),
    ( '' ),
    'SwSTEP 2.0',
    'SolidWorks 2019',
    '' );
FILE_SCHEMA (( 'CONFIG_CONTROL_DESIGN' ));
ENDSEC;

DATA;
#1 = APPROVAL_DATE_TIME ( #203, #117 ) ;
#2 = CARTESIAN_POINT ( 'NONE',  ( -4.500000000000000888, 5.510910596163088569E-16, 5.000000000000002665 ) ) ;
#3 = CC_DESIGN_APPROVAL ( #268, ( #311 ) ) ;
#4 = EDGE_CURVE ( 'NONE', #271, #174, #92, .T. ) ;
#5 = VERTEX_POINT ( 'NONE', #94 ) ;
#6 = APPLICATION_CONTEXT ( 'configuration controlled 3d designs of mechanical parts and assemblies' ) ;
#7 = ORIENTED_EDGE ( 'NONE', *, *, #291, .T. ) ;
#8 = VERTEX_POINT ( 'NONE', #103 ) ;
#9 = AXIS2_PLACEMENT_3D ( 'NONE', #312, #190, #290 ) ;
#10 = DIRECTION ( 'NONE',  ( 0.000000000000000000, 0.000000000000000000, -1.000000000000000000 ) ) ;
#11 = AXIS2_PLACEMENT_3D ( 'NONE', #373, #188, #248 ) ;
#12 = DIRECTION ( 'NONE',  ( -0.000000000000000000, -0.000000000000000000, -1.000000000000000000 ) ) ;
#13 = FACE_OUTER_BOUND ( 'NONE', #376, .T. ) ;
#14 = ADVANCED_FACE ( 'NONE', ( #71 ), #257, .F. ) ;
#15 =( NAMED_UNIT ( * ) SI_UNIT ( $, .STERADIAN. ) SOLID_ANGLE_UNIT ( ) );
#16 = CIRCLE ( 'NONE', #229, 0.5000000000000004441 ) ;
#17 = CARTESIAN_POINT ( 'NONE',  ( -4.000000000000000000, 0.000000000000000000, 165.0000000000000000 ) ) ;
#18 = AXIS2_PLACEMENT_3D ( 'NONE', #348, #136, #372 ) ;
#19 = DIRECTION ( 'NONE',  ( 0.000000000000000000, 0.000000000000000000, 1.000000000000000000 ) ) ;
#20 = CALENDAR_DATE ( 2022, 8, 7 ) ;
#21 = EDGE_CURVE ( 'NONE', #274, #91, #341, .T. ) ;
#22 = CYLINDRICAL_SURFACE ( 'NONE', #322, 4.000000000000000000 ) ;
#23 = PERSON_AND_ORGANIZATION ( #251, #104 ) ;
#24 = CARTESIAN_POINT ( 'NONE',  ( 0.000000000000000000, 0.000000000000000000, 165.0000000000000000 ) ) ;
#25 = EDGE_CURVE ( 'NONE', #99, #148, #52, .T. ) ;
#26 = DIRECTION ( 'NONE',  ( -0.000000000000000000, -0.000000000000000000, -1.000000000000000000 ) ) ;
#27 = EDGE_CURVE ( 'NONE', #8, #178, #156, .T. ) ;
#28 = AXIS2_PLACEMENT_3D ( 'NONE', #279, #127, #250 ) ;
#29 = CARTESIAN_POINT ( 'NONE',  ( 0.000000000000000000, 0.000000000000000000, 0.000000000000000000 ) ) ;
#30 = ORIENTED_EDGE ( 'NONE', *, *, #191, .F. ) ;
#31 = APPROVAL_PERSON_ORGANIZATION ( #41, #117, #318 ) ;
#32 = CALENDAR_DATE ( 2022, 8, 7 ) ;
#33 = EDGE_LOOP ( 'NONE', ( #116, #83 ) ) ;
#34 = ORIENTED_EDGE ( 'NONE', *, *, #222, .F. ) ;
#35 = DIRECTION ( 'NONE',  ( 0.000000000000000000, 0.000000000000000000, 1.000000000000000000 ) ) ;
#36 = ORIENTED_EDGE ( 'NONE', *, *, #128, .T. ) ;
#37 = LINE ( 'NONE', #306, #334 ) ;
#38 = DIRECTION ( 'NONE',  ( 0.000000000000000000, 0.000000000000000000, 1.000000000000000000 ) ) ;
#39 = ORIENTED_EDGE ( 'NONE', *, *, #247, .T. ) ;
#40 = CC_DESIGN_PERSON_AND_ORGANIZATION_ASSIGNMENT ( #23, #134, ( #189 ) ) ;
#41 = PERSON_AND_ORGANIZATION ( #251, #104 ) ;
#42 = FACE_OUTER_BOUND ( 'NONE', #239, .T. ) ;
#43 = APPROVAL_STATUS ( 'not_yet_approved' ) ;
#44 = ORIENTED_EDGE ( 'NONE', *, *, #25, .F. ) ;
#45 = CALENDAR_DATE ( 2022, 8, 7 ) ;
#46 = CARTESIAN_POINT ( 'NONE',  ( 4.000000000000000000, 4.898587196589412829E-16, 165.0000000000000000 ) ) ;
#47 = PERSON_AND_ORGANIZATION_ROLE ( 'creator' ) ;
#48 = FACE_BOUND ( 'NONE', #294, .T. ) ;
#49 = CARTESIAN_POINT ( 'NONE',  ( 0.000000000000000000, 0.000000000000000000, 0.000000000000000000 ) ) ;
#50 = DIRECTION ( 'NONE',  ( 1.000000000000000000, 0.000000000000000000, -0.000000000000000000 ) ) ;
#51 = EDGE_CURVE ( 'NONE', #354, #359, #363, .T. ) ;
#52 = CIRCLE ( 'NONE', #267, 2.250000000000000000 ) ;
#53 = APPROVAL_PERSON_ORGANIZATION ( #80, #268, #195 ) ;
#54 = ADVANCED_FACE ( 'NONE', ( #42 ), #70, .T. ) ;
#55 =( NAMED_UNIT ( * ) PLANE_ANGLE_UNIT ( ) SI_UNIT ( $, .RADIAN. ) );
#56 = COORDINATED_UNIVERSAL_TIME_OFFSET ( 1, 0, .AHEAD. ) ;
#57 = AXIS2_PLACEMENT_3D ( 'NONE', #336, #19, #129 ) ;
#58 = ORIENTED_EDGE ( 'NONE', *, *, #93, .T. ) ;
#59 = AXIS2_PLACEMENT_3D ( 'NONE', #358, #286, #350 ) ;
#60 = ADVANCED_BREP_SHAPE_REPRESENTATION ( '680f', ( #182, #63 ), #377 ) ;
#61 = ORIENTED_EDGE ( 'NONE', *, *, #202, .F. ) ;
#62 = CARTESIAN_POINT ( 'NONE',  ( 2.250000000000000000, 2.755455298081544285E-16, 165.0000000000000000 ) ) ;
#63 = AXIS2_PLACEMENT_3D ( 'NONE', #213, #38, #365 ) ;
#64 = EDGE_LOOP ( 'NONE', ( #244, #149, #118, #220 ) ) ;
#65 = PRODUCT_RELATED_PRODUCT_CATEGORY ( 'detail', '', ( #325 ) ) ;
#66 = DIRECTION ( 'NONE',  ( 0.000000000000000000, 0.000000000000000000, -1.000000000000000000 ) ) ;
#67 = ORIENTED_EDGE ( 'NONE', *, *, #212, .T. ) ;
#68 = AXIS2_PLACEMENT_3D ( 'NONE', #166, #84, #177 ) ;
#69 = EDGE_LOOP ( 'NONE', ( #327, #264, #39, #330 ) ) ;
#70 = CYLINDRICAL_SURFACE ( 'NONE', #277, 4.000000000000000000 ) ;
#71 = FACE_OUTER_BOUND ( 'NONE', #335, .T. ) ;
#72 = AXIS2_PLACEMENT_3D ( 'NONE', #29, #199, #228 ) ;
#73 = ORIENTED_EDGE ( 'NONE', *, *, #21, .T. ) ;
#74 = ADVANCED_FACE ( 'NONE', ( #13 ), #216, .T. ) ;
#75 = COORDINATED_UNIVERSAL_TIME_OFFSET ( 1, 0, .AHEAD. ) ;
#76 = LINE ( 'NONE', #288, #272 ) ;
#77 = APPROVAL_ROLE ( '' ) ;
#78 = DIRECTION ( 'NONE',  ( -1.000000000000000000, 0.000000000000000000, 0.000000000000000000 ) ) ;
#79 = CARTESIAN_POINT ( 'NONE',  ( 0.000000000000000000, 0.000000000000000000, 5.000000000000000000 ) ) ;
#80 = PERSON_AND_ORGANIZATION ( #251, #104 ) ;
#81 = UNCERTAINTY_MEASURE_WITH_UNIT (LENGTH_MEASURE( 1.000000000000000082E-05 ), #233, 'distance_accuracy_value', 'NONE');
#82 = CIRCLE ( 'NONE', #165, 4.500000000000000888 ) ;
#83 = ORIENTED_EDGE ( 'NONE', *, *, #247, .F. ) ;
#84 = DIRECTION ( 'NONE',  ( 1.224646799147353207E-16, 1.000000000000000000, -0.000000000000000000 ) ) ;
#85 = CIRCLE ( 'NONE', #59, 4.000000000000000000 ) ;
#86 = DIRECTION ( 'NONE',  ( 0.000000000000000000, 0.000000000000000000, 1.000000000000000000 ) ) ;
#87 = CC_DESIGN_DATE_AND_TIME_ASSIGNMENT ( #187, #308, ( #189 ) ) ;
#88 = ORIENTED_EDGE ( 'NONE', *, *, #4, .T. ) ;
#89 = EDGE_LOOP ( 'NONE', ( #323, #236 ) ) ;
#90 = CARTESIAN_POINT ( 'NONE',  ( 0.000000000000000000, 0.000000000000000000, 5.000000000000000000 ) ) ;
#91 = VERTEX_POINT ( 'NONE', #371 ) ;
#92 = CIRCLE ( 'NONE', #57, 7.000000000000000000 ) ;
#93 = EDGE_CURVE ( 'NONE', #91, #109, #153, .T. ) ;
#94 = CARTESIAN_POINT ( 'NONE',  ( 4.500000000000000888, 0.000000000000000000, 5.000000000000002665 ) ) ;
#95 = AXIS2_PLACEMENT_3D ( 'NONE', #217, #299, #243 ) ;
#96 = DIRECTION ( 'NONE',  ( 1.000000000000000000, 0.000000000000000000, 0.000000000000000000 ) ) ;
#97 = PERSON_AND_ORGANIZATION_ROLE ( 'design_owner' ) ;
#98 = AXIS2_PLACEMENT_3D ( 'NONE', #162, #339, #96 ) ;
#99 = VERTEX_POINT ( 'NONE', #62 ) ;
#100 = ADVANCED_FACE ( 'NONE', ( #48, #265 ), #241, .T. ) ;
#101 = DIRECTION ( 'NONE',  ( -1.000000000000000000, 0.000000000000000000, 0.000000000000000000 ) ) ;
#102 = CIRCLE ( 'NONE', #284, 7.000000000000000000 ) ;
#103 = CARTESIAN_POINT ( 'NONE',  ( 4.000000000000000000, 4.898587196589412829E-16, 165.0000000000000000 ) ) ;
#104 = ORGANIZATION ( 'NEURÈENÝ', 'NEURÈENÝ', '' ) ;
#105 = FACE_BOUND ( 'NONE', #331, .T. ) ;
#106 = FACE_OUTER_BOUND ( 'NONE', #64, .T. ) ;
#107 = CC_DESIGN_DATE_AND_TIME_ASSIGNMENT ( #224, #192, ( #275 ) ) ;
#108 = CIRCLE ( 'NONE', #329, 2.250000000000000000 ) ;
#109 = VERTEX_POINT ( 'NONE', #2 ) ;
#110 = LOCAL_TIME ( 17, 24, 26.00000000000000000, #280 ) ;
#111 = DIRECTION ( 'NONE',  ( 0.000000000000000000, 0.000000000000000000, 1.000000000000000000 ) ) ;
#112 = DESIGN_CONTEXT ( 'detailed design', #175, 'design' ) ;
#113 = EDGE_CURVE ( 'NONE', #178, #91, #85, .T. ) ;
#114 = AXIS2_PLACEMENT_3D ( 'NONE', #226, #344, #78 ) ;
#115 = PLANE ( 'NONE',  #72 ) ;
#116 = ORIENTED_EDGE ( 'NONE', *, *, #212, .F. ) ;
#117 = APPROVAL ( #142, 'NEURÈENÝ' ) ;
#118 = ORIENTED_EDGE ( 'NONE', *, *, #172, .T. ) ;
#119 = ORIENTED_EDGE ( 'NONE', *, *, #215, .T. ) ;
#120 = AXIS2_PLACEMENT_3D ( 'NONE', #261, #111, #320 ) ;
#121 = ORIENTED_EDGE ( 'NONE', *, *, #113, .T. ) ;
#122 = CC_DESIGN_PERSON_AND_ORGANIZATION_ASSIGNMENT ( #375, #255, ( #275 ) ) ;
#123 = DIRECTION ( 'NONE',  ( 0.000000000000000000, 0.000000000000000000, -1.000000000000000000 ) ) ;
#124 = DIRECTION ( 'NONE',  ( 1.000000000000000000, 0.000000000000000000, 0.000000000000000000 ) ) ;
#125 = VECTOR ( 'NONE', #66, 1000.000000000000000 ) ;
#126 = AXIS2_PLACEMENT_3D ( 'NONE', #140, #237, #355 ) ;
#127 = DIRECTION ( 'NONE',  ( -0.000000000000000000, -0.000000000000000000, -1.000000000000000000 ) ) ;
#128 = EDGE_CURVE ( 'NONE', #359, #354, #150, .T. ) ;
#129 = DIRECTION ( 'NONE',  ( 1.000000000000000000, 0.000000000000000000, 0.000000000000000000 ) ) ;
#130 = DIRECTION ( 'NONE',  ( -0.000000000000000000, -0.000000000000000000, -1.000000000000000000 ) ) ;
#131 = APPROVAL_DATE_TIME ( #254, #352 ) ;
#132 = EDGE_LOOP ( 'NONE', ( #242, #333, #361, #67 ) ) ;
#133 = CARTESIAN_POINT ( 'NONE',  ( 0.000000000000000000, 0.000000000000000000, 5.000000000000000000 ) ) ;
#134 = PERSON_AND_ORGANIZATION_ROLE ( 'classification_officer' ) ;
#135 = CYLINDRICAL_SURFACE ( 'NONE', #114, 2.250000000000000000 ) ;
#136 = DIRECTION ( 'NONE',  ( 0.000000000000000000, 0.000000000000000000, 1.000000000000000000 ) ) ;
#137 = PERSON_AND_ORGANIZATION ( #251, #104 ) ;
#138 = CARTESIAN_POINT ( 'NONE',  ( 0.000000000000000000, 0.000000000000000000, 0.000000000000000000 ) ) ;
#139 = CC_DESIGN_APPROVAL ( #352, ( #275 ) ) ;
#140 = CARTESIAN_POINT ( 'NONE',  ( 0.000000000000000000, 0.000000000000000000, 165.0000000000000000 ) ) ;
#141 = CARTESIAN_POINT ( 'NONE',  ( -7.000000000000000000, 0.000000000000000000, 5.000000000000000000 ) ) ;
#142 = APPROVAL_STATUS ( 'not_yet_approved' ) ;
#143 = ADVANCED_FACE ( 'NONE', ( #105, #201 ), #328, .T. ) ;
#144 = AXIS2_PLACEMENT_3D ( 'NONE', #321, #26, #263 ) ;
#145 = PRODUCT_DEFINITION_SHAPE ( 'NONE', 'NONE',  #275 ) ;
#146 = ORIENTED_EDGE ( 'NONE', *, *, #332, .F. ) ;
#147 = APPLICATION_PROTOCOL_DEFINITION ( 'international standard', 'config_control_design', 1994, #6 ) ;
#148 = VERTEX_POINT ( 'NONE', #319 ) ;
#149 = ORIENTED_EDGE ( 'NONE', *, *, #4, .F. ) ;
#150 = CIRCLE ( 'NONE', #292, 7.000000000000000000 ) ;
#151 = ORIENTED_EDGE ( 'NONE', *, *, #230, .F. ) ;
#152 = CARTESIAN_POINT ( 'NONE',  ( 0.000000000000000000, 0.000000000000000000, 5.500000000000005329 ) ) ;
#153 = CIRCLE ( 'NONE', #68, 0.5000000000000004441 ) ;
#154 = DIRECTION ( 'NONE',  ( -0.000000000000000000, -0.000000000000000000, -1.000000000000000000 ) ) ;
#155 = CARTESIAN_POINT ( 'NONE',  ( -2.250000000000000000, 0.000000000000000000, 165.0000000000000000 ) ) ;
#156 = LINE ( 'NONE', #46, #170 ) ;
#157 = ADVANCED_FACE ( 'NONE', ( #171 ), #135, .F. ) ;
#158 = LOCAL_TIME ( 17, 24, 26.00000000000000000, #345 ) ;
#159 = CARTESIAN_POINT ( 'NONE',  ( 2.250000000000000000, 2.755455298081544285E-16, 0.000000000000000000 ) ) ;
#160 = DATE_AND_TIME ( #45, #176 ) ;
#161 = ADVANCED_FACE ( 'NONE', ( #256, #381 ), #115, .F. ) ;
#162 = CARTESIAN_POINT ( 'NONE',  ( 0.000000000000000000, 0.000000000000000000, 0.000000000000000000 ) ) ;
#163 = DIRECTION ( 'NONE',  ( -0.000000000000000000, -0.000000000000000000, -1.000000000000000000 ) ) ;
#164 = PERSON_AND_ORGANIZATION_ROLE ( 'design_supplier' ) ;
#165 = AXIS2_PLACEMENT_3D ( 'NONE', #270, #12, #369 ) ;
#166 = CARTESIAN_POINT ( 'NONE',  ( -4.500000000000000888, 5.510910596163089556E-16, 5.500000000000005329 ) ) ;
#167 = EDGE_LOOP ( 'NONE', ( #61, #58, #209, #151 ) ) ;
#168 = FACE_OUTER_BOUND ( 'NONE', #167, .T. ) ;
#169 = CIRCLE ( 'NONE', #353, 4.000000000000000000 ) ;
#170 = VECTOR ( 'NONE', #154, 1000.000000000000000 ) ;
#171 = FACE_OUTER_BOUND ( 'NONE', #69, .T. ) ;
#172 = EDGE_CURVE ( 'NONE', #271, #354, #346, .T. ) ;
#173 = VERTEX_POINT ( 'NONE', #324 ) ;
#174 = VERTEX_POINT ( 'NONE', #317 ) ;
#175 = APPLICATION_CONTEXT ( 'configuration controlled 3d designs of mechanical parts and assemblies' ) ;
#176 = LOCAL_TIME ( 17, 24, 26.00000000000000000, #75 ) ;
#177 = DIRECTION ( 'NONE',  ( -1.000000000000000000, 1.224646799147351482E-16, 0.000000000000000000 ) ) ;
#178 = VERTEX_POINT ( 'NONE', #210 ) ;
#179 = EDGE_CURVE ( 'NONE', #148, #173, #304, .T. ) ;
#180 = ORIENTED_EDGE ( 'NONE', *, *, #172, .F. ) ;
#181 = ORIENTED_EDGE ( 'NONE', *, *, #93, .F. ) ;
#182 = MANIFOLD_SOLID_BREP ( 'Odebrat vysunutím3', #351 ) ;
#183 = CARTESIAN_POINT ( 'NONE',  ( 0.000000000000000000, 0.000000000000000000, 165.0000000000000000 ) ) ;
#184 = DIRECTION ( 'NONE',  ( 0.000000000000000000, 0.000000000000000000, 1.000000000000000000 ) ) ;
#185 = CC_DESIGN_PERSON_AND_ORGANIZATION_ASSIGNMENT ( #137, #164, ( #311 ) ) ;
#186 = FACE_OUTER_BOUND ( 'NONE', #282, .T. ) ;
#187 = DATE_AND_TIME ( #197, #110 ) ;
#188 = DIRECTION ( 'NONE',  ( 0.000000000000000000, 0.000000000000000000, 1.000000000000000000 ) ) ;
#189 = SECURITY_CLASSIFICATION ( '', '', #285 ) ;
#190 = DIRECTION ( 'NONE',  ( 0.000000000000000000, 0.000000000000000000, 1.000000000000000000 ) ) ;
#191 = EDGE_CURVE ( 'NONE', #174, #271, #102, .T. ) ;
#192 = DATE_TIME_ROLE ( 'creation_date' ) ;
#193 = DIRECTION ( 'NONE',  ( -0.000000000000000000, -0.000000000000000000, -1.000000000000000000 ) ) ;
#194 = CYLINDRICAL_SURFACE ( 'NONE', #349, 7.000000000000000000 ) ;
#195 = APPROVAL_ROLE ( '' ) ;
#196 = CARTESIAN_POINT ( 'NONE',  ( -7.000000000000000000, 0.000000000000000000, 5.000000000000000000 ) ) ;
#197 = CALENDAR_DATE ( 2022, 8, 7 ) ;
#198 = LOCAL_TIME ( 17, 24, 26.00000000000000000, #289 ) ;
#199 = DIRECTION ( 'NONE',  ( 0.000000000000000000, 0.000000000000000000, 1.000000000000000000 ) ) ;
#200 = CARTESIAN_POINT ( 'NONE',  ( 7.000000000000000000, 8.572527594031473190E-16, 0.000000000000000000 ) ) ;
#201 = FACE_OUTER_BOUND ( 'NONE', #300, .T. ) ;
#202 = EDGE_CURVE ( 'NONE', #91, #178, #169, .T. ) ;
#203 = DATE_AND_TIME ( #32, #360 ) ;
#204 = CIRCLE ( 'NONE', #9, 4.000000000000000000 ) ;
#205 = EDGE_CURVE ( 'NONE', #99, #301, #37, .T. ) ;
#206 = ORIENTED_EDGE ( 'NONE', *, *, #191, .T. ) ;
#207 = ORIENTED_EDGE ( 'NONE', *, *, #291, .F. ) ;
#208 = DIRECTION ( 'NONE',  ( 1.000000000000000000, 0.000000000000000000, 0.000000000000000000 ) ) ;
#209 = ORIENTED_EDGE ( 'NONE', *, *, #215, .F. ) ;
#210 = CARTESIAN_POINT ( 'NONE',  ( 4.000000000000000000, 4.898587196589412829E-16, 5.500000000000005329 ) ) ;
#211 = ORIENTED_EDGE ( 'NONE', *, *, #113, .F. ) ;
#212 = EDGE_CURVE ( 'NONE', #173, #301, #347, .T. ) ;
#213 = CARTESIAN_POINT ( 'NONE',  ( 0.000000000000000000, 0.000000000000000000, 0.000000000000000000 ) ) ;
#214 = EDGE_LOOP ( 'NONE', ( #7, #245 ) ) ;
#215 = EDGE_CURVE ( 'NONE', #5, #109, #82, .T. ) ;
#216 = CYLINDRICAL_SURFACE ( 'NONE', #28, 7.000000000000000000 ) ;
#217 = CARTESIAN_POINT ( 'NONE',  ( 0.000000000000000000, 0.000000000000000000, 165.0000000000000000 ) ) ;
#218 = PERSON_AND_ORGANIZATION ( #251, #104 ) ;
#219 = VECTOR ( 'NONE', #193, 1000.000000000000000 ) ;
#220 = ORIENTED_EDGE ( 'NONE', *, *, #51, .T. ) ;
#221 = CARTESIAN_POINT ( 'NONE',  ( 0.000000000000000000, 0.000000000000000000, 165.0000000000000000 ) ) ;
#222 = EDGE_CURVE ( 'NONE', #148, #99, #315, .T. ) ;
#223 = APPROVAL_PERSON_ORGANIZATION ( #343, #352, #77 ) ;
#224 = DATE_AND_TIME ( #316, #198 ) ;
#225 = DIRECTION ( 'NONE',  ( 1.000000000000000000, 0.000000000000000000, 0.000000000000000000 ) ) ;
#226 = CARTESIAN_POINT ( 'NONE',  ( 0.000000000000000000, 0.000000000000000000, 165.0000000000000000 ) ) ;
#227 = MECHANICAL_CONTEXT ( 'NONE', #6, 'mechanical' ) ;
#228 = DIRECTION ( 'NONE',  ( 1.000000000000000000, 0.000000000000000000, -0.000000000000000000 ) ) ;
#229 = AXIS2_PLACEMENT_3D ( 'NONE', #362, #273, #10 ) ;
#230 = EDGE_CURVE ( 'NONE', #178, #5, #16, .T. ) ;
#231 = CC_DESIGN_APPROVAL ( #117, ( #189 ) ) ;
#232 = DIRECTION ( 'NONE',  ( 0.000000000000000000, 0.000000000000000000, 1.000000000000000000 ) ) ;
#233 =( LENGTH_UNIT ( ) NAMED_UNIT ( * ) SI_UNIT ( .MILLI., .METRE. ) );
#234 = CARTESIAN_POINT ( 'NONE',  ( -7.000000000000000000, 0.000000000000000000, 0.000000000000000000 ) ) ;
#235 = CYLINDRICAL_SURFACE ( 'NONE', #126, 2.250000000000000000 ) ;
#236 = ORIENTED_EDGE ( 'NONE', *, *, #128, .F. ) ;
#237 = DIRECTION ( 'NONE',  ( 0.000000000000000000, 0.000000000000000000, -1.000000000000000000 ) ) ;
#238 = DIRECTION ( 'NONE',  ( -0.000000000000000000, -0.000000000000000000, -1.000000000000000000 ) ) ;
#239 = EDGE_LOOP ( 'NONE', ( #287, #303, #121, #366 ) ) ;
#240 = FACE_OUTER_BOUND ( 'NONE', #132, .T. ) ;
#241 = PLANE ( 'NONE',  #379 ) ;
#242 = ORIENTED_EDGE ( 'NONE', *, *, #205, .F. ) ;
#243 = DIRECTION ( 'NONE',  ( 1.000000000000000000, 0.000000000000000000, 0.000000000000000000 ) ) ;
#244 = ORIENTED_EDGE ( 'NONE', *, *, #262, .F. ) ;
#245 = ORIENTED_EDGE ( 'NONE', *, *, #310, .T. ) ;
#246 = CARTESIAN_POINT ( 'NONE',  ( 0.000000000000000000, 0.000000000000000000, 0.000000000000000000 ) ) ;
#247 = EDGE_CURVE ( 'NONE', #301, #173, #108, .T. ) ;
#248 = DIRECTION ( 'NONE',  ( 1.000000000000000000, 0.000000000000000000, 0.000000000000000000 ) ) ;
#249 = CIRCLE ( 'NONE', #144, 4.500000000000000888 ) ;
#250 = DIRECTION ( 'NONE',  ( -1.000000000000000000, 0.000000000000000000, 0.000000000000000000 ) ) ;
#251 = PERSON ( 'NEURÈENÝ', 'NEURÈENÝ', 'NEURÈENÝ', ('NEURÈENÝ'), ('NEURÈENÝ'), ('NEURÈENÝ') ) ;
#252 = CARTESIAN_POINT ( 'NONE',  ( -4.000000000000000000, 0.000000000000000000, 165.0000000000000000 ) ) ;
#253 = AXIS2_PLACEMENT_3D ( 'NONE', #246, #276, #124 ) ;
#254 = DATE_AND_TIME ( #20, #158 ) ;
#255 = PERSON_AND_ORGANIZATION_ROLE ( 'creator' ) ;
#256 = FACE_BOUND ( 'NONE', #33, .T. ) ;
#257 = TOROIDAL_SURFACE ( 'NONE', #11, 4.500000000000000888, 0.5000000000000000000 ) ;
#258 = ADVANCED_FACE ( 'NONE', ( #106 ), #194, .T. ) ;
#259 = APPROVAL_STATUS ( 'not_yet_approved' ) ;
#260 = DIRECTION ( 'NONE',  ( 0.000000000000000000, 0.000000000000000000, 1.000000000000000000 ) ) ;
#261 = CARTESIAN_POINT ( 'NONE',  ( 0.000000000000000000, 0.000000000000000000, 5.500000000000005329 ) ) ;
#262 = EDGE_CURVE ( 'NONE', #174, #359, #76, .T. ) ;
#263 = DIRECTION ( 'NONE',  ( 1.000000000000000000, 0.000000000000000000, 0.000000000000000000 ) ) ;
#264 = ORIENTED_EDGE ( 'NONE', *, *, #205, .T. ) ;
#265 = FACE_OUTER_BOUND ( 'NONE', #214, .T. ) ;
#266 = ORIENTED_EDGE ( 'NONE', *, *, #202, .T. ) ;
#267 = AXIS2_PLACEMENT_3D ( 'NONE', #221, #309, #314 ) ;
#268 = APPROVAL ( #259, 'NEURÈENÝ' ) ;
#269 = ORIENTED_EDGE ( 'NONE', *, *, #27, .F. ) ;
#270 = CARTESIAN_POINT ( 'NONE',  ( 0.000000000000000000, 0.000000000000000000, 5.000000000000000000 ) ) ;
#271 = VERTEX_POINT ( 'NONE', #196 ) ;
#272 = VECTOR ( 'NONE', #283, 1000.000000000000000 ) ;
#273 = DIRECTION ( 'NONE',  ( 0.000000000000000000, -1.000000000000000000, 0.000000000000000000 ) ) ;
#274 = VERTEX_POINT ( 'NONE', #252 ) ;
#275 = PRODUCT_DEFINITION ( 'NEZNÁMÝ', '', #311, #112 ) ;
#276 = DIRECTION ( 'NONE',  ( -0.000000000000000000, -0.000000000000000000, -1.000000000000000000 ) ) ;
#277 = AXIS2_PLACEMENT_3D ( 'NONE', #183, #305, #278 ) ;
#278 = DIRECTION ( 'NONE',  ( -1.000000000000000000, 0.000000000000000000, 0.000000000000000000 ) ) ;
#279 = CARTESIAN_POINT ( 'NONE',  ( 0.000000000000000000, 0.000000000000000000, 5.000000000000000000 ) ) ;
#280 = COORDINATED_UNIVERSAL_TIME_OFFSET ( 1, 0, .AHEAD. ) ;
#281 = APPROVAL_DATE_TIME ( #160, #268 ) ;
#282 = EDGE_LOOP ( 'NONE', ( #269, #207, #73, #266 ) ) ;
#283 = DIRECTION ( 'NONE',  ( -0.000000000000000000, -0.000000000000000000, -1.000000000000000000 ) ) ;
#284 = AXIS2_PLACEMENT_3D ( 'NONE', #90, #35, #364 ) ;
#285 = SECURITY_CLASSIFICATION_LEVEL ( 'unclassified' ) ;
#286 = DIRECTION ( 'NONE',  ( 0.000000000000000000, 0.000000000000000000, 1.000000000000000000 ) ) ;
#287 = ORIENTED_EDGE ( 'NONE', *, *, #310, .F. ) ;
#288 = CARTESIAN_POINT ( 'NONE',  ( 7.000000000000000000, 8.572527594031473190E-16, 5.000000000000000000 ) ) ;
#289 = COORDINATED_UNIVERSAL_TIME_OFFSET ( 1, 0, .AHEAD. ) ;
#290 = DIRECTION ( 'NONE',  ( 1.000000000000000000, 0.000000000000000000, 0.000000000000000000 ) ) ;
#291 = EDGE_CURVE ( 'NONE', #274, #8, #296, .T. ) ;
#292 = AXIS2_PLACEMENT_3D ( 'NONE', #138, #86, #208 ) ;
#293 = CC_DESIGN_SECURITY_CLASSIFICATION ( #189, ( #311 ) ) ;
#294 = EDGE_LOOP ( 'NONE', ( #34, #44 ) ) ;
#295 = VECTOR ( 'NONE', #238, 1000.000000000000000 ) ;
#296 = CIRCLE ( 'NONE', #18, 4.000000000000000000 ) ;
#297 = ORIENTED_EDGE ( 'NONE', *, *, #262, .T. ) ;
#298 = ADVANCED_FACE ( 'NONE', ( #186 ), #22, .T. ) ;
#299 = DIRECTION ( 'NONE',  ( 0.000000000000000000, 0.000000000000000000, 1.000000000000000000 ) ) ;
#300 = EDGE_LOOP ( 'NONE', ( #88, #206 ) ) ;
#301 = VERTEX_POINT ( 'NONE', #159 ) ;
#302 = DIRECTION ( 'NONE',  ( 1.000000000000000000, 0.000000000000000000, 0.000000000000000000 ) ) ;
#303 = ORIENTED_EDGE ( 'NONE', *, *, #27, .T. ) ;
#304 = LINE ( 'NONE', #155, #125 ) ;
#305 = DIRECTION ( 'NONE',  ( -0.000000000000000000, -0.000000000000000000, -1.000000000000000000 ) ) ;
#306 = CARTESIAN_POINT ( 'NONE',  ( 2.250000000000000000, 2.755455298081544285E-16, 165.0000000000000000 ) ) ;
#307 = DIRECTION ( 'NONE',  ( -1.000000000000000000, 0.000000000000000000, 0.000000000000000000 ) ) ;
#308 = DATE_TIME_ROLE ( 'classification_date' ) ;
#309 = DIRECTION ( 'NONE',  ( 0.000000000000000000, 0.000000000000000000, 1.000000000000000000 ) ) ;
#310 = EDGE_CURVE ( 'NONE', #8, #274, #204, .T. ) ;
#311 = PRODUCT_DEFINITION_FORMATION_WITH_SPECIFIED_SOURCE ( 'LIBOVOLNÝ', '', #325, .NOT_KNOWN. ) ;
#312 = CARTESIAN_POINT ( 'NONE',  ( 0.000000000000000000, 0.000000000000000000, 165.0000000000000000 ) ) ;
#313 = PERSON_AND_ORGANIZATION ( #251, #104 ) ;
#314 = DIRECTION ( 'NONE',  ( 1.000000000000000000, 0.000000000000000000, 0.000000000000000000 ) ) ;
#315 = CIRCLE ( 'NONE', #95, 2.250000000000000000 ) ;
#316 = CALENDAR_DATE ( 2022, 8, 7 ) ;
#317 = CARTESIAN_POINT ( 'NONE',  ( 7.000000000000000000, 8.572527594031473190E-16, 5.000000000000000000 ) ) ;
#318 = APPROVAL_ROLE ( '' ) ;
#319 = CARTESIAN_POINT ( 'NONE',  ( -2.250000000000000000, 0.000000000000000000, 165.0000000000000000 ) ) ;
#320 = DIRECTION ( 'NONE',  ( 1.000000000000000000, 0.000000000000000000, 0.000000000000000000 ) ) ;
#321 = CARTESIAN_POINT ( 'NONE',  ( 0.000000000000000000, 0.000000000000000000, 5.000000000000000000 ) ) ;
#322 = AXIS2_PLACEMENT_3D ( 'NONE', #374, #338, #307 ) ;
#323 = ORIENTED_EDGE ( 'NONE', *, *, #51, .F. ) ;
#324 = CARTESIAN_POINT ( 'NONE',  ( -2.250000000000000000, 0.000000000000000000, 0.000000000000000000 ) ) ;
#325 = PRODUCT ( '680f', '680f', '', ( #227 ) ) ;
#326 = CC_DESIGN_PERSON_AND_ORGANIZATION_ASSIGNMENT ( #218, #47, ( #311 ) ) ;
#327 = ORIENTED_EDGE ( 'NONE', *, *, #222, .T. ) ;
#328 = PLANE ( 'NONE',  #340 ) ;
#329 = AXIS2_PLACEMENT_3D ( 'NONE', #49, #163, #225 ) ;
#330 = ORIENTED_EDGE ( 'NONE', *, *, #179, .F. ) ;
#331 = EDGE_LOOP ( 'NONE', ( #119, #367 ) ) ;
#332 = EDGE_CURVE ( 'NONE', #109, #5, #249, .T. ) ;
#333 = ORIENTED_EDGE ( 'NONE', *, *, #25, .T. ) ;
#334 = VECTOR ( 'NONE', #123, 1000.000000000000000 ) ;
#335 = EDGE_LOOP ( 'NONE', ( #181, #211, #357, #146 ) ) ;
#336 = CARTESIAN_POINT ( 'NONE',  ( 0.000000000000000000, 0.000000000000000000, 5.000000000000000000 ) ) ;
#337 = ADVANCED_FACE ( 'NONE', ( #240 ), #235, .F. ) ;
#338 = DIRECTION ( 'NONE',  ( -0.000000000000000000, -0.000000000000000000, -1.000000000000000000 ) ) ;
#339 = DIRECTION ( 'NONE',  ( 0.000000000000000000, 0.000000000000000000, 1.000000000000000000 ) ) ;
#340 = AXIS2_PLACEMENT_3D ( 'NONE', #133, #260, #50 ) ;
#341 = LINE ( 'NONE', #17, #219 ) ;
#342 = CC_DESIGN_PERSON_AND_ORGANIZATION_ASSIGNMENT ( #313, #97, ( #325 ) ) ;
#343 = PERSON_AND_ORGANIZATION ( #251, #104 ) ;
#344 = DIRECTION ( 'NONE',  ( 0.000000000000000000, 0.000000000000000000, -1.000000000000000000 ) ) ;
#345 = COORDINATED_UNIVERSAL_TIME_OFFSET ( 1, 0, .AHEAD. ) ;
#346 = LINE ( 'NONE', #141, #295 ) ;
#347 = CIRCLE ( 'NONE', #253, 2.250000000000000000 ) ;
#348 = CARTESIAN_POINT ( 'NONE',  ( 0.000000000000000000, 0.000000000000000000, 165.0000000000000000 ) ) ;
#349 = AXIS2_PLACEMENT_3D ( 'NONE', #79, #130, #101 ) ;
#350 = DIRECTION ( 'NONE',  ( 1.000000000000000000, 0.000000000000000000, 0.000000000000000000 ) ) ;
#351 = CLOSED_SHELL ( 'NONE', ( #157, #370, #54, #74, #258, #143, #161, #298, #100, #14, #337 ) ) ;
#352 = APPROVAL ( #43, 'NEURÈENÝ' ) ;
#353 = AXIS2_PLACEMENT_3D ( 'NONE', #152, #184, #302 ) ;
#354 = VERTEX_POINT ( 'NONE', #234 ) ;
#355 = DIRECTION ( 'NONE',  ( -1.000000000000000000, 0.000000000000000000, 0.000000000000000000 ) ) ;
#356 = SHAPE_DEFINITION_REPRESENTATION ( #145, #60 ) ;
#357 = ORIENTED_EDGE ( 'NONE', *, *, #230, .T. ) ;
#358 = CARTESIAN_POINT ( 'NONE',  ( 0.000000000000000000, 0.000000000000000000, 5.500000000000005329 ) ) ;
#359 = VERTEX_POINT ( 'NONE', #200 ) ;
#360 = LOCAL_TIME ( 17, 24, 26.00000000000000000, #56 ) ;
#361 = ORIENTED_EDGE ( 'NONE', *, *, #179, .T. ) ;
#362 = CARTESIAN_POINT ( 'NONE',  ( 4.500000000000000888, 0.000000000000000000, 5.500000000000005329 ) ) ;
#363 = CIRCLE ( 'NONE', #98, 7.000000000000000000 ) ;
#364 = DIRECTION ( 'NONE',  ( 1.000000000000000000, 0.000000000000000000, 0.000000000000000000 ) ) ;
#365 = DIRECTION ( 'NONE',  ( 1.000000000000000000, 0.000000000000000000, 0.000000000000000000 ) ) ;
#366 = ORIENTED_EDGE ( 'NONE', *, *, #21, .F. ) ;
#367 = ORIENTED_EDGE ( 'NONE', *, *, #332, .T. ) ;
#368 = TOROIDAL_SURFACE ( 'NONE', #120, 4.500000000000000888, 0.5000000000000000000 ) ;
#369 = DIRECTION ( 'NONE',  ( 1.000000000000000000, 0.000000000000000000, 0.000000000000000000 ) ) ;
#370 = ADVANCED_FACE ( 'NONE', ( #168 ), #368, .F. ) ;
#371 = CARTESIAN_POINT ( 'NONE',  ( -4.000000000000000000, 0.000000000000000000, 5.500000000000005329 ) ) ;
#372 = DIRECTION ( 'NONE',  ( 1.000000000000000000, 0.000000000000000000, 0.000000000000000000 ) ) ;
#373 = CARTESIAN_POINT ( 'NONE',  ( 0.000000000000000000, 0.000000000000000000, 5.500000000000005329 ) ) ;
#374 = CARTESIAN_POINT ( 'NONE',  ( 0.000000000000000000, 0.000000000000000000, 165.0000000000000000 ) ) ;
#375 = PERSON_AND_ORGANIZATION ( #251, #104 ) ;
#376 = EDGE_LOOP ( 'NONE', ( #30, #297, #36, #180 ) ) ;
#377 =( GEOMETRIC_REPRESENTATION_CONTEXT ( 3 ) GLOBAL_UNCERTAINTY_ASSIGNED_CONTEXT ( ( #81 ) ) GLOBAL_UNIT_ASSIGNED_CONTEXT ( ( #233, #55, #15 ) ) REPRESENTATION_CONTEXT ( 'NONE', 'WORKASPACE' ) );
#378 = DIRECTION ( 'NONE',  ( 1.000000000000000000, 0.000000000000000000, -0.000000000000000000 ) ) ;
#379 = AXIS2_PLACEMENT_3D ( 'NONE', #24, #232, #378 ) ;
#380 = APPLICATION_PROTOCOL_DEFINITION ( 'international standard', 'config_control_design', 1994, #175 ) ;
#381 = FACE_OUTER_BOUND ( 'NONE', #89, .T. ) ;
ENDSEC;
END-ISO-10303-21;
