ISO-10303-21;
HEADER;
FILE_DESCRIPTION (( 'STEP AP203' ),
    '1' );
FILE_NAME ('352a.STEP',
    '2022-07-08T15:55:38',
    ( '' ),
    ( '' ),
    'SwSTEP 2.0',
    'SolidWorks 2019',
    '' );
FILE_SCHEMA (( 'CONFIG_CONTROL_DESIGN' ));
ENDSEC;

DATA;
#1 = DIRECTION ( 'NONE',  ( -0.000000000000000000, -0.000000000000000000, -1.000000000000000000 ) ) ;
#2 = ORIENTED_EDGE ( 'NONE', *, *, #51, .F. ) ;
#3 = AXIS2_PLACEMENT_3D ( 'NONE', #170, #313, #144 ) ;
#4 = DIRECTION ( 'NONE',  ( -1.000000000000000000, 0.000000000000000000, 0.000000000000000000 ) ) ;
#5 = EDGE_LOOP ( 'NONE', ( #182, #210, #101, #38 ) ) ;
#6 = SECURITY_CLASSIFICATION ( '', '', #163 ) ;
#7 = DIRECTION ( 'NONE',  ( -1.000000000000000000, 0.000000000000000000, 0.000000000000000000 ) ) ;
#8 = EDGE_CURVE ( 'NONE', #102, #104, #277, .T. ) ;
#9 = DIRECTION ( 'NONE',  ( 1.000000000000000000, 0.000000000000000000, 0.000000000000000000 ) ) ;
#10 = COORDINATED_UNIVERSAL_TIME_OFFSET ( 1, 0, .AHEAD. ) ;
#11 = ORIENTED_EDGE ( 'NONE', *, *, #126, .T. ) ;
#12 = DATE_TIME_ROLE ( 'classification_date' ) ;
#13 = ORIENTED_EDGE ( 'NONE', *, *, #379, .F. ) ;
#14 = ORIENTED_EDGE ( 'NONE', *, *, #271, .T. ) ;
#15 = COORDINATED_UNIVERSAL_TIME_OFFSET ( 1, 0, .AHEAD. ) ;
#16 = CARTESIAN_POINT ( 'NONE',  ( -1.000000000000000000, 0.000000000000000000, 0.000000000000000000 ) ) ;
#17 = EDGE_CURVE ( 'NONE', #104, #302, #334, .T. ) ;
#18 = PERSON_AND_ORGANIZATION ( #183, #58 ) ;
#19 = CARTESIAN_POINT ( 'NONE',  ( 0.000000000000000000, 0.000000000000000000, 3.299999999999997158 ) ) ;
#20 = CARTESIAN_POINT ( 'NONE',  ( -4.000000000000000000, 0.000000000000000000, 3.000000000000000000 ) ) ;
#21 = CC_DESIGN_PERSON_AND_ORGANIZATION_ASSIGNMENT ( #244, #364, ( #361 ) ) ;
#22 = CARTESIAN_POINT ( 'NONE',  ( 1.000000000000000000, 1.224646799147353207E-16, 103.0000000000000142 ) ) ;
#23 = FACE_OUTER_BOUND ( 'NONE', #5, .T. ) ;
#24 = CIRCLE ( 'NONE', #212, 2.299999999999999822 ) ;
#25 = FACE_OUTER_BOUND ( 'NONE', #189, .T. ) ;
#26 = FACE_OUTER_BOUND ( 'NONE', #76, .T. ) ;
#27 = PLANE ( 'NONE',  #375 ) ;
#28 = TOROIDAL_SURFACE ( 'NONE', #91, 2.299999999999999822, 0.2999999999999999889 ) ;
#29 = CARTESIAN_POINT ( 'NONE',  ( -1.000000000000000000, 0.000000000000000000, 103.0000000000000142 ) ) ;
#30 = LINE ( 'NONE', #294, #338 ) ;
#31 = EDGE_LOOP ( 'NONE', ( #295, #192 ) ) ;
#32 = DIRECTION ( 'NONE',  ( 0.000000000000000000, 0.000000000000000000, -1.000000000000000000 ) ) ;
#33 = VERTEX_POINT ( 'NONE', #79 ) ;
#34 = CARTESIAN_POINT ( 'NONE',  ( 0.000000000000000000, 0.000000000000000000, 3.000000000000000000 ) ) ;
#35 = CC_DESIGN_PERSON_AND_ORGANIZATION_ASSIGNMENT ( #36, #69, ( #6 ) ) ;
#36 = PERSON_AND_ORGANIZATION ( #183, #58 ) ;
#37 =( NAMED_UNIT ( * ) SI_UNIT ( $, .STERADIAN. ) SOLID_ANGLE_UNIT ( ) );
#38 = ORIENTED_EDGE ( 'NONE', *, *, #8, .F. ) ;
#39 =( LENGTH_UNIT ( ) NAMED_UNIT ( * ) SI_UNIT ( .MILLI., .METRE. ) );
#40 = LOCAL_TIME ( 17, 55, 38.00000000000000000, #43 ) ;
#41 = DIRECTION ( 'NONE',  ( 1.000000000000000000, 0.000000000000000000, 0.000000000000000000 ) ) ;
#42 = CARTESIAN_POINT ( 'NONE',  ( -4.000000000000000000, 0.000000000000000000, 3.000000000000000000 ) ) ;
#43 = COORDINATED_UNIVERSAL_TIME_OFFSET ( 1, 0, .AHEAD. ) ;
#44 = EDGE_LOOP ( 'NONE', ( #272, #2, #337, #191 ) ) ;
#45 = VERTEX_POINT ( 'NONE', #16 ) ;
#46 = DATE_AND_TIME ( #217, #124 ) ;
#47 = DIRECTION ( 'NONE',  ( 1.000000000000000000, 0.000000000000000000, 0.000000000000000000 ) ) ;
#48 = ADVANCED_FACE ( 'NONE', ( #367 ), #168, .F. ) ;
#49 = CARTESIAN_POINT ( 'NONE',  ( 0.000000000000000000, 0.000000000000000000, 103.0000000000000142 ) ) ;
#50 = DIRECTION ( 'NONE',  ( 1.000000000000000000, 0.000000000000000000, 0.000000000000000000 ) ) ;
#51 = EDGE_CURVE ( 'NONE', #324, #365, #115, .T. ) ;
#52 = CARTESIAN_POINT ( 'NONE',  ( 0.000000000000000000, 0.000000000000000000, 0.000000000000000000 ) ) ;
#53 = DIRECTION ( 'NONE',  ( 0.000000000000000000, 0.000000000000000000, 1.000000000000000000 ) ) ;
#54 = AXIS2_PLACEMENT_3D ( 'NONE', #82, #254, #172 ) ;
#55 = DIRECTION ( 'NONE',  ( -1.000000000000000000, 0.000000000000000000, 0.000000000000000000 ) ) ;
#56 = EDGE_LOOP ( 'NONE', ( #121, #109 ) ) ;
#57 = AXIS2_PLACEMENT_3D ( 'NONE', #49, #117, #319 ) ;
#58 = ORGANIZATION ( 'NEURÈENÝ', 'NEURÈENÝ', '' ) ;
#59 = VERTEX_POINT ( 'NONE', #286 ) ;
#60 = CYLINDRICAL_SURFACE ( 'NONE', #187, 2.000000000000000000 ) ;
#61 = VERTEX_POINT ( 'NONE', #141 ) ;
#62 = DESIGN_CONTEXT ( 'detailed design', #219, 'design' ) ;
#63 = CC_DESIGN_PERSON_AND_ORGANIZATION_ASSIGNMENT ( #105, #299, ( #298 ) ) ;
#64 = AXIS2_PLACEMENT_3D ( 'NONE', #195, #378, #225 ) ;
#65 = CARTESIAN_POINT ( 'NONE',  ( 0.000000000000000000, 0.000000000000000000, 103.0000000000000142 ) ) ;
#66 = AXIS2_PLACEMENT_3D ( 'NONE', #325, #234, #296 ) ;
#67 = CARTESIAN_POINT ( 'NONE',  ( 0.000000000000000000, 0.000000000000000000, 103.0000000000000142 ) ) ;
#68 = EDGE_CURVE ( 'NONE', #229, #339, #310, .T. ) ;
#69 = PERSON_AND_ORGANIZATION_ROLE ( 'classification_officer' ) ;
#70 = EDGE_LOOP ( 'NONE', ( #72, #166 ) ) ;
#71 = CLOSED_SHELL ( 'NONE', ( #300, #48, #184, #147, #333, #312, #227, #293, #260, #176, #318 ) ) ;
#72 = ORIENTED_EDGE ( 'NONE', *, *, #68, .F. ) ;
#73 = APPROVAL_STATUS ( 'not_yet_approved' ) ;
#74 = AXIS2_PLACEMENT_3D ( 'NONE', #252, #112, #226 ) ;
#75 = AXIS2_PLACEMENT_3D ( 'NONE', #203, #32, #7 ) ;
#76 = EDGE_LOOP ( 'NONE', ( #132, #207, #96, #332 ) ) ;
#77 = APPROVAL_ROLE ( '' ) ;
#78 = ORIENTED_EDGE ( 'NONE', *, *, #211, .F. ) ;
#79 = CARTESIAN_POINT ( 'NONE',  ( 4.000000000000000000, 4.898587196589412829E-16, 3.000000000000000000 ) ) ;
#80 = CARTESIAN_POINT ( 'NONE',  ( 0.000000000000000000, 0.000000000000000000, 3.299999999999997158 ) ) ;
#81 = EDGE_CURVE ( 'NONE', #302, #104, #162, .T. ) ;
#82 = CARTESIAN_POINT ( 'NONE',  ( 0.000000000000000000, 0.000000000000000000, 3.000000000000000000 ) ) ;
#83 = CYLINDRICAL_SURFACE ( 'NONE', #57, 2.000000000000000000 ) ;
#84 = VECTOR ( 'NONE', #250, 1000.000000000000000 ) ;
#85 = DIRECTION ( 'NONE',  ( -0.000000000000000000, -0.000000000000000000, -1.000000000000000000 ) ) ;
#86 = CC_DESIGN_APPROVAL ( #331, ( #155 ) ) ;
#87 = EDGE_CURVE ( 'NONE', #339, #229, #224, .T. ) ;
#88 = CARTESIAN_POINT ( 'NONE',  ( 0.000000000000000000, 0.000000000000000000, 0.000000000000000000 ) ) ;
#89 = CYLINDRICAL_SURFACE ( 'NONE', #75, 1.000000000000000000 ) ;
#90 = CYLINDRICAL_SURFACE ( 'NONE', #118, 1.000000000000000000 ) ;
#91 = AXIS2_PLACEMENT_3D ( 'NONE', #80, #53, #223 ) ;
#92 = CIRCLE ( 'NONE', #66, 0.2999999999999999334 ) ;
#93 = DIRECTION ( 'NONE',  ( 0.000000000000000000, 0.000000000000000000, -1.000000000000000000 ) ) ;
#94 = VERTEX_POINT ( 'NONE', #167 ) ;
#95 = FACE_BOUND ( 'NONE', #70, .T. ) ;
#96 = ORIENTED_EDGE ( 'NONE', *, *, #274, .T. ) ;
#97 = AXIS2_PLACEMENT_3D ( 'NONE', #309, #256, #283 ) ;
#98 = CARTESIAN_POINT ( 'NONE',  ( 4.000000000000000000, 4.898587196589412829E-16, 3.000000000000000000 ) ) ;
#99 = VECTOR ( 'NONE', #148, 1000.000000000000000 ) ;
#100 = PERSON_AND_ORGANIZATION_ROLE ( 'creator' ) ;
#101 = ORIENTED_EDGE ( 'NONE', *, *, #81, .T. ) ;
#102 = VERTEX_POINT ( 'NONE', #20 ) ;
#103 = DATE_AND_TIME ( #237, #323 ) ;
#104 = VERTEX_POINT ( 'NONE', #281 ) ;
#105 = PERSON_AND_ORGANIZATION ( #183, #58 ) ;
#106 = ORIENTED_EDGE ( 'NONE', *, *, #110, .T. ) ;
#107 = CC_DESIGN_DATE_AND_TIME_ASSIGNMENT ( #340, #209, ( #155 ) ) ;
#108 = APPROVAL_DATE_TIME ( #103, #331 ) ;
#109 = ORIENTED_EDGE ( 'NONE', *, *, #241, .F. ) ;
#110 = EDGE_CURVE ( 'NONE', #33, #102, #343, .T. ) ;
#111 = DIRECTION ( 'NONE',  ( 0.000000000000000000, 0.000000000000000000, 1.000000000000000000 ) ) ;
#112 = DIRECTION ( 'NONE',  ( -0.000000000000000000, -0.000000000000000000, -1.000000000000000000 ) ) ;
#113 = CYLINDRICAL_SURFACE ( 'NONE', #64, 4.000000000000000000 ) ;
#114 = CARTESIAN_POINT ( 'NONE',  ( -2.299999999999999822, 2.816687638038912056E-16, 2.999999999999998668 ) ) ;
#115 = CIRCLE ( 'NONE', #97, 2.000000000000000000 ) ;
#116 = APPROVAL_STATUS ( 'not_yet_approved' ) ;
#117 = DIRECTION ( 'NONE',  ( -0.000000000000000000, -0.000000000000000000, -1.000000000000000000 ) ) ;
#118 = AXIS2_PLACEMENT_3D ( 'NONE', #67, #93, #120 ) ;
#119 = DIRECTION ( 'NONE',  ( 1.000000000000000000, 0.000000000000000000, 0.000000000000000000 ) ) ;
#120 = DIRECTION ( 'NONE',  ( -1.000000000000000000, 0.000000000000000000, 0.000000000000000000 ) ) ;
#121 = ORIENTED_EDGE ( 'NONE', *, *, #236, .F. ) ;
#122 = FACE_OUTER_BOUND ( 'NONE', #311, .T. ) ;
#123 = CIRCLE ( 'NONE', #221, 1.000000000000000000 ) ;
#124 = LOCAL_TIME ( 17, 55, 38.00000000000000000, #253 ) ;
#125 = DIRECTION ( 'NONE',  ( -0.000000000000000000, -0.000000000000000000, -1.000000000000000000 ) ) ;
#126 = EDGE_CURVE ( 'NONE', #365, #61, #372, .T. ) ;
#127 = CARTESIAN_POINT ( 'NONE',  ( 1.000000000000000000, 1.224646799147353207E-16, 0.000000000000000000 ) ) ;
#128 = AXIS2_PLACEMENT_3D ( 'NONE', #19, #129, #362 ) ;
#129 = DIRECTION ( 'NONE',  ( 0.000000000000000000, 0.000000000000000000, 1.000000000000000000 ) ) ;
#130 = CC_DESIGN_PERSON_AND_ORGANIZATION_ASSIGNMENT ( #213, #330, ( #298 ) ) ;
#131 = VERTEX_POINT ( 'NONE', #114 ) ;
#132 = ORIENTED_EDGE ( 'NONE', *, *, #271, .F. ) ;
#133 = CALENDAR_DATE ( 2022, 8, 7 ) ;
#134 = ORIENTED_EDGE ( 'NONE', *, *, #255, .T. ) ;
#135 = PERSON_AND_ORGANIZATION ( #183, #58 ) ;
#136 = LOCAL_TIME ( 17, 55, 38.00000000000000000, #190 ) ;
#137 = ORIENTED_EDGE ( 'NONE', *, *, #173, .F. ) ;
#138 = FACE_BOUND ( 'NONE', #56, .T. ) ;
#139 = CARTESIAN_POINT ( 'NONE',  ( -1.000000000000000000, 0.000000000000000000, 103.0000000000000142 ) ) ;
#140 = AXIS2_PLACEMENT_3D ( 'NONE', #52, #145, #344 ) ;
#141 = CARTESIAN_POINT ( 'NONE',  ( 2.000000000000000000, 2.449293598294706414E-16, 3.299999999999997158 ) ) ;
#142 = AXIS2_PLACEMENT_3D ( 'NONE', #65, #381, #119 ) ;
#143 = SHAPE_DEFINITION_REPRESENTATION ( #240, #178 ) ;
#144 = DIRECTION ( 'NONE',  ( 1.000000000000000000, 0.000000000000000000, 0.000000000000000000 ) ) ;
#145 = DIRECTION ( 'NONE',  ( 0.000000000000000000, 0.000000000000000000, 1.000000000000000000 ) ) ;
#146 = DIRECTION ( 'NONE',  ( 0.000000000000000000, 0.000000000000000000, 1.000000000000000000 ) ) ;
#147 = ADVANCED_FACE ( 'NONE', ( #23 ), #113, .T. ) ;
#148 = DIRECTION ( 'NONE',  ( 0.000000000000000000, 0.000000000000000000, -1.000000000000000000 ) ) ;
#149 = DIRECTION ( 'NONE',  ( 0.000000000000000000, 0.000000000000000000, 1.000000000000000000 ) ) ;
#150 = DIRECTION ( 'NONE',  ( -0.000000000000000000, -0.000000000000000000, -1.000000000000000000 ) ) ;
#151 = AXIS2_PLACEMENT_3D ( 'NONE', #193, #376, #218 ) ;
#152 = FACE_OUTER_BOUND ( 'NONE', #44, .T. ) ;
#153 = CALENDAR_DATE ( 2022, 8, 7 ) ;
#154 = ORIENTED_EDGE ( 'NONE', *, *, #8, .T. ) ;
#155 = PRODUCT_DEFINITION ( 'NEZNÁMÝ', '', #298, #62 ) ;
#156 = ORIENTED_EDGE ( 'NONE', *, *, #369, .T. ) ;
#157 =( GEOMETRIC_REPRESENTATION_CONTEXT ( 3 ) GLOBAL_UNCERTAINTY_ASSIGNED_CONTEXT ( ( #175 ) ) GLOBAL_UNIT_ASSIGNED_CONTEXT ( ( #39, #301, #37 ) ) REPRESENTATION_CONTEXT ( 'NONE', 'WORKASPACE' ) );
#158 = EDGE_CURVE ( 'NONE', #59, #131, #349, .T. ) ;
#159 = EDGE_LOOP ( 'NONE', ( #216, #11, #245, #204 ) ) ;
#160 = APPROVAL_STATUS ( 'not_yet_approved' ) ;
#161 = CARTESIAN_POINT ( 'NONE',  ( 0.000000000000000000, 0.000000000000000000, 0.000000000000000000 ) ) ;
#162 = CIRCLE ( 'NONE', #348, 4.000000000000000000 ) ;
#163 = SECURITY_CLASSIFICATION_LEVEL ( 'unclassified' ) ;
#164 = ORIENTED_EDGE ( 'NONE', *, *, #173, .T. ) ;
#165 = CC_DESIGN_APPROVAL ( #303, ( #6 ) ) ;
#166 = ORIENTED_EDGE ( 'NONE', *, *, #87, .F. ) ;
#167 = CARTESIAN_POINT ( 'NONE',  ( -2.000000000000000000, 0.000000000000000000, 3.299999999999997158 ) ) ;
#168 = TOROIDAL_SURFACE ( 'NONE', #128, 2.299999999999999822, 0.2999999999999999889 ) ;
#169 = DIRECTION ( 'NONE',  ( 1.000000000000000000, 0.000000000000000000, 0.000000000000000000 ) ) ;
#170 = CARTESIAN_POINT ( 'NONE',  ( 0.000000000000000000, 0.000000000000000000, 103.0000000000000142 ) ) ;
#171 = DIRECTION ( 'NONE',  ( 0.000000000000000000, 0.000000000000000000, 1.000000000000000000 ) ) ;
#172 = DIRECTION ( 'NONE',  ( 1.000000000000000000, 0.000000000000000000, 0.000000000000000000 ) ) ;
#173 = EDGE_CURVE ( 'NONE', #339, #357, #197, .T. ) ;
#174 = FACE_OUTER_BOUND ( 'NONE', #342, .T. ) ;
#175 = UNCERTAINTY_MEASURE_WITH_UNIT (LENGTH_MEASURE( 1.000000000000000082E-05 ), #39, 'distance_accuracy_value', 'NONE');
#176 = ADVANCED_FACE ( 'NONE', ( #26 ), #28, .F. ) ;
#177 = DIRECTION ( 'NONE',  ( 1.000000000000000000, 0.000000000000000000, -0.000000000000000000 ) ) ;
#178 = ADVANCED_BREP_SHAPE_REPRESENTATION ( '352a', ( #336, #290 ), #157 ) ;
#179 = EDGE_CURVE ( 'NONE', #61, #94, #360, .T. ) ;
#180 = FACE_OUTER_BOUND ( 'NONE', #326, .T. ) ;
#181 = DATE_AND_TIME ( #153, #136 ) ;
#182 = ORIENTED_EDGE ( 'NONE', *, *, #110, .F. ) ;
#183 = PERSON ( 'NEURÈENÝ', 'NEURÈENÝ', 'NEURÈENÝ', ('NEURÈENÝ'), ('NEURÈENÝ'), ('NEURÈENÝ') ) ;
#184 = ADVANCED_FACE ( 'NONE', ( #347 ), #83, .T. ) ;
#185 = ORIENTED_EDGE ( 'NONE', *, *, #241, .T. ) ;
#186 = CC_DESIGN_PERSON_AND_ORGANIZATION_ASSIGNMENT ( #308, #100, ( #155 ) ) ;
#187 = AXIS2_PLACEMENT_3D ( 'NONE', #353, #150, #4 ) ;
#188 = APPROVAL_ROLE ( '' ) ;
#189 = EDGE_LOOP ( 'NONE', ( #304, #269 ) ) ;
#190 = COORDINATED_UNIVERSAL_TIME_OFFSET ( 1, 0, .AHEAD. ) ;
#191 = ORIENTED_EDGE ( 'NONE', *, *, #214, .T. ) ;
#192 = ORIENTED_EDGE ( 'NONE', *, *, #341, .T. ) ;
#193 = CARTESIAN_POINT ( 'NONE',  ( 0.000000000000000000, 0.000000000000000000, 3.299999999999997158 ) ) ;
#194 = APPROVAL_DATE_TIME ( #46, #303 ) ;
#195 = CARTESIAN_POINT ( 'NONE',  ( 0.000000000000000000, 0.000000000000000000, 3.000000000000000000 ) ) ;
#196 = DIRECTION ( 'NONE',  ( 1.000000000000000000, 0.000000000000000000, 0.000000000000000000 ) ) ;
#197 = LINE ( 'NONE', #22, #220 ) ;
#198 = AXIS2_PLACEMENT_3D ( 'NONE', #321, #125, #55 ) ;
#199 = DIRECTION ( 'NONE',  ( -0.000000000000000000, -0.000000000000000000, -1.000000000000000000 ) ) ;
#200 = CYLINDRICAL_SURFACE ( 'NONE', #198, 4.000000000000000000 ) ;
#201 = ORIENTED_EDGE ( 'NONE', *, *, #17, .T. ) ;
#202 = FACE_BOUND ( 'NONE', #31, .T. ) ;
#203 = CARTESIAN_POINT ( 'NONE',  ( 0.000000000000000000, 0.000000000000000000, 103.0000000000000142 ) ) ;
#204 = ORIENTED_EDGE ( 'NONE', *, *, #280, .F. ) ;
#205 = CARTESIAN_POINT ( 'NONE',  ( 2.299999999999999822, 0.000000000000000000, 3.299999999999997158 ) ) ;
#206 = DIRECTION ( 'NONE',  ( -0.000000000000000000, -0.000000000000000000, -1.000000000000000000 ) ) ;
#207 = ORIENTED_EDGE ( 'NONE', *, *, #179, .F. ) ;
#208 = ORIENTED_EDGE ( 'NONE', *, *, #87, .T. ) ;
#209 = DATE_TIME_ROLE ( 'creation_date' ) ;
#210 = ORIENTED_EDGE ( 'NONE', *, *, #379, .T. ) ;
#211 = EDGE_CURVE ( 'NONE', #102, #33, #317, .T. ) ;
#212 = AXIS2_PLACEMENT_3D ( 'NONE', #258, #206, #9 ) ;
#213 = PERSON_AND_ORGANIZATION ( #183, #58 ) ;
#214 = EDGE_CURVE ( 'NONE', #94, #61, #239, .T. ) ;
#215 = MECHANICAL_CONTEXT ( 'NONE', #314, 'mechanical' ) ;
#216 = ORIENTED_EDGE ( 'NONE', *, *, #255, .F. ) ;
#217 = CALENDAR_DATE ( 2022, 8, 7 ) ;
#218 = DIRECTION ( 'NONE',  ( 1.000000000000000000, 0.000000000000000000, 0.000000000000000000 ) ) ;
#219 = APPLICATION_CONTEXT ( 'configuration controlled 3d designs of mechanical parts and assemblies' ) ;
#220 = VECTOR ( 'NONE', #287, 1000.000000000000000 ) ;
#221 = AXIS2_PLACEMENT_3D ( 'NONE', #352, #358, #354 ) ;
#222 = DIRECTION ( 'NONE',  ( 1.000000000000000000, 0.000000000000000000, 0.000000000000000000 ) ) ;
#223 = DIRECTION ( 'NONE',  ( 1.000000000000000000, 0.000000000000000000, 0.000000000000000000 ) ) ;
#224 = CIRCLE ( 'NONE', #327, 1.000000000000000000 ) ;
#225 = DIRECTION ( 'NONE',  ( -1.000000000000000000, 0.000000000000000000, 0.000000000000000000 ) ) ;
#226 = DIRECTION ( 'NONE',  ( 1.000000000000000000, 0.000000000000000000, 0.000000000000000000 ) ) ;
#227 = ADVANCED_FACE ( 'NONE', ( #138, #25 ), #377, .F. ) ;
#228 = CARTESIAN_POINT ( 'NONE',  ( 0.000000000000000000, 0.000000000000000000, 103.0000000000000142 ) ) ;
#229 = VERTEX_POINT ( 'NONE', #139 ) ;
#230 = DIRECTION ( 'NONE',  ( 1.000000000000000000, 0.000000000000000000, -0.000000000000000000 ) ) ;
#231 = CIRCLE ( 'NONE', #74, 1.000000000000000000 ) ;
#232 = EDGE_LOOP ( 'NONE', ( #238, #106 ) ) ;
#233 = CIRCLE ( 'NONE', #380, 0.2999999999999999334 ) ;
#234 = DIRECTION ( 'NONE',  ( 1.224646799147353207E-16, 1.000000000000000000, -0.000000000000000000 ) ) ;
#235 = CARTESIAN_POINT ( 'NONE',  ( 2.000000000000000000, 2.449293598294706414E-16, 103.0000000000000142 ) ) ;
#236 = EDGE_CURVE ( 'NONE', #45, #357, #231, .T. ) ;
#237 = CALENDAR_DATE ( 2022, 8, 7 ) ;
#238 = ORIENTED_EDGE ( 'NONE', *, *, #211, .T. ) ;
#239 = CIRCLE ( 'NONE', #305, 2.000000000000000000 ) ;
#240 = PRODUCT_DEFINITION_SHAPE ( 'NONE', 'NONE',  #155 ) ;
#241 = EDGE_CURVE ( 'NONE', #357, #45, #123, .T. ) ;
#242 = PERSON_AND_ORGANIZATION ( #183, #58 ) ;
#243 = ORIENTED_EDGE ( 'NONE', *, *, #369, .F. ) ;
#244 = PERSON_AND_ORGANIZATION ( #183, #58 ) ;
#245 = ORIENTED_EDGE ( 'NONE', *, *, #179, .T. ) ;
#246 = DATE_AND_TIME ( #133, #355 ) ;
#247 = DIRECTION ( 'NONE',  ( 0.000000000000000000, 0.000000000000000000, 1.000000000000000000 ) ) ;
#248 = APPROVAL_PERSON_ORGANIZATION ( #242, #303, #282 ) ;
#249 = APPLICATION_PROTOCOL_DEFINITION ( 'international standard', 'config_control_design', 1994, #314 ) ;
#250 = DIRECTION ( 'NONE',  ( -0.000000000000000000, -0.000000000000000000, -1.000000000000000000 ) ) ;
#251 = DIRECTION ( 'NONE',  ( 0.000000000000000000, 0.000000000000000000, 1.000000000000000000 ) ) ;
#252 = CARTESIAN_POINT ( 'NONE',  ( 0.000000000000000000, 0.000000000000000000, 0.000000000000000000 ) ) ;
#253 = COORDINATED_UNIVERSAL_TIME_OFFSET ( 1, 0, .AHEAD. ) ;
#254 = DIRECTION ( 'NONE',  ( 0.000000000000000000, 0.000000000000000000, 1.000000000000000000 ) ) ;
#255 = EDGE_CURVE ( 'NONE', #365, #324, #264, .T. ) ;
#256 = DIRECTION ( 'NONE',  ( 0.000000000000000000, 0.000000000000000000, 1.000000000000000000 ) ) ;
#257 = AXIS2_PLACEMENT_3D ( 'NONE', #374, #111, #196 ) ;
#258 = CARTESIAN_POINT ( 'NONE',  ( 0.000000000000000000, 0.000000000000000000, 3.000000000000000000 ) ) ;
#259 = FACE_OUTER_BOUND ( 'NONE', #307, .T. ) ;
#260 = ADVANCED_FACE ( 'NONE', ( #95, #259 ), #27, .T. ) ;
#261 = DIRECTION ( 'NONE',  ( -0.000000000000000000, -0.000000000000000000, -1.000000000000000000 ) ) ;
#262 = CARTESIAN_POINT ( 'NONE',  ( 4.000000000000000000, 4.898587196589412829E-16, 0.000000000000000000 ) ) ;
#263 = AXIS2_PLACEMENT_3D ( 'NONE', #315, #85, #169 ) ;
#264 = CIRCLE ( 'NONE', #142, 2.000000000000000000 ) ;
#265 = PLANE ( 'NONE',  #351 ) ;
#266 = APPLICATION_PROTOCOL_DEFINITION ( 'international standard', 'config_control_design', 1994, #219 ) ;
#267 = VECTOR ( 'NONE', #199, 1000.000000000000000 ) ;
#268 = CARTESIAN_POINT ( 'NONE',  ( 0.000000000000000000, 0.000000000000000000, 0.000000000000000000 ) ) ;
#269 = ORIENTED_EDGE ( 'NONE', *, *, #81, .F. ) ;
#270 = APPROVAL_PERSON_ORGANIZATION ( #135, #284, #188 ) ;
#271 = EDGE_CURVE ( 'NONE', #94, #131, #92, .T. ) ;
#272 = ORIENTED_EDGE ( 'NONE', *, *, #126, .F. ) ;
#273 = CALENDAR_DATE ( 2022, 8, 7 ) ;
#274 = EDGE_CURVE ( 'NONE', #61, #59, #233, .T. ) ;
#275 = ORIENTED_EDGE ( 'NONE', *, *, #214, .F. ) ;
#276 = DIRECTION ( 'NONE',  ( 0.000000000000000000, 0.000000000000000000, 1.000000000000000000 ) ) ;
#277 = LINE ( 'NONE', #42, #84 ) ;
#278 = APPROVAL_PERSON_ORGANIZATION ( #18, #331, #77 ) ;
#279 = ORIENTED_EDGE ( 'NONE', *, *, #158, .F. ) ;
#280 = EDGE_CURVE ( 'NONE', #324, #94, #30, .T. ) ;
#281 = CARTESIAN_POINT ( 'NONE',  ( -4.000000000000000000, 0.000000000000000000, 0.000000000000000000 ) ) ;
#282 = APPROVAL_ROLE ( '' ) ;
#283 = DIRECTION ( 'NONE',  ( 1.000000000000000000, 0.000000000000000000, 0.000000000000000000 ) ) ;
#284 = APPROVAL ( #73, 'NEURÈENÝ' ) ;
#285 = CC_DESIGN_APPROVAL ( #284, ( #298 ) ) ;
#286 = CARTESIAN_POINT ( 'NONE',  ( 2.299999999999999822, 0.000000000000000000, 2.999999999999998668 ) ) ;
#287 = DIRECTION ( 'NONE',  ( 0.000000000000000000, 0.000000000000000000, -1.000000000000000000 ) ) ;
#288 = AXIS2_PLACEMENT_3D ( 'NONE', #161, #247, #41 ) ;
#289 = CARTESIAN_POINT ( 'NONE',  ( -2.000000000000000000, 0.000000000000000000, 103.0000000000000142 ) ) ;
#290 = AXIS2_PLACEMENT_3D ( 'NONE', #268, #276, #370 ) ;
#291 = LINE ( 'NONE', #29, #99 ) ;
#292 = ORIENTED_EDGE ( 'NONE', *, *, #274, .F. ) ;
#293 = ADVANCED_FACE ( 'NONE', ( #152 ), #60, .T. ) ;
#294 = CARTESIAN_POINT ( 'NONE',  ( -2.000000000000000000, 0.000000000000000000, 103.0000000000000142 ) ) ;
#295 = ORIENTED_EDGE ( 'NONE', *, *, #158, .T. ) ;
#296 = DIRECTION ( 'NONE',  ( -1.000000000000000000, 1.224646799147353207E-16, 0.000000000000000000 ) ) ;
#297 = CARTESIAN_POINT ( 'NONE',  ( 1.000000000000000000, 1.224646799147353207E-16, 103.0000000000000142 ) ) ;
#298 = PRODUCT_DEFINITION_FORMATION_WITH_SPECIFIED_SOURCE ( 'LIBOVOLNÝ', '', #361, .NOT_KNOWN. ) ;
#299 = PERSON_AND_ORGANIZATION_ROLE ( 'creator' ) ;
#300 = ADVANCED_FACE ( 'NONE', ( #122 ), #90, .F. ) ;
#301 =( NAMED_UNIT ( * ) PLANE_ANGLE_UNIT ( ) SI_UNIT ( $, .RADIAN. ) );
#302 = VERTEX_POINT ( 'NONE', #262 ) ;
#303 = APPROVAL ( #116, 'NEURÈENÝ' ) ;
#304 = ORIENTED_EDGE ( 'NONE', *, *, #17, .F. ) ;
#305 = AXIS2_PLACEMENT_3D ( 'NONE', #320, #316, #50 ) ;
#306 = CC_DESIGN_SECURITY_CLASSIFICATION ( #6, ( #298 ) ) ;
#307 = EDGE_LOOP ( 'NONE', ( #335, #134 ) ) ;
#308 = PERSON_AND_ORGANIZATION ( #183, #58 ) ;
#309 = CARTESIAN_POINT ( 'NONE',  ( 0.000000000000000000, 0.000000000000000000, 103.0000000000000142 ) ) ;
#310 = CIRCLE ( 'NONE', #3, 1.000000000000000000 ) ;
#311 = EDGE_LOOP ( 'NONE', ( #363, #164, #185, #243 ) ) ;
#312 = ADVANCED_FACE ( 'NONE', ( #202, #328 ), #265, .T. ) ;
#313 = DIRECTION ( 'NONE',  ( 0.000000000000000000, 0.000000000000000000, 1.000000000000000000 ) ) ;
#314 = APPLICATION_CONTEXT ( 'configuration controlled 3d designs of mechanical parts and assemblies' ) ;
#315 = CARTESIAN_POINT ( 'NONE',  ( 0.000000000000000000, 0.000000000000000000, 3.000000000000000000 ) ) ;
#316 = DIRECTION ( 'NONE',  ( 0.000000000000000000, 0.000000000000000000, 1.000000000000000000 ) ) ;
#317 = CIRCLE ( 'NONE', #257, 4.000000000000000000 ) ;
#318 = ADVANCED_FACE ( 'NONE', ( #174 ), #89, .F. ) ;
#319 = DIRECTION ( 'NONE',  ( -1.000000000000000000, 0.000000000000000000, 0.000000000000000000 ) ) ;
#320 = CARTESIAN_POINT ( 'NONE',  ( 0.000000000000000000, 0.000000000000000000, 3.299999999999997158 ) ) ;
#321 = CARTESIAN_POINT ( 'NONE',  ( 0.000000000000000000, 0.000000000000000000, 3.000000000000000000 ) ) ;
#322 = ORIENTED_EDGE ( 'NONE', *, *, #236, .T. ) ;
#323 = LOCAL_TIME ( 17, 55, 38.00000000000000000, #10 ) ;
#324 = VERTEX_POINT ( 'NONE', #289 ) ;
#325 = CARTESIAN_POINT ( 'NONE',  ( -2.299999999999999822, 2.816687638038912056E-16, 3.299999999999997158 ) ) ;
#326 = EDGE_LOOP ( 'NONE', ( #13, #78, #154, #201 ) ) ;
#327 = AXIS2_PLACEMENT_3D ( 'NONE', #345, #251, #47 ) ;
#328 = FACE_OUTER_BOUND ( 'NONE', #232, .T. ) ;
#329 = DIRECTION ( 'NONE',  ( 0.000000000000000000, -1.000000000000000000, 0.000000000000000000 ) ) ;
#330 = PERSON_AND_ORGANIZATION_ROLE ( 'design_supplier' ) ;
#331 = APPROVAL ( #160, 'NEURÈENÝ' ) ;
#332 = ORIENTED_EDGE ( 'NONE', *, *, #341, .F. ) ;
#333 = ADVANCED_FACE ( 'NONE', ( #180 ), #200, .T. ) ;
#334 = CIRCLE ( 'NONE', #288, 4.000000000000000000 ) ;
#335 = ORIENTED_EDGE ( 'NONE', *, *, #51, .T. ) ;
#336 = MANIFOLD_SOLID_BREP ( 'Odebrat vysunutím3', #71 ) ;
#337 = ORIENTED_EDGE ( 'NONE', *, *, #280, .T. ) ;
#338 = VECTOR ( 'NONE', #261, 1000.000000000000000 ) ;
#339 = VERTEX_POINT ( 'NONE', #297 ) ;
#340 = DATE_AND_TIME ( #273, #40 ) ;
#341 = EDGE_CURVE ( 'NONE', #131, #59, #24, .T. ) ;
#342 = EDGE_LOOP ( 'NONE', ( #137, #208, #156, #322 ) ) ;
#343 = CIRCLE ( 'NONE', #54, 4.000000000000000000 ) ;
#344 = DIRECTION ( 'NONE',  ( 1.000000000000000000, 0.000000000000000000, -0.000000000000000000 ) ) ;
#345 = CARTESIAN_POINT ( 'NONE',  ( 0.000000000000000000, 0.000000000000000000, 103.0000000000000142 ) ) ;
#346 = PRODUCT_RELATED_PRODUCT_CATEGORY ( 'detail', '', ( #361 ) ) ;
#347 = FACE_OUTER_BOUND ( 'NONE', #159, .T. ) ;
#348 = AXIS2_PLACEMENT_3D ( 'NONE', #88, #171, #222 ) ;
#349 = CIRCLE ( 'NONE', #263, 2.299999999999999822 ) ;
#350 = CARTESIAN_POINT ( 'NONE',  ( 2.000000000000000000, 2.449293598294706414E-16, 103.0000000000000142 ) ) ;
#351 = AXIS2_PLACEMENT_3D ( 'NONE', #34, #146, #177 ) ;
#352 = CARTESIAN_POINT ( 'NONE',  ( 0.000000000000000000, 0.000000000000000000, 0.000000000000000000 ) ) ;
#353 = CARTESIAN_POINT ( 'NONE',  ( 0.000000000000000000, 0.000000000000000000, 103.0000000000000142 ) ) ;
#354 = DIRECTION ( 'NONE',  ( 1.000000000000000000, 0.000000000000000000, 0.000000000000000000 ) ) ;
#355 = LOCAL_TIME ( 17, 55, 38.00000000000000000, #15 ) ;
#356 = DIRECTION ( 'NONE',  ( 0.000000000000000000, 0.000000000000000000, -1.000000000000000000 ) ) ;
#357 = VERTEX_POINT ( 'NONE', #127 ) ;
#358 = DIRECTION ( 'NONE',  ( -0.000000000000000000, -0.000000000000000000, -1.000000000000000000 ) ) ;
#359 = LINE ( 'NONE', #98, #368 ) ;
#360 = CIRCLE ( 'NONE', #151, 2.000000000000000000 ) ;
#361 = PRODUCT ( '352a', '352a', '', ( #215 ) ) ;
#362 = DIRECTION ( 'NONE',  ( 1.000000000000000000, 0.000000000000000000, 0.000000000000000000 ) ) ;
#363 = ORIENTED_EDGE ( 'NONE', *, *, #68, .T. ) ;
#364 = PERSON_AND_ORGANIZATION_ROLE ( 'design_owner' ) ;
#365 = VERTEX_POINT ( 'NONE', #235 ) ;
#366 = APPROVAL_DATE_TIME ( #246, #284 ) ;
#367 = FACE_OUTER_BOUND ( 'NONE', #371, .T. ) ;
#368 = VECTOR ( 'NONE', #1, 1000.000000000000000 ) ;
#369 = EDGE_CURVE ( 'NONE', #229, #45, #291, .T. ) ;
#370 = DIRECTION ( 'NONE',  ( 1.000000000000000000, 0.000000000000000000, 0.000000000000000000 ) ) ;
#371 = EDGE_LOOP ( 'NONE', ( #275, #14, #279, #292 ) ) ;
#372 = LINE ( 'NONE', #350, #267 ) ;
#373 = CC_DESIGN_DATE_AND_TIME_ASSIGNMENT ( #181, #12, ( #6 ) ) ;
#374 = CARTESIAN_POINT ( 'NONE',  ( 0.000000000000000000, 0.000000000000000000, 3.000000000000000000 ) ) ;
#375 = AXIS2_PLACEMENT_3D ( 'NONE', #228, #149, #230 ) ;
#376 = DIRECTION ( 'NONE',  ( 0.000000000000000000, 0.000000000000000000, 1.000000000000000000 ) ) ;
#377 = PLANE ( 'NONE',  #140 ) ;
#378 = DIRECTION ( 'NONE',  ( -0.000000000000000000, -0.000000000000000000, -1.000000000000000000 ) ) ;
#379 = EDGE_CURVE ( 'NONE', #33, #302, #359, .T. ) ;
#380 = AXIS2_PLACEMENT_3D ( 'NONE', #205, #329, #356 ) ;
#381 = DIRECTION ( 'NONE',  ( 0.000000000000000000, 0.000000000000000000, 1.000000000000000000 ) ) ;
ENDSEC;
END-ISO-10303-21;
