ISO-10303-21;
HEADER;
FILE_DESCRIPTION (( 'STEP AP203' ),
    '1' );
FILE_NAME ('b3c1.STEP',
    '2022-07-08T14:54:20',
    ( '' ),
    ( '' ),
    'SwSTEP 2.0',
    'SolidWorks 2019',
    '' );
FILE_SCHEMA (( 'CONFIG_CONTROL_DESIGN' ));
ENDSEC;

DATA;
#1 = CARTESIAN_POINT ( 'NONE',  ( 6.000000000000000888, 7.347880794884120722E-16, 7.500000000000007105 ) ) ;
#2 = DIRECTION ( 'NONE',  ( 0.000000000000000000, 0.000000000000000000, 1.000000000000000000 ) ) ;
#3 = TOROIDAL_SURFACE ( 'NONE', #179, 6.500000000000000888, 0.5000000000000000000 ) ;
#4 = DIRECTION ( 'NONE',  ( 1.000000000000000000, 0.000000000000000000, 0.000000000000000000 ) ) ;
#5 = DIRECTION ( 'NONE',  ( -0.000000000000000000, -0.000000000000000000, -1.000000000000000000 ) ) ;
#6 = EDGE_LOOP ( 'NONE', ( #293, #50, #168, #85 ) ) ;
#7 = AXIS2_PLACEMENT_3D ( 'NONE', #361, #172, #205 ) ;
#8 = FACE_BOUND ( 'NONE', #145, .T. ) ;
#9 = CIRCLE ( 'NONE', #170, 6.000000000000000888 ) ;
#10 = CARTESIAN_POINT ( 'NONE',  ( 0.000000000000000000, 0.000000000000000000, 0.000000000000000000 ) ) ;
#11 = CARTESIAN_POINT ( 'NONE',  ( 0.000000000000000000, 0.000000000000000000, 207.0000000000000284 ) ) ;
#12 = EDGE_CURVE ( 'NONE', #55, #297, #360, .T. ) ;
#13 = PERSON_AND_ORGANIZATION ( #42, #133 ) ;
#14 = AXIS2_PLACEMENT_3D ( 'NONE', #117, #323, #326 ) ;
#15 = PRODUCT_RELATED_PRODUCT_CATEGORY ( 'detail', '', ( #302 ) ) ;
#16 = CIRCLE ( 'NONE', #233, 0.5000000000000004441 ) ;
#17 = CALENDAR_DATE ( 2022, 8, 7 ) ;
#18 = APPROVAL_STATUS ( 'not_yet_approved' ) ;
#19 = FACE_OUTER_BOUND ( 'NONE', #103, .T. ) ;
#20 = ORIENTED_EDGE ( 'NONE', *, *, #111, .T. ) ;
#21 = CARTESIAN_POINT ( 'NONE',  ( 0.000000000000000000, 0.000000000000000000, 0.000000000000000000 ) ) ;
#22 = ORIENTED_EDGE ( 'NONE', *, *, #45, .F. ) ;
#23 = CARTESIAN_POINT ( 'NONE',  ( -6.000000000000000888, 0.000000000000000000, 7.500000000000007105 ) ) ;
#24 = EDGE_LOOP ( 'NONE', ( #357, #282, #291, #129 ) ) ;
#25 = ADVANCED_BREP_SHAPE_REPRESENTATION ( 'b3c1', ( #115, #200 ), #330 ) ;
#26 = CIRCLE ( 'NONE', #96, 6.000000000000000888 ) ;
#27 = CARTESIAN_POINT ( 'NONE',  ( 0.000000000000000000, 0.000000000000000000, 7.500000000000007105 ) ) ;
#28 = EDGE_CURVE ( 'NONE', #344, #136, #283, .T. ) ;
#29 = CARTESIAN_POINT ( 'NONE',  ( -3.000000000000000444, 0.000000000000000000, 207.0000000000000284 ) ) ;
#30 = DIRECTION ( 'NONE',  ( -0.000000000000000000, -0.000000000000000000, -1.000000000000000000 ) ) ;
#31 = VERTEX_POINT ( 'NONE', #1 ) ;
#32 = CARTESIAN_POINT ( 'NONE',  ( 6.000000000000000888, 7.347880794884120722E-16, 207.0000000000000284 ) ) ;
#33 = LINE ( 'NONE', #171, #196 ) ;
#34 = DIRECTION ( 'NONE',  ( 0.000000000000000000, 0.000000000000000000, 1.000000000000000000 ) ) ;
#35 = CARTESIAN_POINT ( 'NONE',  ( 0.000000000000000000, 0.000000000000000000, 7.500000000000007105 ) ) ;
#36 = PERSON_AND_ORGANIZATION ( #42, #133 ) ;
#37 = EDGE_CURVE ( 'NONE', #297, #247, #33, .T. ) ;
#38 = APPROVAL_STATUS ( 'not_yet_approved' ) ;
#39 = CIRCLE ( 'NONE', #123, 0.5000000000000004441 ) ;
#40 = COORDINATED_UNIVERSAL_TIME_OFFSET ( 1, 0, .AHEAD. ) ;
#41 = EDGE_CURVE ( 'NONE', #116, #315, #365, .T. ) ;
#42 = PERSON ( 'NEURÈENÝ', 'NEURÈENÝ', 'NEURÈENÝ', ('NEURÈENÝ'), ('NEURÈENÝ'), ('NEURÈENÝ') ) ;
#43 = CARTESIAN_POINT ( 'NONE',  ( 0.000000000000000000, 0.000000000000000000, 7.500000000000007105 ) ) ;
#44 = CC_DESIGN_PERSON_AND_ORGANIZATION_ASSIGNMENT ( #369, #307, ( #228 ) ) ;
#45 = EDGE_CURVE ( 'NONE', #126, #376, #256, .T. ) ;
#46 = CLOSED_SHELL ( 'NONE', ( #335, #324, #349, #238, #317, #165, #159, #345, #236, #215, #69 ) ) ;
#47 = EDGE_LOOP ( 'NONE', ( #274, #309 ) ) ;
#48 = CIRCLE ( 'NONE', #377, 6.500000000000000888 ) ;
#49 = DIRECTION ( 'NONE',  ( 1.224646799147353207E-16, 1.000000000000000000, -0.000000000000000000 ) ) ;
#50 = ORIENTED_EDGE ( 'NONE', *, *, #303, .T. ) ;
#51 = EDGE_CURVE ( 'NONE', #120, #77, #188, .T. ) ;
#52 = FACE_OUTER_BOUND ( 'NONE', #286, .T. ) ;
#53 = ORIENTED_EDGE ( 'NONE', *, *, #111, .F. ) ;
#54 = VECTOR ( 'NONE', #71, 1000.000000000000000 ) ;
#55 = VERTEX_POINT ( 'NONE', #32 ) ;
#56 = SECURITY_CLASSIFICATION ( '', '', #372 ) ;
#57 = CARTESIAN_POINT ( 'NONE',  ( 3.000000000000000444, 3.673940397442059868E-16, 207.0000000000000284 ) ) ;
#58 = EDGE_LOOP ( 'NONE', ( #190, #20, #319, #370 ) ) ;
#59 = DIRECTION ( 'NONE',  ( 1.000000000000000000, 0.000000000000000000, 0.000000000000000000 ) ) ;
#60 = APPROVAL ( #181, 'NEURÈENÝ' ) ;
#61 = ORIENTED_EDGE ( 'NONE', *, *, #65, .T. ) ;
#62 = VECTOR ( 'NONE', #279, 1000.000000000000000 ) ;
#63 = DIRECTION ( 'NONE',  ( -1.000000000000000000, 0.000000000000000000, 0.000000000000000000 ) ) ;
#64 = CARTESIAN_POINT ( 'NONE',  ( 0.000000000000000000, 0.000000000000000000, 207.0000000000000284 ) ) ;
#65 = EDGE_CURVE ( 'NONE', #376, #344, #331, .T. ) ;
#66 = DIRECTION ( 'NONE',  ( 0.000000000000000000, 0.000000000000000000, 1.000000000000000000 ) ) ;
#67 = CARTESIAN_POINT ( 'NONE',  ( -10.00000000000000000, 0.000000000000000000, 7.000000000000000000 ) ) ;
#68 = ORIENTED_EDGE ( 'NONE', *, *, #187, .T. ) ;
#69 = ADVANCED_FACE ( 'NONE', ( #189 ), #243, .F. ) ;
#70 = PRODUCT_DEFINITION_FORMATION_WITH_SPECIFIED_SOURCE ( 'LIBOVOLNÝ', '', #302, .NOT_KNOWN. ) ;
#71 = DIRECTION ( 'NONE',  ( -0.000000000000000000, -0.000000000000000000, -1.000000000000000000 ) ) ;
#72 = CC_DESIGN_PERSON_AND_ORGANIZATION_ASSIGNMENT ( #13, #341, ( #70 ) ) ;
#73 = PERSON_AND_ORGANIZATION_ROLE ( 'classification_officer' ) ;
#74 = AXIS2_PLACEMENT_3D ( 'NONE', #108, #138, #112 ) ;
#75 = ORIENTED_EDGE ( 'NONE', *, *, #137, .F. ) ;
#76 = APPLICATION_PROTOCOL_DEFINITION ( 'international standard', 'config_control_design', 1994, #237 ) ;
#77 = VERTEX_POINT ( 'NONE', #373 ) ;
#78 = DIRECTION ( 'NONE',  ( 1.000000000000000000, 0.000000000000000000, -0.000000000000000000 ) ) ;
#79 = DIRECTION ( 'NONE',  ( 1.000000000000000000, 0.000000000000000000, 0.000000000000000000 ) ) ;
#80 = AXIS2_PLACEMENT_3D ( 'NONE', #132, #380, #378 ) ;
#81 = FACE_OUTER_BOUND ( 'NONE', #166, .T. ) ;
#82 = ORIENTED_EDGE ( 'NONE', *, *, #37, .T. ) ;
#83 = DIRECTION ( 'NONE',  ( -0.000000000000000000, -0.000000000000000000, -1.000000000000000000 ) ) ;
#84 = FACE_OUTER_BOUND ( 'NONE', #328, .T. ) ;
#85 = ORIENTED_EDGE ( 'NONE', *, *, #269, .T. ) ;
#86 = APPROVAL_PERSON_ORGANIZATION ( #36, #198, #127 ) ;
#87 = EDGE_LOOP ( 'NONE', ( #134, #381 ) ) ;
#88 = MECHANICAL_CONTEXT ( 'NONE', #193, 'mechanical' ) ;
#89 = DIRECTION ( 'NONE',  ( 0.000000000000000000, 0.000000000000000000, 1.000000000000000000 ) ) ;
#90 = CARTESIAN_POINT ( 'NONE',  ( 10.00000000000000000, 1.224646799147353256E-15, 7.000000000000000000 ) ) ;
#91 = DIRECTION ( 'NONE',  ( -0.000000000000000000, -0.000000000000000000, -1.000000000000000000 ) ) ;
#92 = VECTOR ( 'NONE', #191, 1000.000000000000000 ) ;
#93 = DIRECTION ( 'NONE',  ( -0.000000000000000000, -0.000000000000000000, -1.000000000000000000 ) ) ;
#94 = AXIS2_PLACEMENT_3D ( 'NONE', #354, #89, #290 ) ;
#95 = PLANE ( 'NONE',  #300 ) ;
#96 = AXIS2_PLACEMENT_3D ( 'NONE', #43, #147, #355 ) ;
#97 = PERSON_AND_ORGANIZATION_ROLE ( 'creator' ) ;
#98 = PERSON_AND_ORGANIZATION ( #42, #133 ) ;
#99 = CARTESIAN_POINT ( 'NONE',  ( 0.000000000000000000, 0.000000000000000000, 207.0000000000000284 ) ) ;
#100 = AXIS2_PLACEMENT_3D ( 'NONE', #21, #248, #79 ) ;
#101 = DIRECTION ( 'NONE',  ( 1.000000000000000000, 0.000000000000000000, 0.000000000000000000 ) ) ;
#102 = ORIENTED_EDGE ( 'NONE', *, *, #51, .T. ) ;
#103 = EDGE_LOOP ( 'NONE', ( #374, #311 ) ) ;
#104 = EDGE_CURVE ( 'NONE', #31, #247, #118, .T. ) ;
#105 = DIRECTION ( 'NONE',  ( 1.000000000000000000, 0.000000000000000000, 0.000000000000000000 ) ) ;
#106 = AXIS2_PLACEMENT_3D ( 'NONE', #226, #199, #105 ) ;
#107 = ORIENTED_EDGE ( 'NONE', *, *, #65, .F. ) ;
#108 = CARTESIAN_POINT ( 'NONE',  ( 0.000000000000000000, 0.000000000000000000, 7.000000000000000000 ) ) ;
#109 = DIRECTION ( 'NONE',  ( -0.000000000000000000, -0.000000000000000000, -1.000000000000000000 ) ) ;
#110 = DIRECTION ( 'NONE',  ( 0.000000000000000000, 0.000000000000000000, 1.000000000000000000 ) ) ;
#111 = EDGE_CURVE ( 'NONE', #55, #31, #336, .T. ) ;
#112 = DIRECTION ( 'NONE',  ( -1.000000000000000000, 0.000000000000000000, 0.000000000000000000 ) ) ;
#113 = CC_DESIGN_APPROVAL ( #198, ( #228 ) ) ;
#114 = DIRECTION ( 'NONE',  ( 1.000000000000000000, 0.000000000000000000, 0.000000000000000000 ) ) ;
#115 = MANIFOLD_SOLID_BREP ( 'Odebrat vysunutím3', #46 ) ;
#116 = VERTEX_POINT ( 'NONE', #338 ) ;
#117 = CARTESIAN_POINT ( 'NONE',  ( 0.000000000000000000, 0.000000000000000000, 207.0000000000000284 ) ) ;
#118 = CIRCLE ( 'NONE', #167, 6.000000000000000888 ) ;
#119 = AXIS2_PLACEMENT_3D ( 'NONE', #194, #83, #316 ) ;
#120 = VERTEX_POINT ( 'NONE', #175 ) ;
#121 = DATE_AND_TIME ( #154, #229 ) ;
#122 = DATE_AND_TIME ( #17, #155 ) ;
#123 = AXIS2_PLACEMENT_3D ( 'NONE', #313, #49, #318 ) ;
#124 = COORDINATED_UNIVERSAL_TIME_OFFSET ( 1, 0, .AHEAD. ) ;
#125 = CALENDAR_DATE ( 2022, 8, 7 ) ;
#126 = VERTEX_POINT ( 'NONE', #67 ) ;
#127 = APPROVAL_ROLE ( '' ) ;
#128 = CARTESIAN_POINT ( 'NONE',  ( 10.00000000000000000, 1.224646799147353256E-15, 7.000000000000000000 ) ) ;
#129 = ORIENTED_EDGE ( 'NONE', *, *, #271, .F. ) ;
#130 = DIRECTION ( 'NONE',  ( 1.000000000000000000, 0.000000000000000000, 0.000000000000000000 ) ) ;
#131 = DIRECTION ( 'NONE',  ( 0.000000000000000000, 0.000000000000000000, 1.000000000000000000 ) ) ;
#132 = CARTESIAN_POINT ( 'NONE',  ( 0.000000000000000000, 0.000000000000000000, 207.0000000000000284 ) ) ;
#133 = ORGANIZATION ( 'NEURÈENÝ', 'NEURÈENÝ', '' ) ;
#134 = ORIENTED_EDGE ( 'NONE', *, *, #269, .F. ) ;
#135 = CARTESIAN_POINT ( 'NONE',  ( -6.000000000000000888, 0.000000000000000000, 207.0000000000000284 ) ) ;
#136 = VERTEX_POINT ( 'NONE', #219 ) ;
#137 = EDGE_CURVE ( 'NONE', #203, #224, #261, .T. ) ;
#138 = DIRECTION ( 'NONE',  ( -0.000000000000000000, -0.000000000000000000, -1.000000000000000000 ) ) ;
#139 = CARTESIAN_POINT ( 'NONE',  ( 0.000000000000000000, 0.000000000000000000, 7.000000000000000000 ) ) ;
#140 = CARTESIAN_POINT ( 'NONE',  ( 0.000000000000000000, 0.000000000000000000, 207.0000000000000284 ) ) ;
#141 = CARTESIAN_POINT ( 'NONE',  ( 0.000000000000000000, 0.000000000000000000, 0.000000000000000000 ) ) ;
#142 = AXIS2_PLACEMENT_3D ( 'NONE', #140, #5, #359 ) ;
#143 = CC_DESIGN_DATE_AND_TIME_ASSIGNMENT ( #122, #301, ( #228 ) ) ;
#144 = CIRCLE ( 'NONE', #100, 3.000000000000000444 ) ;
#145 = EDGE_LOOP ( 'NONE', ( #102, #265 ) ) ;
#146 = DIRECTION ( 'NONE',  ( 0.000000000000000000, 0.000000000000000000, -1.000000000000000000 ) ) ;
#147 = DIRECTION ( 'NONE',  ( 0.000000000000000000, 0.000000000000000000, 1.000000000000000000 ) ) ;
#148 = AXIS2_PLACEMENT_3D ( 'NONE', #99, #266, #177 ) ;
#149 = CARTESIAN_POINT ( 'NONE',  ( 0.000000000000000000, 0.000000000000000000, 207.0000000000000284 ) ) ;
#150 = EDGE_CURVE ( 'NONE', #77, #120, #48, .T. ) ;
#151 = AXIS2_PLACEMENT_3D ( 'NONE', #364, #153, #78 ) ;
#152 = COORDINATED_UNIVERSAL_TIME_OFFSET ( 1, 0, .AHEAD. ) ;
#153 = DIRECTION ( 'NONE',  ( 0.000000000000000000, 0.000000000000000000, 1.000000000000000000 ) ) ;
#154 = CALENDAR_DATE ( 2022, 8, 7 ) ;
#155 = LOCAL_TIME ( 16, 54, 20.00000000000000000, #156 ) ;
#156 = COORDINATED_UNIVERSAL_TIME_OFFSET ( 1, 0, .AHEAD. ) ;
#157 = ORIENTED_EDGE ( 'NONE', *, *, #12, .T. ) ;
#158 = CALENDAR_DATE ( 2022, 8, 7 ) ;
#159 = ADVANCED_FACE ( 'NONE', ( #346, #19 ), #95, .F. ) ;
#160 = PLANE ( 'NONE',  #80 ) ;
#161 = APPROVAL ( #18, 'NEURÈENÝ' ) ;
#162 = ORIENTED_EDGE ( 'NONE', *, *, #187, .F. ) ;
#163 = FACE_BOUND ( 'NONE', #306, .T. ) ;
#164 = EDGE_CURVE ( 'NONE', #136, #344, #239, .T. ) ;
#165 = ADVANCED_FACE ( 'NONE', ( #8, #210 ), #246, .T. ) ;
#166 = EDGE_LOOP ( 'NONE', ( #107, #22, #295, #201 ) ) ;
#167 = AXIS2_PLACEMENT_3D ( 'NONE', #35, #333, #101 ) ;
#168 = ORIENTED_EDGE ( 'NONE', *, *, #271, .T. ) ;
#169 = FACE_OUTER_BOUND ( 'NONE', #24, .T. ) ;
#170 = AXIS2_PLACEMENT_3D ( 'NONE', #64, #34, #59 ) ;
#171 = CARTESIAN_POINT ( 'NONE',  ( -6.000000000000000888, 0.000000000000000000, 207.0000000000000284 ) ) ;
#172 = DIRECTION ( 'NONE',  ( 0.000000000000000000, 0.000000000000000000, 1.000000000000000000 ) ) ;
#173 = PERSON_AND_ORGANIZATION ( #42, #133 ) ;
#174 = ORIENTED_EDGE ( 'NONE', *, *, #379, .T. ) ;
#175 = CARTESIAN_POINT ( 'NONE',  ( 6.500000000000000888, 0.000000000000000000, 7.000000000000002665 ) ) ;
#176 = EDGE_CURVE ( 'NONE', #224, #116, #310, .T. ) ;
#177 = DIRECTION ( 'NONE',  ( 1.000000000000000000, 0.000000000000000000, 0.000000000000000000 ) ) ;
#178 = ORIENTED_EDGE ( 'NONE', *, *, #273, .F. ) ;
#179 = AXIS2_PLACEMENT_3D ( 'NONE', #27, #260, #363 ) ;
#180 = DIRECTION ( 'NONE',  ( 1.000000000000000000, 0.000000000000000000, 0.000000000000000000 ) ) ;
#181 = APPROVAL_STATUS ( 'not_yet_approved' ) ;
#182 = DATE_AND_TIME ( #158, #211 ) ;
#183 = PERSON_AND_ORGANIZATION ( #42, #133 ) ;
#184 = ORIENTED_EDGE ( 'NONE', *, *, #51, .F. ) ;
#185 = DATE_TIME_ROLE ( 'classification_date' ) ;
#186 = DIRECTION ( 'NONE',  ( -1.000000000000000000, 0.000000000000000000, 0.000000000000000000 ) ) ;
#187 = EDGE_CURVE ( 'NONE', #247, #31, #26, .T. ) ;
#188 = CIRCLE ( 'NONE', #232, 6.500000000000000888 ) ;
#189 = FACE_OUTER_BOUND ( 'NONE', #6, .T. ) ;
#190 = ORIENTED_EDGE ( 'NONE', *, *, #12, .F. ) ;
#191 = DIRECTION ( 'NONE',  ( 0.000000000000000000, 0.000000000000000000, -1.000000000000000000 ) ) ;
#192 = ORIENTED_EDGE ( 'NONE', *, *, #303, .F. ) ;
#193 = APPLICATION_CONTEXT ( 'configuration controlled 3d designs of mechanical parts and assemblies' ) ;
#194 = CARTESIAN_POINT ( 'NONE',  ( 0.000000000000000000, 0.000000000000000000, 7.000000000000000000 ) ) ;
#195 = ORIENTED_EDGE ( 'NONE', *, *, #273, .T. ) ;
#196 = VECTOR ( 'NONE', #109, 1000.000000000000000 ) ;
#197 = ORIENTED_EDGE ( 'NONE', *, *, #284, .F. ) ;
#198 = APPROVAL ( #38, 'NEURÈENÝ' ) ;
#199 = DIRECTION ( 'NONE',  ( 0.000000000000000000, 0.000000000000000000, 1.000000000000000000 ) ) ;
#200 = AXIS2_PLACEMENT_3D ( 'NONE', #258, #2, #114 ) ;
#201 = ORIENTED_EDGE ( 'NONE', *, *, #164, .T. ) ;
#202 = FACE_OUTER_BOUND ( 'NONE', #249, .T. ) ;
#203 = VERTEX_POINT ( 'NONE', #29 ) ;
#204 = DIRECTION ( 'NONE',  ( 1.000000000000000000, 0.000000000000000000, 0.000000000000000000 ) ) ;
#205 = DIRECTION ( 'NONE',  ( 1.000000000000000000, 0.000000000000000000, 0.000000000000000000 ) ) ;
#206 = VECTOR ( 'NONE', #267, 1000.000000000000000 ) ;
#207 = CARTESIAN_POINT ( 'NONE',  ( 6.000000000000000888, 7.347880794884120722E-16, 207.0000000000000284 ) ) ;
#208 = DIRECTION ( 'NONE',  ( -0.000000000000000000, -0.000000000000000000, -1.000000000000000000 ) ) ;
#209 = PERSON_AND_ORGANIZATION ( #42, #133 ) ;
#210 = FACE_OUTER_BOUND ( 'NONE', #47, .T. ) ;
#211 = LOCAL_TIME ( 16, 54, 20.00000000000000000, #124 ) ;
#212 = APPROVAL_ROLE ( '' ) ;
#213 = AXIS2_PLACEMENT_3D ( 'NONE', #141, #91, #4 ) ;
#214 = PERSON_AND_ORGANIZATION ( #42, #133 ) ;
#215 = ADVANCED_FACE ( 'NONE', ( #202 ), #312, .F. ) ;
#216 = CC_DESIGN_APPROVAL ( #60, ( #70 ) ) ;
#217 = DIRECTION ( 'NONE',  ( 0.000000000000000000, 0.000000000000000000, -1.000000000000000000 ) ) ;
#218 = CC_DESIGN_DATE_AND_TIME_ASSIGNMENT ( #182, #185, ( #56 ) ) ;
#219 = CARTESIAN_POINT ( 'NONE',  ( -10.00000000000000000, 0.000000000000000000, 0.000000000000000000 ) ) ;
#220 = ORIENTED_EDGE ( 'NONE', *, *, #104, .F. ) ;
#221 = VECTOR ( 'NONE', #208, 1000.000000000000000 ) ;
#222 = FACE_OUTER_BOUND ( 'NONE', #257, .T. ) ;
#223 = AXIS2_PLACEMENT_3D ( 'NONE', #356, #110, #130 ) ;
#224 = VERTEX_POINT ( 'NONE', #57 ) ;
#225 = LINE ( 'NONE', #250, #62 ) ;
#226 = CARTESIAN_POINT ( 'NONE',  ( 0.000000000000000000, 0.000000000000000000, 207.0000000000000284 ) ) ;
#227 = ORIENTED_EDGE ( 'NONE', *, *, #244, .F. ) ;
#228 = PRODUCT_DEFINITION ( 'NEZNÁMÝ', '', #70, #245 ) ;
#229 = LOCAL_TIME ( 16, 54, 20.00000000000000000, #40 ) ;
#230 = CC_DESIGN_PERSON_AND_ORGANIZATION_ASSIGNMENT ( #98, #97, ( #70 ) ) ;
#231 =( NAMED_UNIT ( * ) PLANE_ANGLE_UNIT ( ) SI_UNIT ( $, .RADIAN. ) );
#232 = AXIS2_PLACEMENT_3D ( 'NONE', #139, #30, #204 ) ;
#233 = AXIS2_PLACEMENT_3D ( 'NONE', #321, #287, #348 ) ;
#234 = DIRECTION ( 'NONE',  ( -1.000000000000000000, 0.000000000000000000, 0.000000000000000000 ) ) ;
#235 = CARTESIAN_POINT ( 'NONE',  ( 10.00000000000000000, 1.224646799147353256E-15, 0.000000000000000000 ) ) ;
#236 = ADVANCED_FACE ( 'NONE', ( #163, #84 ), #160, .T. ) ;
#237 = APPLICATION_CONTEXT ( 'configuration controlled 3d designs of mechanical parts and assemblies' ) ;
#238 = ADVANCED_FACE ( 'NONE', ( #222 ), #289, .T. ) ;
#239 = CIRCLE ( 'NONE', #288, 10.00000000000000000 ) ;
#240 = PRODUCT_DEFINITION_SHAPE ( 'NONE', 'NONE',  #228 ) ;
#241 = APPROVAL_ROLE ( '' ) ;
#242 = DATE_AND_TIME ( #125, #322 ) ;
#243 = CYLINDRICAL_SURFACE ( 'NONE', #342, 3.000000000000000444 ) ;
#244 = EDGE_CURVE ( 'NONE', #31, #120, #16, .T. ) ;
#245 = DESIGN_CONTEXT ( 'detailed design', #237, 'design' ) ;
#246 = PLANE ( 'NONE',  #151 ) ;
#247 = VERTEX_POINT ( 'NONE', #23 ) ;
#248 = DIRECTION ( 'NONE',  ( -0.000000000000000000, -0.000000000000000000, -1.000000000000000000 ) ) ;
#249 = EDGE_LOOP ( 'NONE', ( #178, #220, #337, #347 ) ) ;
#250 = CARTESIAN_POINT ( 'NONE',  ( -10.00000000000000000, 0.000000000000000000, 7.000000000000000000 ) ) ;
#251 = EDGE_LOOP ( 'NONE', ( #53, #255, #82, #68 ) ) ;
#252 = AXIS2_PLACEMENT_3D ( 'NONE', #262, #93, #63 ) ;
#253 = EDGE_CURVE ( 'NONE', #126, #136, #225, .T. ) ;
#254 = LINE ( 'NONE', #285, #92 ) ;
#255 = ORIENTED_EDGE ( 'NONE', *, *, #379, .F. ) ;
#256 = CIRCLE ( 'NONE', #94, 10.00000000000000000 ) ;
#257 = EDGE_LOOP ( 'NONE', ( #197, #61, #350, #280 ) ) ;
#258 = CARTESIAN_POINT ( 'NONE',  ( 0.000000000000000000, 0.000000000000000000, 0.000000000000000000 ) ) ;
#259 = LOCAL_TIME ( 16, 54, 20.00000000000000000, #152 ) ;
#260 = DIRECTION ( 'NONE',  ( 0.000000000000000000, 0.000000000000000000, 1.000000000000000000 ) ) ;
#261 = CIRCLE ( 'NONE', #148, 3.000000000000000444 ) ;
#262 = CARTESIAN_POINT ( 'NONE',  ( 0.000000000000000000, 0.000000000000000000, 207.0000000000000284 ) ) ;
#263 = CARTESIAN_POINT ( 'NONE',  ( 0.000000000000000000, 0.000000000000000000, 7.000000000000000000 ) ) ;
#264 = CIRCLE ( 'NONE', #304, 10.00000000000000000 ) ;
#265 = ORIENTED_EDGE ( 'NONE', *, *, #150, .T. ) ;
#266 = DIRECTION ( 'NONE',  ( 0.000000000000000000, 0.000000000000000000, 1.000000000000000000 ) ) ;
#267 = DIRECTION ( 'NONE',  ( 0.000000000000000000, 0.000000000000000000, -1.000000000000000000 ) ) ;
#268 = APPROVAL_DATE_TIME ( #121, #198 ) ;
#269 = EDGE_CURVE ( 'NONE', #315, #116, #144, .T. ) ;
#270 = CIRCLE ( 'NONE', #106, 3.000000000000000444 ) ;
#271 = EDGE_CURVE ( 'NONE', #203, #315, #254, .T. ) ;
#272 = APPROVAL_DATE_TIME ( #340, #60 ) ;
#273 = EDGE_CURVE ( 'NONE', #247, #77, #39, .T. ) ;
#274 = ORIENTED_EDGE ( 'NONE', *, *, #45, .T. ) ;
#275 = APPROVAL_DATE_TIME ( #242, #161 ) ;
#276 = DIRECTION ( 'NONE',  ( 0.000000000000000000, 0.000000000000000000, 1.000000000000000000 ) ) ;
#277 = UNCERTAINTY_MEASURE_WITH_UNIT (LENGTH_MEASURE( 1.000000000000000082E-05 ), #334, 'distance_accuracy_value', 'NONE');
#278 = CC_DESIGN_APPROVAL ( #161, ( #56 ) ) ;
#279 = DIRECTION ( 'NONE',  ( -0.000000000000000000, -0.000000000000000000, -1.000000000000000000 ) ) ;
#280 = ORIENTED_EDGE ( 'NONE', *, *, #253, .F. ) ;
#281 = CARTESIAN_POINT ( 'NONE',  ( 0.000000000000000000, 0.000000000000000000, 7.000000000000000000 ) ) ;
#282 = ORIENTED_EDGE ( 'NONE', *, *, #176, .T. ) ;
#283 = CIRCLE ( 'NONE', #7, 10.00000000000000000 ) ;
#284 = EDGE_CURVE ( 'NONE', #376, #126, #264, .T. ) ;
#285 = CARTESIAN_POINT ( 'NONE',  ( -3.000000000000000444, 0.000000000000000000, 207.0000000000000284 ) ) ;
#286 = EDGE_LOOP ( 'NONE', ( #162, #195, #184, #227 ) ) ;
#287 = DIRECTION ( 'NONE',  ( 0.000000000000000000, -1.000000000000000000, 0.000000000000000000 ) ) ;
#288 = AXIS2_PLACEMENT_3D ( 'NONE', #10, #66, #296 ) ;
#289 = CYLINDRICAL_SURFACE ( 'NONE', #74, 10.00000000000000000 ) ;
#290 = DIRECTION ( 'NONE',  ( 1.000000000000000000, 0.000000000000000000, 0.000000000000000000 ) ) ;
#291 = ORIENTED_EDGE ( 'NONE', *, *, #41, .T. ) ;
#292 = PERSON_AND_ORGANIZATION_ROLE ( 'design_owner' ) ;
#293 = ORIENTED_EDGE ( 'NONE', *, *, #176, .F. ) ;
#294 = FACE_OUTER_BOUND ( 'NONE', #251, .T. ) ;
#295 = ORIENTED_EDGE ( 'NONE', *, *, #253, .T. ) ;
#296 = DIRECTION ( 'NONE',  ( 1.000000000000000000, 0.000000000000000000, 0.000000000000000000 ) ) ;
#297 = VERTEX_POINT ( 'NONE', #135 ) ;
#298 = CYLINDRICAL_SURFACE ( 'NONE', #252, 6.000000000000000888 ) ;
#299 = CARTESIAN_POINT ( 'NONE',  ( 3.000000000000000444, 3.673940397442059868E-16, 207.0000000000000284 ) ) ;
#300 = AXIS2_PLACEMENT_3D ( 'NONE', #343, #276, #308 ) ;
#301 = DATE_TIME_ROLE ( 'creation_date' ) ;
#302 = PRODUCT ( 'b3c1', 'b3c1', '', ( #88 ) ) ;
#303 = EDGE_CURVE ( 'NONE', #224, #203, #270, .T. ) ;
#304 = AXIS2_PLACEMENT_3D ( 'NONE', #281, #131, #375 ) ;
#305 = COORDINATED_UNIVERSAL_TIME_OFFSET ( 1, 0, .AHEAD. ) ;
#306 = EDGE_LOOP ( 'NONE', ( #75, #192 ) ) ;
#307 = PERSON_AND_ORGANIZATION_ROLE ( 'creator' ) ;
#308 = DIRECTION ( 'NONE',  ( 1.000000000000000000, 0.000000000000000000, -0.000000000000000000 ) ) ;
#309 = ORIENTED_EDGE ( 'NONE', *, *, #284, .T. ) ;
#310 = LINE ( 'NONE', #299, #206 ) ;
#311 = ORIENTED_EDGE ( 'NONE', *, *, #28, .F. ) ;
#312 = TOROIDAL_SURFACE ( 'NONE', #223, 6.500000000000000888, 0.5000000000000000000 ) ;
#313 = CARTESIAN_POINT ( 'NONE',  ( -6.500000000000000888, 7.960204194457796463E-16, 7.500000000000007105 ) ) ;
#314 = CC_DESIGN_PERSON_AND_ORGANIZATION_ASSIGNMENT ( #173, #292, ( #302 ) ) ;
#315 = VERTEX_POINT ( 'NONE', #352 ) ;
#316 = DIRECTION ( 'NONE',  ( -1.000000000000000000, 0.000000000000000000, 0.000000000000000000 ) ) ;
#317 = ADVANCED_FACE ( 'NONE', ( #81 ), #353, .T. ) ;
#318 = DIRECTION ( 'NONE',  ( -1.000000000000000000, 1.224646799147351482E-16, 0.000000000000000000 ) ) ;
#319 = ORIENTED_EDGE ( 'NONE', *, *, #104, .T. ) ;
#320 = CC_DESIGN_PERSON_AND_ORGANIZATION_ASSIGNMENT ( #214, #73, ( #56 ) ) ;
#321 = CARTESIAN_POINT ( 'NONE',  ( 6.500000000000000888, 0.000000000000000000, 7.500000000000007105 ) ) ;
#322 = LOCAL_TIME ( 16, 54, 20.00000000000000000, #305 ) ;
#323 = DIRECTION ( 'NONE',  ( 0.000000000000000000, 0.000000000000000000, 1.000000000000000000 ) ) ;
#324 = ADVANCED_FACE ( 'NONE', ( #52 ), #3, .F. ) ;
#325 = FACE_OUTER_BOUND ( 'NONE', #58, .T. ) ;
#326 = DIRECTION ( 'NONE',  ( 1.000000000000000000, 0.000000000000000000, 0.000000000000000000 ) ) ;
#327 =( NAMED_UNIT ( * ) SI_UNIT ( $, .STERADIAN. ) SOLID_ANGLE_UNIT ( ) );
#328 = EDGE_LOOP ( 'NONE', ( #174, #157 ) ) ;
#329 = CYLINDRICAL_SURFACE ( 'NONE', #142, 6.000000000000000888 ) ;
#330 =( GEOMETRIC_REPRESENTATION_CONTEXT ( 3 ) GLOBAL_UNCERTAINTY_ASSIGNED_CONTEXT ( ( #277 ) ) GLOBAL_UNIT_ASSIGNED_CONTEXT ( ( #334, #231, #327 ) ) REPRESENTATION_CONTEXT ( 'NONE', 'WORKASPACE' ) );
#331 = LINE ( 'NONE', #128, #221 ) ;
#332 = CYLINDRICAL_SURFACE ( 'NONE', #351, 3.000000000000000444 ) ;
#333 = DIRECTION ( 'NONE',  ( 0.000000000000000000, 0.000000000000000000, 1.000000000000000000 ) ) ;
#334 =( LENGTH_UNIT ( ) NAMED_UNIT ( * ) SI_UNIT ( .MILLI., .METRE. ) );
#335 = ADVANCED_FACE ( 'NONE', ( #169 ), #332, .F. ) ;
#336 = LINE ( 'NONE', #207, #54 ) ;
#337 = ORIENTED_EDGE ( 'NONE', *, *, #244, .T. ) ;
#338 = CARTESIAN_POINT ( 'NONE',  ( 3.000000000000000444, 3.673940397442059868E-16, 0.000000000000000000 ) ) ;
#339 = CC_DESIGN_SECURITY_CLASSIFICATION ( #56, ( #70 ) ) ;
#340 = DATE_AND_TIME ( #368, #259 ) ;
#341 = PERSON_AND_ORGANIZATION_ROLE ( 'design_supplier' ) ;
#342 = AXIS2_PLACEMENT_3D ( 'NONE', #149, #217, #186 ) ;
#343 = CARTESIAN_POINT ( 'NONE',  ( 0.000000000000000000, 0.000000000000000000, 0.000000000000000000 ) ) ;
#344 = VERTEX_POINT ( 'NONE', #235 ) ;
#345 = ADVANCED_FACE ( 'NONE', ( #294 ), #329, .T. ) ;
#346 = FACE_BOUND ( 'NONE', #87, .T. ) ;
#347 = ORIENTED_EDGE ( 'NONE', *, *, #150, .F. ) ;
#348 = DIRECTION ( 'NONE',  ( 0.000000000000000000, 0.000000000000000000, -1.000000000000000000 ) ) ;
#349 = ADVANCED_FACE ( 'NONE', ( #325 ), #298, .T. ) ;
#350 = ORIENTED_EDGE ( 'NONE', *, *, #28, .T. ) ;
#351 = AXIS2_PLACEMENT_3D ( 'NONE', #11, #146, #234 ) ;
#352 = CARTESIAN_POINT ( 'NONE',  ( -3.000000000000000444, 0.000000000000000000, 0.000000000000000000 ) ) ;
#353 = CYLINDRICAL_SURFACE ( 'NONE', #119, 10.00000000000000000 ) ;
#354 = CARTESIAN_POINT ( 'NONE',  ( 0.000000000000000000, 0.000000000000000000, 7.000000000000000000 ) ) ;
#355 = DIRECTION ( 'NONE',  ( 1.000000000000000000, 0.000000000000000000, 0.000000000000000000 ) ) ;
#356 = CARTESIAN_POINT ( 'NONE',  ( 0.000000000000000000, 0.000000000000000000, 7.500000000000007105 ) ) ;
#357 = ORIENTED_EDGE ( 'NONE', *, *, #137, .T. ) ;
#358 = APPLICATION_PROTOCOL_DEFINITION ( 'international standard', 'config_control_design', 1994, #193 ) ;
#359 = DIRECTION ( 'NONE',  ( -1.000000000000000000, 0.000000000000000000, 0.000000000000000000 ) ) ;
#360 = CIRCLE ( 'NONE', #14, 6.000000000000000888 ) ;
#361 = CARTESIAN_POINT ( 'NONE',  ( 0.000000000000000000, 0.000000000000000000, 0.000000000000000000 ) ) ;
#362 = APPROVAL_PERSON_ORGANIZATION ( #183, #161, #241 ) ;
#363 = DIRECTION ( 'NONE',  ( 1.000000000000000000, 0.000000000000000000, 0.000000000000000000 ) ) ;
#364 = CARTESIAN_POINT ( 'NONE',  ( 0.000000000000000000, 0.000000000000000000, 7.000000000000000000 ) ) ;
#365 = CIRCLE ( 'NONE', #213, 3.000000000000000444 ) ;
#366 = DIRECTION ( 'NONE',  ( -0.000000000000000000, -0.000000000000000000, -1.000000000000000000 ) ) ;
#367 = APPROVAL_PERSON_ORGANIZATION ( #209, #60, #212 ) ;
#368 = CALENDAR_DATE ( 2022, 8, 7 ) ;
#369 = PERSON_AND_ORGANIZATION ( #42, #133 ) ;
#370 = ORIENTED_EDGE ( 'NONE', *, *, #37, .F. ) ;
#371 = SHAPE_DEFINITION_REPRESENTATION ( #240, #25 ) ;
#372 = SECURITY_CLASSIFICATION_LEVEL ( 'unclassified' ) ;
#373 = CARTESIAN_POINT ( 'NONE',  ( -6.500000000000000888, 7.960204194457796463E-16, 7.000000000000002665 ) ) ;
#374 = ORIENTED_EDGE ( 'NONE', *, *, #164, .F. ) ;
#375 = DIRECTION ( 'NONE',  ( 1.000000000000000000, 0.000000000000000000, 0.000000000000000000 ) ) ;
#376 = VERTEX_POINT ( 'NONE', #90 ) ;
#377 = AXIS2_PLACEMENT_3D ( 'NONE', #263, #366, #180 ) ;
#378 = DIRECTION ( 'NONE',  ( 1.000000000000000000, 0.000000000000000000, -0.000000000000000000 ) ) ;
#379 = EDGE_CURVE ( 'NONE', #297, #55, #9, .T. ) ;
#380 = DIRECTION ( 'NONE',  ( 0.000000000000000000, 0.000000000000000000, 1.000000000000000000 ) ) ;
#381 = ORIENTED_EDGE ( 'NONE', *, *, #41, .F. ) ;
ENDSEC;
END-ISO-10303-21;
