ISO-10303-21;
HEADER;
FILE_DESCRIPTION (( 'STEP AP203' ),
    '1' );
FILE_NAME ('9e6d.STEP',
    '2022-07-08T15:44:27',
    ( '' ),
    ( '' ),
    'SwSTEP 2.0',
    'SolidWorks 2019',
    '' );
FILE_SCHEMA (( 'CONFIG_CONTROL_DESIGN' ));
ENDSEC;

DATA;
#1 = CARTESIAN_POINT ( 'NONE',  ( -1.500000000000000222, 0.000000000000000000, 0.000000000000000000 ) ) ;
#2 = EDGE_CURVE ( 'NONE', #104, #297, #8, .T. ) ;
#3 = DIRECTION ( 'NONE',  ( -0.000000000000000000, -0.000000000000000000, -1.000000000000000000 ) ) ;
#4 = AXIS2_PLACEMENT_3D ( 'NONE', #375, #315, #165 ) ;
#5 = DIRECTION ( 'NONE',  ( 1.000000000000000000, 0.000000000000000000, -0.000000000000000000 ) ) ;
#6 = PERSON_AND_ORGANIZATION ( #316, #159 ) ;
#7 = DIRECTION ( 'NONE',  ( -1.000000000000000000, 1.224646799147353207E-16, 0.000000000000000000 ) ) ;
#8 = CIRCLE ( 'NONE', #98, 5.000000000000000000 ) ;
#9 = FACE_BOUND ( 'NONE', #370, .T. ) ;
#10 = SECURITY_CLASSIFICATION_LEVEL ( 'unclassified' ) ;
#11 = DATE_AND_TIME ( #248, #224 ) ;
#12 = ORIENTED_EDGE ( 'NONE', *, *, #108, .T. ) ;
#13 = CALENDAR_DATE ( 2022, 8, 7 ) ;
#14 = DIRECTION ( 'NONE',  ( 0.000000000000000000, 0.000000000000000000, 1.000000000000000000 ) ) ;
#15 = CC_DESIGN_PERSON_AND_ORGANIZATION_ASSIGNMENT ( #47, #277, ( #83 ) ) ;
#16 = APPROVAL_DATE_TIME ( #11, #54 ) ;
#17 = ORIENTED_EDGE ( 'NONE', *, *, #320, .T. ) ;
#18 = ORIENTED_EDGE ( 'NONE', *, *, #114, .F. ) ;
#19 = VECTOR ( 'NONE', #262, 1000.000000000000000 ) ;
#20 = CARTESIAN_POINT ( 'NONE',  ( 0.000000000000000000, 0.000000000000000000, 278.0000000000000000 ) ) ;
#21 = ADVANCED_FACE ( 'NONE', ( #243 ), #97, .T. ) ;
#22 = DIRECTION ( 'NONE',  ( 0.000000000000000000, 0.000000000000000000, 1.000000000000000000 ) ) ;
#23 = CYLINDRICAL_SURFACE ( 'NONE', #4, 5.000000000000000000 ) ;
#24 = CIRCLE ( 'NONE', #218, 1.500000000000000222 ) ;
#25 = FACE_OUTER_BOUND ( 'NONE', #190, .T. ) ;
#26 = EDGE_CURVE ( 'NONE', #249, #62, #182, .T. ) ;
#27 = DESIGN_CONTEXT ( 'detailed design', #169, 'design' ) ;
#28 = CARTESIAN_POINT ( 'NONE',  ( 0.000000000000000000, 0.000000000000000000, 0.000000000000000000 ) ) ;
#29 = CARTESIAN_POINT ( 'NONE',  ( 0.000000000000000000, 0.000000000000000000, 3.300000000000025135 ) ) ;
#30 = VERTEX_POINT ( 'NONE', #303 ) ;
#31 = AXIS2_PLACEMENT_3D ( 'NONE', #38, #152, #174 ) ;
#32 = MANIFOLD_SOLID_BREP ( 'Odebrat vysunutím3', #371 ) ;
#33 = ADVANCED_FACE ( 'NONE', ( #44, #129 ), #379, .F. ) ;
#34 = CARTESIAN_POINT ( 'NONE',  ( 0.000000000000000000, 0.000000000000000000, 278.0000000000000000 ) ) ;
#35 = PLANE ( 'NONE',  #59 ) ;
#36 = AXIS2_PLACEMENT_3D ( 'NONE', #293, #117, #199 ) ;
#37 = PRODUCT_DEFINITION ( 'NEZNÁMÝ', '', #83, #27 ) ;
#38 = CARTESIAN_POINT ( 'NONE',  ( 0.000000000000000000, 0.000000000000000000, 278.0000000000000000 ) ) ;
#39 = EDGE_LOOP ( 'NONE', ( #181, #329 ) ) ;
#40 = PERSON_AND_ORGANIZATION ( #316, #159 ) ;
#41 = ORIENTED_EDGE ( 'NONE', *, *, #320, .F. ) ;
#42 = APPLICATION_PROTOCOL_DEFINITION ( 'international standard', 'config_control_design', 1994, #136 ) ;
#43 = SECURITY_CLASSIFICATION ( '', '', #10 ) ;
#44 = FACE_BOUND ( 'NONE', #39, .T. ) ;
#45 = ADVANCED_FACE ( 'NONE', ( #376, #287 ), #230, .T. ) ;
#46 = ORIENTED_EDGE ( 'NONE', *, *, #149, .T. ) ;
#47 = PERSON_AND_ORGANIZATION ( #316, #159 ) ;
#48 = EDGE_LOOP ( 'NONE', ( #271, #12 ) ) ;
#49 = ORIENTED_EDGE ( 'NONE', *, *, #26, .T. ) ;
#50 = LOCAL_TIME ( 17, 44, 27.00000000000000000, #93 ) ;
#51 = CARTESIAN_POINT ( 'NONE',  ( 2.799999999999999822, 0.000000000000000000, 3.000000000000012434 ) ) ;
#52 = CARTESIAN_POINT ( 'NONE',  ( 5.000000000000000000, 6.123233995736766282E-16, 3.000000000000000000 ) ) ;
#53 = CARTESIAN_POINT ( 'NONE',  ( -2.500000000000000000, 0.000000000000000000, 278.0000000000000000 ) ) ;
#54 = APPROVAL ( #99, 'NEURÈENÝ' ) ;
#55 = DIRECTION ( 'NONE',  ( -0.000000000000000000, -0.000000000000000000, -1.000000000000000000 ) ) ;
#56 = DIRECTION ( 'NONE',  ( 1.000000000000000000, 0.000000000000000000, 0.000000000000000000 ) ) ;
#57 = ORIENTED_EDGE ( 'NONE', *, *, #26, .F. ) ;
#58 = DIRECTION ( 'NONE',  ( 1.000000000000000000, 0.000000000000000000, 0.000000000000000000 ) ) ;
#59 = AXIS2_PLACEMENT_3D ( 'NONE', #34, #147, #5 ) ;
#60 = CYLINDRICAL_SURFACE ( 'NONE', #36, 1.500000000000000222 ) ;
#61 = CARTESIAN_POINT ( 'NONE',  ( 0.000000000000000000, 0.000000000000000000, 278.0000000000000000 ) ) ;
#62 = VERTEX_POINT ( 'NONE', #198 ) ;
#63 = EDGE_CURVE ( 'NONE', #378, #349, #77, .T. ) ;
#64 = CIRCLE ( 'NONE', #362, 2.500000000000000000 ) ;
#65 = FACE_OUTER_BOUND ( 'NONE', #335, .T. ) ;
#66 = ORIENTED_EDGE ( 'NONE', *, *, #380, .F. ) ;
#67 = APPROVAL_ROLE ( '' ) ;
#68 = ADVANCED_FACE ( 'NONE', ( #321 ), #247, .F. ) ;
#69 = DIRECTION ( 'NONE',  ( 1.000000000000000000, 0.000000000000000000, 0.000000000000000000 ) ) ;
#70 = PERSON_AND_ORGANIZATION ( #316, #159 ) ;
#71 = CIRCLE ( 'NONE', #290, 5.000000000000000000 ) ;
#72 = ORIENTED_EDGE ( 'NONE', *, *, #92, .F. ) ;
#73 = CALENDAR_DATE ( 2022, 8, 7 ) ;
#74 = DIRECTION ( 'NONE',  ( -0.000000000000000000, -0.000000000000000000, -1.000000000000000000 ) ) ;
#75 = EDGE_LOOP ( 'NONE', ( #252, #209, #135, #340 ) ) ;
#76 = CIRCLE ( 'NONE', #347, 1.500000000000000222 ) ;
#77 = LINE ( 'NONE', #53, #205 ) ;
#78 = DIRECTION ( 'NONE',  ( 0.000000000000000000, 0.000000000000000000, -1.000000000000000000 ) ) ;
#79 = AXIS2_PLACEMENT_3D ( 'NONE', #80, #143, #195 ) ;
#80 = CARTESIAN_POINT ( 'NONE',  ( 0.000000000000000000, 0.000000000000000000, 278.0000000000000000 ) ) ;
#81 = EDGE_CURVE ( 'NONE', #103, #156, #283, .T. ) ;
#82 = DIRECTION ( 'NONE',  ( 0.000000000000000000, 0.000000000000000000, -1.000000000000000000 ) ) ;
#83 = PRODUCT_DEFINITION_FORMATION_WITH_SPECIFIED_SOURCE ( 'LIBOVOLNÝ', '', #116, .NOT_KNOWN. ) ;
#84 = EDGE_CURVE ( 'NONE', #62, #254, #348, .T. ) ;
#85 = PERSON_AND_ORGANIZATION_ROLE ( 'design_supplier' ) ;
#86 = CARTESIAN_POINT ( 'NONE',  ( 2.799999999999999822, 0.000000000000000000, 3.300000000000025135 ) ) ;
#87 = PRODUCT_DEFINITION_SHAPE ( 'NONE', 'NONE',  #37 ) ;
#88 = DIRECTION ( 'NONE',  ( -1.000000000000000000, 0.000000000000000000, 0.000000000000000000 ) ) ;
#89 = DIRECTION ( 'NONE',  ( 0.000000000000000000, 0.000000000000000000, 1.000000000000000000 ) ) ;
#90 = ORIENTED_EDGE ( 'NONE', *, *, #232, .F. ) ;
#91 = AXIS2_PLACEMENT_3D ( 'NONE', #161, #226, #346 ) ;
#92 = EDGE_CURVE ( 'NONE', #249, #366, #318, .T. ) ;
#93 = COORDINATED_UNIVERSAL_TIME_OFFSET ( 1, 0, .AHEAD. ) ;
#94 = LINE ( 'NONE', #291, #191 ) ;
#95 = ORIENTED_EDGE ( 'NONE', *, *, #222, .F. ) ;
#96 = TOROIDAL_SURFACE ( 'NONE', #113, 2.799999999999999822, 0.2999999999999999889 ) ;
#97 = CYLINDRICAL_SURFACE ( 'NONE', #239, 2.500000000000000000 ) ;
#98 = AXIS2_PLACEMENT_3D ( 'NONE', #128, #14, #281 ) ;
#99 = APPROVAL_STATUS ( 'not_yet_approved' ) ;
#100 = CARTESIAN_POINT ( 'NONE',  ( 0.000000000000000000, 0.000000000000000000, 278.0000000000000000 ) ) ;
#101 = ADVANCED_BREP_SHAPE_REPRESENTATION ( '9e6d', ( #32, #185 ), #369 ) ;
#102 = APPROVAL_ROLE ( '' ) ;
#103 = VERTEX_POINT ( 'NONE', #52 ) ;
#104 = VERTEX_POINT ( 'NONE', #107 ) ;
#105 = ORIENTED_EDGE ( 'NONE', *, *, #133, .F. ) ;
#106 = AXIS2_PLACEMENT_3D ( 'NONE', #282, #225, #112 ) ;
#107 = CARTESIAN_POINT ( 'NONE',  ( -5.000000000000000000, 0.000000000000000000, 0.000000000000000000 ) ) ;
#108 = EDGE_CURVE ( 'NONE', #176, #155, #314, .T. ) ;
#109 = DIRECTION ( 'NONE',  ( 0.000000000000000000, 0.000000000000000000, 1.000000000000000000 ) ) ;
#110 = DIRECTION ( 'NONE',  ( 0.000000000000000000, 0.000000000000000000, 1.000000000000000000 ) ) ;
#111 = EDGE_LOOP ( 'NONE', ( #187, #122, #158, #145 ) ) ;
#112 = DIRECTION ( 'NONE',  ( 1.000000000000000000, 0.000000000000000000, 0.000000000000000000 ) ) ;
#113 = AXIS2_PLACEMENT_3D ( 'NONE', #359, #171, #170 ) ;
#114 = EDGE_CURVE ( 'NONE', #378, #338, #142, .T. ) ;
#115 = CARTESIAN_POINT ( 'NONE',  ( -2.799999999999999822, 3.429011037612589276E-16, 3.000000000000012434 ) ) ;
#116 = PRODUCT ( '9e6d', '9e6d', '', ( #212 ) ) ;
#117 = DIRECTION ( 'NONE',  ( 0.000000000000000000, 0.000000000000000000, -1.000000000000000000 ) ) ;
#118 = SHAPE_DEFINITION_REPRESENTATION ( #87, #101 ) ;
#119 = DIRECTION ( 'NONE',  ( 1.000000000000000000, 0.000000000000000000, 0.000000000000000000 ) ) ;
#120 = CIRCLE ( 'NONE', #296, 2.500000000000000000 ) ;
#121 = CARTESIAN_POINT ( 'NONE',  ( 1.500000000000000222, 1.836970198721030181E-16, 278.0000000000000000 ) ) ;
#122 = ORIENTED_EDGE ( 'NONE', *, *, #172, .T. ) ;
#123 = CARTESIAN_POINT ( 'NONE',  ( 0.000000000000000000, 0.000000000000000000, 278.0000000000000000 ) ) ;
#124 = ORIENTED_EDGE ( 'NONE', *, *, #133, .T. ) ;
#125 = COORDINATED_UNIVERSAL_TIME_OFFSET ( 1, 0, .AHEAD. ) ;
#126 = CC_DESIGN_DATE_AND_TIME_ASSIGNMENT ( #334, #251, ( #37 ) ) ;
#127 = CIRCLE ( 'NONE', #272, 2.799999999999999822 ) ;
#128 = CARTESIAN_POINT ( 'NONE',  ( 0.000000000000000000, 0.000000000000000000, 0.000000000000000000 ) ) ;
#129 = FACE_OUTER_BOUND ( 'NONE', #217, .T. ) ;
#130 = EDGE_LOOP ( 'NONE', ( #41, #18, #160, #46 ) ) ;
#131 = PERSON_AND_ORGANIZATION ( #316, #159 ) ;
#132 = APPROVAL_PERSON_ORGANIZATION ( #70, #339, #102 ) ;
#133 = EDGE_CURVE ( 'NONE', #30, #349, #120, .T. ) ;
#134 = ORIENTED_EDGE ( 'NONE', *, *, #354, .T. ) ;
#135 = ORIENTED_EDGE ( 'NONE', *, *, #244, .T. ) ;
#136 = APPLICATION_CONTEXT ( 'configuration controlled 3d designs of mechanical parts and assemblies' ) ;
#137 = DIRECTION ( 'NONE',  ( 1.000000000000000000, 0.000000000000000000, -0.000000000000000000 ) ) ;
#138 = PRODUCT_RELATED_PRODUCT_CATEGORY ( 'detail', '', ( #116 ) ) ;
#139 = AXIS2_PLACEMENT_3D ( 'NONE', #327, #179, #234 ) ;
#140 = CARTESIAN_POINT ( 'NONE',  ( -1.500000000000000222, 0.000000000000000000, 278.0000000000000000 ) ) ;
#141 = DIRECTION ( 'NONE',  ( 1.000000000000000000, 0.000000000000000000, -0.000000000000000000 ) ) ;
#142 = CIRCLE ( 'NONE', #79, 2.500000000000000000 ) ;
#143 = DIRECTION ( 'NONE',  ( 0.000000000000000000, 0.000000000000000000, 1.000000000000000000 ) ) ;
#144 = FACE_OUTER_BOUND ( 'NONE', #75, .T. ) ;
#145 = ORIENTED_EDGE ( 'NONE', *, *, #244, .F. ) ;
#146 = DIRECTION ( 'NONE',  ( 1.224646799147353207E-16, 1.000000000000000000, -0.000000000000000000 ) ) ;
#147 = DIRECTION ( 'NONE',  ( 0.000000000000000000, 0.000000000000000000, 1.000000000000000000 ) ) ;
#148 = APPROVAL_STATUS ( 'not_yet_approved' ) ;
#149 = EDGE_CURVE ( 'NONE', #349, #30, #336, .T. ) ;
#150 = CARTESIAN_POINT ( 'NONE',  ( -2.799999999999999822, 3.429011037612588783E-16, 3.300000000000025135 ) ) ;
#151 = DIRECTION ( 'NONE',  ( 1.000000000000000000, 0.000000000000000000, 0.000000000000000000 ) ) ;
#152 = DIRECTION ( 'NONE',  ( -0.000000000000000000, -0.000000000000000000, -1.000000000000000000 ) ) ;
#153 = ORIENTED_EDGE ( 'NONE', *, *, #81, .T. ) ;
#154 = AXIS2_PLACEMENT_3D ( 'NONE', #86, #231, #201 ) ;
#155 = VERTEX_POINT ( 'NONE', #51 ) ;
#156 = VERTEX_POINT ( 'NONE', #284 ) ;
#157 = EDGE_CURVE ( 'NONE', #62, #249, #24, .T. ) ;
#158 = ORIENTED_EDGE ( 'NONE', *, *, #300, .T. ) ;
#159 = ORGANIZATION ( 'NEURÈENÝ', 'NEURÈENÝ', '' ) ;
#160 = ORIENTED_EDGE ( 'NONE', *, *, #63, .T. ) ;
#161 = CARTESIAN_POINT ( 'NONE',  ( 0.000000000000000000, 0.000000000000000000, 3.000000000000000000 ) ) ;
#162 = ADVANCED_FACE ( 'NONE', ( #144 ), #163, .T. ) ;
#163 = CYLINDRICAL_SURFACE ( 'NONE', #267, 5.000000000000000000 ) ;
#164 = CC_DESIGN_APPROVAL ( #54, ( #37 ) ) ;
#165 = DIRECTION ( 'NONE',  ( -1.000000000000000000, 0.000000000000000000, 0.000000000000000000 ) ) ;
#166 = DIRECTION ( 'NONE',  ( 1.000000000000000000, 0.000000000000000000, 0.000000000000000000 ) ) ;
#167 = ORIENTED_EDGE ( 'NONE', *, *, #228, .T. ) ;
#168 = DIRECTION ( 'NONE',  ( 0.000000000000000000, 0.000000000000000000, 1.000000000000000000 ) ) ;
#169 = APPLICATION_CONTEXT ( 'configuration controlled 3d designs of mechanical parts and assemblies' ) ;
#170 = DIRECTION ( 'NONE',  ( 1.000000000000000000, 0.000000000000000000, 0.000000000000000000 ) ) ;
#171 = DIRECTION ( 'NONE',  ( 0.000000000000000000, 0.000000000000000000, 1.000000000000000000 ) ) ;
#172 = EDGE_CURVE ( 'NONE', #103, #297, #344, .T. ) ;
#173 = APPROVAL_ROLE ( '' ) ;
#174 = DIRECTION ( 'NONE',  ( -1.000000000000000000, 0.000000000000000000, 0.000000000000000000 ) ) ;
#175 = DIRECTION ( 'NONE',  ( -0.000000000000000000, -0.000000000000000000, -1.000000000000000000 ) ) ;
#176 = VERTEX_POINT ( 'NONE', #115 ) ;
#177 = CIRCLE ( 'NONE', #139, 5.000000000000000000 ) ;
#178 = DATE_TIME_ROLE ( 'classification_date' ) ;
#179 = DIRECTION ( 'NONE',  ( 0.000000000000000000, 0.000000000000000000, 1.000000000000000000 ) ) ;
#180 = DIRECTION ( 'NONE',  ( 1.000000000000000000, 0.000000000000000000, 0.000000000000000000 ) ) ;
#181 = ORIENTED_EDGE ( 'NONE', *, *, #228, .F. ) ;
#182 = CIRCLE ( 'NONE', #288, 1.500000000000000222 ) ;
#183 =( LENGTH_UNIT ( ) NAMED_UNIT ( * ) SI_UNIT ( .MILLI., .METRE. ) );
#184 = DIRECTION ( 'NONE',  ( -1.000000000000000000, 0.000000000000000000, 0.000000000000000000 ) ) ;
#185 = AXIS2_PLACEMENT_3D ( 'NONE', #364, #245, #180 ) ;
#186 =( NAMED_UNIT ( * ) SI_UNIT ( $, .STERADIAN. ) SOLID_ANGLE_UNIT ( ) );
#187 = ORIENTED_EDGE ( 'NONE', *, *, #81, .F. ) ;
#188 = APPLICATION_PROTOCOL_DEFINITION ( 'international standard', 'config_control_design', 1994, #169 ) ;
#189 = ORIENTED_EDGE ( 'NONE', *, *, #294, .T. ) ;
#190 = EDGE_LOOP ( 'NONE', ( #365, #309, #66, #196 ) ) ;
#191 = VECTOR ( 'NONE', #298, 1000.000000000000000 ) ;
#192 = CC_DESIGN_PERSON_AND_ORGANIZATION_ASSIGNMENT ( #6, #85, ( #83 ) ) ;
#193 = CARTESIAN_POINT ( 'NONE',  ( 0.000000000000000000, 0.000000000000000000, 3.300000000000025135 ) ) ;
#194 = CARTESIAN_POINT ( 'NONE',  ( 0.000000000000000000, 0.000000000000000000, 278.0000000000000000 ) ) ;
#195 = DIRECTION ( 'NONE',  ( 1.000000000000000000, 0.000000000000000000, 0.000000000000000000 ) ) ;
#196 = ORIENTED_EDGE ( 'NONE', *, *, #331, .F. ) ;
#197 = CC_DESIGN_PERSON_AND_ORGANIZATION_ASSIGNMENT ( #131, #273, ( #37 ) ) ;
#198 = CARTESIAN_POINT ( 'NONE',  ( -1.500000000000000222, 0.000000000000000000, 278.0000000000000000 ) ) ;
#199 = DIRECTION ( 'NONE',  ( -1.000000000000000000, 0.000000000000000000, 0.000000000000000000 ) ) ;
#200 = COORDINATED_UNIVERSAL_TIME_OFFSET ( 1, 0, .AHEAD. ) ;
#201 = DIRECTION ( 'NONE',  ( 0.000000000000000000, 0.000000000000000000, -1.000000000000000000 ) ) ;
#202 = ADVANCED_FACE ( 'NONE', ( #341 ), #23, .T. ) ;
#203 = CC_DESIGN_APPROVAL ( #339, ( #83 ) ) ;
#204 = CARTESIAN_POINT ( 'NONE',  ( 2.500000000000000000, 3.061616997868383141E-16, 278.0000000000000000 ) ) ;
#205 = VECTOR ( 'NONE', #55, 1000.000000000000000 ) ;
#206 = APPROVAL ( #148, 'NEURÈENÝ' ) ;
#207 = APPROVAL_DATE_TIME ( #330, #206 ) ;
#208 = CARTESIAN_POINT ( 'NONE',  ( 0.000000000000000000, 0.000000000000000000, 0.000000000000000000 ) ) ;
#209 = ORIENTED_EDGE ( 'NONE', *, *, #354, .F. ) ;
#210 = LOCAL_TIME ( 17, 44, 27.00000000000000000, #215 ) ;
#211 = CALENDAR_DATE ( 2022, 8, 7 ) ;
#212 = MECHANICAL_CONTEXT ( 'NONE', #136, 'mechanical' ) ;
#213 = DIRECTION ( 'NONE',  ( 0.000000000000000000, 0.000000000000000000, 1.000000000000000000 ) ) ;
#214 = VECTOR ( 'NONE', #78, 1000.000000000000000 ) ;
#215 = COORDINATED_UNIVERSAL_TIME_OFFSET ( 1, 0, .AHEAD. ) ;
#216 = ADVANCED_FACE ( 'NONE', ( #25 ), #96, .F. ) ;
#217 = EDGE_LOOP ( 'NONE', ( #307, #357 ) ) ;
#218 = AXIS2_PLACEMENT_3D ( 'NONE', #194, #168, #56 ) ;
#219 = COORDINATED_UNIVERSAL_TIME_OFFSET ( 1, 0, .AHEAD. ) ;
#220 = ORIENTED_EDGE ( 'NONE', *, *, #84, .T. ) ;
#221 = ORIENTED_EDGE ( 'NONE', *, *, #331, .T. ) ;
#222 = EDGE_CURVE ( 'NONE', #349, #176, #229, .T. ) ;
#223 = ORIENTED_EDGE ( 'NONE', *, *, #84, .F. ) ;
#224 = LOCAL_TIME ( 17, 44, 27.00000000000000000, #125 ) ;
#225 = DIRECTION ( 'NONE',  ( 0.000000000000000000, 0.000000000000000000, 1.000000000000000000 ) ) ;
#226 = DIRECTION ( 'NONE',  ( 0.000000000000000000, 0.000000000000000000, 1.000000000000000000 ) ) ;
#227 = CARTESIAN_POINT ( 'NONE',  ( 0.000000000000000000, 0.000000000000000000, 3.000000000000000000 ) ) ;
#228 = EDGE_CURVE ( 'NONE', #254, #366, #310, .T. ) ;
#229 = CIRCLE ( 'NONE', #280, 0.2999999999999999334 ) ;
#230 = PLANE ( 'NONE',  #233 ) ;
#231 = DIRECTION ( 'NONE',  ( 0.000000000000000000, -1.000000000000000000, 0.000000000000000000 ) ) ;
#232 = EDGE_CURVE ( 'NONE', #338, #378, #64, .T. ) ;
#233 = AXIS2_PLACEMENT_3D ( 'NONE', #227, #110, #137 ) ;
#234 = DIRECTION ( 'NONE',  ( 1.000000000000000000, 0.000000000000000000, 0.000000000000000000 ) ) ;
#235 = CARTESIAN_POINT ( 'NONE',  ( 1.500000000000000222, 1.836970198721030181E-16, 0.000000000000000000 ) ) ;
#236 = LOCAL_TIME ( 17, 44, 27.00000000000000000, #200 ) ;
#237 = PERSON_AND_ORGANIZATION ( #316, #159 ) ;
#238 = CARTESIAN_POINT ( 'NONE',  ( 2.500000000000000000, 3.061616997868383141E-16, 278.0000000000000000 ) ) ;
#239 = AXIS2_PLACEMENT_3D ( 'NONE', #100, #74, #184 ) ;
#240 = DIRECTION ( 'NONE',  ( 0.000000000000000000, 0.000000000000000000, -1.000000000000000000 ) ) ;
#241 = APPROVAL_DATE_TIME ( #305, #339 ) ;
#242 = AXIS2_PLACEMENT_3D ( 'NONE', #61, #240, #88 ) ;
#243 = FACE_OUTER_BOUND ( 'NONE', #130, .T. ) ;
#244 = EDGE_CURVE ( 'NONE', #156, #104, #94, .T. ) ;
#245 = DIRECTION ( 'NONE',  ( 0.000000000000000000, 0.000000000000000000, 1.000000000000000000 ) ) ;
#246 = ORIENTED_EDGE ( 'NONE', *, *, #108, .F. ) ;
#247 = TOROIDAL_SURFACE ( 'NONE', #259, 2.799999999999999822, 0.2999999999999999889 ) ;
#248 = CALENDAR_DATE ( 2022, 8, 7 ) ;
#249 = VERTEX_POINT ( 'NONE', #121 ) ;
#250 = APPROVAL_PERSON_ORGANIZATION ( #40, #54, #67 ) ;
#251 = DATE_TIME_ROLE ( 'creation_date' ) ;
#252 = ORIENTED_EDGE ( 'NONE', *, *, #172, .F. ) ;
#253 = ADVANCED_FACE ( 'NONE', ( #328 ), #264, .F. ) ;
#254 = VERTEX_POINT ( 'NONE', #1 ) ;
#255 = DIRECTION ( 'NONE',  ( -0.000000000000000000, -0.000000000000000000, -1.000000000000000000 ) ) ;
#256 = APPROVAL_PERSON_ORGANIZATION ( #358, #206, #173 ) ;
#257 = DIRECTION ( 'NONE',  ( 0.000000000000000000, 0.000000000000000000, 1.000000000000000000 ) ) ;
#258 = DIRECTION ( 'NONE',  ( 1.000000000000000000, 0.000000000000000000, 0.000000000000000000 ) ) ;
#259 = AXIS2_PLACEMENT_3D ( 'NONE', #193, #257, #258 ) ;
#260 = ORIENTED_EDGE ( 'NONE', *, *, #232, .T. ) ;
#261 = CARTESIAN_POINT ( 'NONE',  ( 0.000000000000000000, 0.000000000000000000, 3.000000000000000000 ) ) ;
#262 = DIRECTION ( 'NONE',  ( -0.000000000000000000, -0.000000000000000000, -1.000000000000000000 ) ) ;
#263 = ORIENTED_EDGE ( 'NONE', *, *, #92, .T. ) ;
#264 = CYLINDRICAL_SURFACE ( 'NONE', #242, 1.500000000000000222 ) ;
#265 = CARTESIAN_POINT ( 'NONE',  ( 0.000000000000000000, 0.000000000000000000, 3.000000000000000000 ) ) ;
#266 = FACE_OUTER_BOUND ( 'NONE', #304, .T. ) ;
#267 = AXIS2_PLACEMENT_3D ( 'NONE', #345, #311, #381 ) ;
#268 = FACE_OUTER_BOUND ( 'NONE', #301, .T. ) ;
#269 = CARTESIAN_POINT ( 'NONE',  ( 0.000000000000000000, 0.000000000000000000, 0.000000000000000000 ) ) ;
#270 = DIRECTION ( 'NONE',  ( -0.000000000000000000, -0.000000000000000000, -1.000000000000000000 ) ) ;
#271 = ORIENTED_EDGE ( 'NONE', *, *, #380, .T. ) ;
#272 = AXIS2_PLACEMENT_3D ( 'NONE', #361, #270, #337 ) ;
#273 = PERSON_AND_ORGANIZATION_ROLE ( 'creator' ) ;
#274 = ORIENTED_EDGE ( 'NONE', *, *, #114, .T. ) ;
#275 = PERSON_AND_ORGANIZATION_ROLE ( 'design_owner' ) ;
#276 = EDGE_LOOP ( 'NONE', ( #134, #153 ) ) ;
#277 = PERSON_AND_ORGANIZATION_ROLE ( 'creator' ) ;
#278 = ADVANCED_FACE ( 'NONE', ( #268 ), #353, .T. ) ;
#279 = ORIENTED_EDGE ( 'NONE', *, *, #63, .F. ) ;
#280 = AXIS2_PLACEMENT_3D ( 'NONE', #150, #146, #7 ) ;
#281 = DIRECTION ( 'NONE',  ( 1.000000000000000000, 0.000000000000000000, 0.000000000000000000 ) ) ;
#282 = CARTESIAN_POINT ( 'NONE',  ( 0.000000000000000000, 0.000000000000000000, 3.300000000000025135 ) ) ;
#283 = CIRCLE ( 'NONE', #91, 5.000000000000000000 ) ;
#284 = CARTESIAN_POINT ( 'NONE',  ( -5.000000000000000000, 0.000000000000000000, 3.000000000000000000 ) ) ;
#285 = ADVANCED_FACE ( 'NONE', ( #266 ), #60, .F. ) ;
#286 = CC_DESIGN_APPROVAL ( #206, ( #43 ) ) ;
#287 = FACE_OUTER_BOUND ( 'NONE', #276, .T. ) ;
#288 = AXIS2_PLACEMENT_3D ( 'NONE', #20, #213, #69 ) ;
#289 = CARTESIAN_POINT ( 'NONE',  ( 1.500000000000000222, 1.836970198721030181E-16, 278.0000000000000000 ) ) ;
#290 = AXIS2_PLACEMENT_3D ( 'NONE', #265, #89, #119 ) ;
#291 = CARTESIAN_POINT ( 'NONE',  ( -5.000000000000000000, 0.000000000000000000, 3.000000000000000000 ) ) ;
#292 = CARTESIAN_POINT ( 'NONE',  ( 5.000000000000000000, 6.123233995736766282E-16, 0.000000000000000000 ) ) ;
#293 = CARTESIAN_POINT ( 'NONE',  ( 0.000000000000000000, 0.000000000000000000, 278.0000000000000000 ) ) ;
#294 = EDGE_CURVE ( 'NONE', #366, #254, #76, .T. ) ;
#295 = CARTESIAN_POINT ( 'NONE',  ( -2.500000000000000000, 0.000000000000000000, 278.0000000000000000 ) ) ;
#296 = AXIS2_PLACEMENT_3D ( 'NONE', #29, #22, #373 ) ;
#297 = VERTEX_POINT ( 'NONE', #292 ) ;
#298 = DIRECTION ( 'NONE',  ( -0.000000000000000000, -0.000000000000000000, -1.000000000000000000 ) ) ;
#299 =( NAMED_UNIT ( * ) PLANE_ANGLE_UNIT ( ) SI_UNIT ( $, .RADIAN. ) );
#300 = EDGE_CURVE ( 'NONE', #297, #104, #177, .T. ) ;
#301 = EDGE_LOOP ( 'NONE', ( #90, #17, #124, #279 ) ) ;
#302 = PERSON_AND_ORGANIZATION ( #316, #159 ) ;
#303 = CARTESIAN_POINT ( 'NONE',  ( 2.500000000000000000, 3.061616997868383141E-16, 3.300000000000025135 ) ) ;
#304 = EDGE_LOOP ( 'NONE', ( #368, #263, #189, #223 ) ) ;
#305 = DATE_AND_TIME ( #73, #374 ) ;
#306 = AXIS2_PLACEMENT_3D ( 'NONE', #261, #255, #166 ) ;
#307 = ORIENTED_EDGE ( 'NONE', *, *, #2, .F. ) ;
#308 = ADVANCED_FACE ( 'NONE', ( #9, #65 ), #35, .T. ) ;
#309 = ORIENTED_EDGE ( 'NONE', *, *, #222, .T. ) ;
#310 = CIRCLE ( 'NONE', #342, 1.500000000000000222 ) ;
#311 = DIRECTION ( 'NONE',  ( -0.000000000000000000, -0.000000000000000000, -1.000000000000000000 ) ) ;
#312 = CARTESIAN_POINT ( 'NONE',  ( 5.000000000000000000, 6.123233995736766282E-16, 3.000000000000000000 ) ) ;
#313 = CC_DESIGN_PERSON_AND_ORGANIZATION_ASSIGNMENT ( #302, #275, ( #116 ) ) ;
#314 = CIRCLE ( 'NONE', #306, 2.799999999999999822 ) ;
#315 = DIRECTION ( 'NONE',  ( -0.000000000000000000, -0.000000000000000000, -1.000000000000000000 ) ) ;
#316 = PERSON ( 'NEURÈENÝ', 'NEURÈENÝ', 'NEURÈENÝ', ('NEURÈENÝ'), ('NEURÈENÝ'), ('NEURÈENÝ') ) ;
#317 = UNCERTAINTY_MEASURE_WITH_UNIT (LENGTH_MEASURE( 1.000000000000000082E-05 ), #183, 'distance_accuracy_value', 'NONE');
#318 = LINE ( 'NONE', #289, #214 ) ;
#319 = EDGE_LOOP ( 'NONE', ( #95, #105, #221, #246 ) ) ;
#320 = EDGE_CURVE ( 'NONE', #338, #30, #351, .T. ) ;
#321 = FACE_OUTER_BOUND ( 'NONE', #319, .T. ) ;
#322 = DIRECTION ( 'NONE',  ( 1.000000000000000000, 0.000000000000000000, 0.000000000000000000 ) ) ;
#323 = CALENDAR_DATE ( 2022, 8, 7 ) ;
#324 = VECTOR ( 'NONE', #356, 1000.000000000000000 ) ;
#325 = CARTESIAN_POINT ( 'NONE',  ( -2.500000000000000000, 0.000000000000000000, 3.300000000000025135 ) ) ;
#326 = CC_DESIGN_PERSON_AND_ORGANIZATION_ASSIGNMENT ( #237, #355, ( #43 ) ) ;
#327 = CARTESIAN_POINT ( 'NONE',  ( 0.000000000000000000, 0.000000000000000000, 0.000000000000000000 ) ) ;
#328 = FACE_OUTER_BOUND ( 'NONE', #372, .T. ) ;
#329 = ORIENTED_EDGE ( 'NONE', *, *, #294, .F. ) ;
#330 = DATE_AND_TIME ( #323, #50 ) ;
#331 = EDGE_CURVE ( 'NONE', #30, #155, #352, .T. ) ;
#332 = VECTOR ( 'NONE', #82, 1000.000000000000000 ) ;
#333 = ORIENTED_EDGE ( 'NONE', *, *, #157, .F. ) ;
#334 = DATE_AND_TIME ( #13, #210 ) ;
#335 = EDGE_LOOP ( 'NONE', ( #274, #260 ) ) ;
#336 = CIRCLE ( 'NONE', #106, 2.500000000000000000 ) ;
#337 = DIRECTION ( 'NONE',  ( 1.000000000000000000, 0.000000000000000000, 0.000000000000000000 ) ) ;
#338 = VERTEX_POINT ( 'NONE', #204 ) ;
#339 = APPROVAL ( #367, 'NEURÈENÝ' ) ;
#340 = ORIENTED_EDGE ( 'NONE', *, *, #2, .T. ) ;
#341 = FACE_OUTER_BOUND ( 'NONE', #111, .T. ) ;
#342 = AXIS2_PLACEMENT_3D ( 'NONE', #208, #175, #151 ) ;
#343 = CC_DESIGN_DATE_AND_TIME_ASSIGNMENT ( #360, #178, ( #43 ) ) ;
#344 = LINE ( 'NONE', #312, #19 ) ;
#345 = CARTESIAN_POINT ( 'NONE',  ( 0.000000000000000000, 0.000000000000000000, 3.000000000000000000 ) ) ;
#346 = DIRECTION ( 'NONE',  ( 1.000000000000000000, 0.000000000000000000, 0.000000000000000000 ) ) ;
#347 = AXIS2_PLACEMENT_3D ( 'NONE', #269, #3, #58 ) ;
#348 = LINE ( 'NONE', #140, #332 ) ;
#349 = VERTEX_POINT ( 'NONE', #325 ) ;
#350 = DIRECTION ( 'NONE',  ( 0.000000000000000000, 0.000000000000000000, 1.000000000000000000 ) ) ;
#351 = LINE ( 'NONE', #238, #324 ) ;
#352 = CIRCLE ( 'NONE', #154, 0.2999999999999999334 ) ;
#353 = CYLINDRICAL_SURFACE ( 'NONE', #31, 2.500000000000000000 ) ;
#354 = EDGE_CURVE ( 'NONE', #156, #103, #71, .T. ) ;
#355 = PERSON_AND_ORGANIZATION_ROLE ( 'classification_officer' ) ;
#356 = DIRECTION ( 'NONE',  ( -0.000000000000000000, -0.000000000000000000, -1.000000000000000000 ) ) ;
#357 = ORIENTED_EDGE ( 'NONE', *, *, #300, .F. ) ;
#358 = PERSON_AND_ORGANIZATION ( #316, #159 ) ;
#359 = CARTESIAN_POINT ( 'NONE',  ( 0.000000000000000000, 0.000000000000000000, 3.300000000000025135 ) ) ;
#360 = DATE_AND_TIME ( #211, #236 ) ;
#361 = CARTESIAN_POINT ( 'NONE',  ( 0.000000000000000000, 0.000000000000000000, 3.000000000000000000 ) ) ;
#362 = AXIS2_PLACEMENT_3D ( 'NONE', #123, #350, #322 ) ;
#363 = CC_DESIGN_SECURITY_CLASSIFICATION ( #43, ( #83 ) ) ;
#364 = CARTESIAN_POINT ( 'NONE',  ( 0.000000000000000000, 0.000000000000000000, 0.000000000000000000 ) ) ;
#365 = ORIENTED_EDGE ( 'NONE', *, *, #149, .F. ) ;
#366 = VERTEX_POINT ( 'NONE', #235 ) ;
#367 = APPROVAL_STATUS ( 'not_yet_approved' ) ;
#368 = ORIENTED_EDGE ( 'NONE', *, *, #157, .T. ) ;
#369 =( GEOMETRIC_REPRESENTATION_CONTEXT ( 3 ) GLOBAL_UNCERTAINTY_ASSIGNED_CONTEXT ( ( #317 ) ) GLOBAL_UNIT_ASSIGNED_CONTEXT ( ( #183, #299, #186 ) ) REPRESENTATION_CONTEXT ( 'NONE', 'WORKASPACE' ) );
#370 = EDGE_LOOP ( 'NONE', ( #333, #57 ) ) ;
#371 = CLOSED_SHELL ( 'NONE', ( #285, #216, #278, #202, #162, #45, #33, #21, #308, #68, #253 ) ) ;
#372 = EDGE_LOOP ( 'NONE', ( #72, #49, #220, #167 ) ) ;
#373 = DIRECTION ( 'NONE',  ( 1.000000000000000000, 0.000000000000000000, 0.000000000000000000 ) ) ;
#374 = LOCAL_TIME ( 17, 44, 27.00000000000000000, #219 ) ;
#375 = CARTESIAN_POINT ( 'NONE',  ( 0.000000000000000000, 0.000000000000000000, 3.000000000000000000 ) ) ;
#376 = FACE_BOUND ( 'NONE', #48, .T. ) ;
#377 = AXIS2_PLACEMENT_3D ( 'NONE', #28, #109, #141 ) ;
#378 = VERTEX_POINT ( 'NONE', #295 ) ;
#379 = PLANE ( 'NONE',  #377 ) ;
#380 = EDGE_CURVE ( 'NONE', #155, #176, #127, .T. ) ;
#381 = DIRECTION ( 'NONE',  ( -1.000000000000000000, 0.000000000000000000, 0.000000000000000000 ) ) ;
ENDSEC;
END-ISO-10303-21;
