ISO-10303-21;
HEADER;
FILE_DESCRIPTION (( 'STEP AP203' ),
    '1' );
FILE_NAME ('50bb.STEP',
    '2022-07-08T14:48:22',
    ( '' ),
    ( '' ),
    'SwSTEP 2.0',
    'SolidWorks 2019',
    '' );
FILE_SCHEMA (( 'CONFIG_CONTROL_DESIGN' ));
ENDSEC;

DATA;
#1 = DESIGN_CONTEXT ( 'detailed design', #207, 'design' ) ;
#2 = DIRECTION ( 'NONE',  ( -0.000000000000000000, -0.000000000000000000, -1.000000000000000000 ) ) ;
#3 = CYLINDRICAL_SURFACE ( 'NONE', #336, 5.000000000000000000 ) ;
#4 = CARTESIAN_POINT ( 'NONE',  ( -3.100000000000000089, 0.000000000000000000, 755.0000000000000000 ) ) ;
#5 = ORIENTED_EDGE ( 'NONE', *, *, #281, .T. ) ;
#6 = CYLINDRICAL_SURFACE ( 'NONE', #131, 5.000000000000000000 ) ;
#7 = DIRECTION ( 'NONE',  ( -1.000000000000000000, 0.000000000000000000, 0.000000000000000000 ) ) ;
#8 = CIRCLE ( 'NONE', #229, 3.100000000000000089 ) ;
#9 = CARTESIAN_POINT ( 'NONE',  ( 0.000000000000000000, 0.000000000000000000, 755.0000000000000000 ) ) ;
#10 = CARTESIAN_POINT ( 'NONE',  ( 0.000000000000000000, 0.000000000000000000, 0.000000000000000000 ) ) ;
#11 = APPROVAL_PERSON_ORGANIZATION ( #245, #312, #79 ) ;
#12 = EDGE_CURVE ( 'NONE', #277, #214, #180, .T. ) ;
#13 = CC_DESIGN_APPROVAL ( #312, ( #24 ) ) ;
#14 = APPROVAL_ROLE ( '' ) ;
#15 = ORIENTED_EDGE ( 'NONE', *, *, #118, .F. ) ;
#16 = DIRECTION ( 'NONE',  ( 0.000000000000000000, 0.000000000000000000, -1.000000000000000000 ) ) ;
#17 = AXIS2_PLACEMENT_3D ( 'NONE', #152, #357, #157 ) ;
#18 = DIRECTION ( 'NONE',  ( 1.000000000000000000, 0.000000000000000000, 0.000000000000000000 ) ) ;
#19 = EDGE_CURVE ( 'NONE', #271, #21, #254, .T. ) ;
#20 = DIRECTION ( 'NONE',  ( 0.000000000000000000, 0.000000000000000000, 1.000000000000000000 ) ) ;
#21 = VERTEX_POINT ( 'NONE', #344 ) ;
#22 = ORIENTED_EDGE ( 'NONE', *, *, #113, .F. ) ;
#23 = CIRCLE ( 'NONE', #124, 5.000000000000000000 ) ;
#24 = PRODUCT_DEFINITION ( 'NEZNÁMÝ', '', #169, #1 ) ;
#25 = LINE ( 'NONE', #266, #302 ) ;
#26 = FACE_OUTER_BOUND ( 'NONE', #116, .T. ) ;
#27 = CARTESIAN_POINT ( 'NONE',  ( 0.000000000000000000, 0.000000000000000000, 5.499999999999949374 ) ) ;
#28 = LOCAL_TIME ( 16, 48, 22.00000000000000000, #196 ) ;
#29 = CIRCLE ( 'NONE', #269, 8.000000000000000000 ) ;
#30 = CARTESIAN_POINT ( 'NONE',  ( 0.000000000000000000, 0.000000000000000000, 0.000000000000000000 ) ) ;
#31 = CYLINDRICAL_SURFACE ( 'NONE', #17, 3.100000000000000089 ) ;
#32 = ORIENTED_EDGE ( 'NONE', *, *, #360, .F. ) ;
#33 = DIRECTION ( 'NONE',  ( 0.000000000000000000, 0.000000000000000000, 1.000000000000000000 ) ) ;
#34 = CARTESIAN_POINT ( 'NONE',  ( 0.000000000000000000, 0.000000000000000000, 5.000000000000000000 ) ) ;
#35 = EDGE_CURVE ( 'NONE', #56, #304, #8, .T. ) ;
#36 = ORIENTED_EDGE ( 'NONE', *, *, #12, .F. ) ;
#37 = AXIS2_PLACEMENT_3D ( 'NONE', #326, #174, #374 ) ;
#38 = COORDINATED_UNIVERSAL_TIME_OFFSET ( 1, 0, .AHEAD. ) ;
#39 = DATE_TIME_ROLE ( 'creation_date' ) ;
#40 = EDGE_CURVE ( 'NONE', #53, #271, #29, .T. ) ;
#41 = DIRECTION ( 'NONE',  ( 1.000000000000000000, 0.000000000000000000, 0.000000000000000000 ) ) ;
#42 = FACE_OUTER_BOUND ( 'NONE', #185, .T. ) ;
#43 = APPROVAL_STATUS ( 'not_yet_approved' ) ;
#44 = EDGE_CURVE ( 'NONE', #290, #21, #59, .T. ) ;
#45 = AXIS2_PLACEMENT_3D ( 'NONE', #94, #218, #278 ) ;
#46 = VERTEX_POINT ( 'NONE', #324 ) ;
#47 = VERTEX_POINT ( 'NONE', #110 ) ;
#48 = CALENDAR_DATE ( 2022, 8, 7 ) ;
#49 = PLANE ( 'NONE',  #37 ) ;
#50 = PERSON_AND_ORGANIZATION ( #105, #100 ) ;
#51 = PRODUCT ( '50bb', '50bb', '', ( #191 ) ) ;
#52 = VECTOR ( 'NONE', #208, 1000.000000000000000 ) ;
#53 = VERTEX_POINT ( 'NONE', #81 ) ;
#54 =( GEOMETRIC_REPRESENTATION_CONTEXT ( 3 ) GLOBAL_UNCERTAINTY_ASSIGNED_CONTEXT ( ( #60 ) ) GLOBAL_UNIT_ASSIGNED_CONTEXT ( ( #282, #248, #168 ) ) REPRESENTATION_CONTEXT ( 'NONE', 'WORKASPACE' ) );
#55 = ORIENTED_EDGE ( 'NONE', *, *, #160, .F. ) ;
#56 = VERTEX_POINT ( 'NONE', #293 ) ;
#57 = SHAPE_DEFINITION_REPRESENTATION ( #201, #258 ) ;
#58 = APPROVAL ( #108, 'NEURÈENÝ' ) ;
#59 = CIRCLE ( 'NONE', #371, 8.000000000000000000 ) ;
#60 = UNCERTAINTY_MEASURE_WITH_UNIT (LENGTH_MEASURE( 1.000000000000000082E-05 ), #282, 'distance_accuracy_value', 'NONE');
#61 = PLANE ( 'NONE',  #230 ) ;
#62 = DIRECTION ( 'NONE',  ( 1.000000000000000000, 0.000000000000000000, 0.000000000000000000 ) ) ;
#63 = ADVANCED_FACE ( 'NONE', ( #319, #321 ), #49, .T. ) ;
#64 = EDGE_LOOP ( 'NONE', ( #15, #163 ) ) ;
#65 = FACE_OUTER_BOUND ( 'NONE', #137, .T. ) ;
#66 = DIRECTION ( 'NONE',  ( -0.000000000000000000, -0.000000000000000000, -1.000000000000000000 ) ) ;
#67 = ORIENTED_EDGE ( 'NONE', *, *, #160, .T. ) ;
#68 = CARTESIAN_POINT ( 'NONE',  ( -8.000000000000000000, 0.000000000000000000, 5.000000000000000000 ) ) ;
#69 = CARTESIAN_POINT ( 'NONE',  ( -3.100000000000000089, 0.000000000000000000, 755.0000000000000000 ) ) ;
#70 = ADVANCED_FACE ( 'NONE', ( #176 ), #259, .F. ) ;
#71 = DIRECTION ( 'NONE',  ( 0.000000000000000000, 0.000000000000000000, 1.000000000000000000 ) ) ;
#72 = ORIENTED_EDGE ( 'NONE', *, *, #118, .T. ) ;
#73 = DIRECTION ( 'NONE',  ( -0.000000000000000000, -0.000000000000000000, -1.000000000000000000 ) ) ;
#74 = CARTESIAN_POINT ( 'NONE',  ( 3.100000000000000089, 3.796405077356794918E-16, 0.000000000000000000 ) ) ;
#75 = AXIS2_PLACEMENT_3D ( 'NONE', #267, #66, #184 ) ;
#76 = DATE_AND_TIME ( #315, #28 ) ;
#77 = APPLICATION_PROTOCOL_DEFINITION ( 'international standard', 'config_control_design', 1994, #187 ) ;
#78 = DIRECTION ( 'NONE',  ( 0.000000000000000000, 0.000000000000000000, 1.000000000000000000 ) ) ;
#79 = APPROVAL_ROLE ( '' ) ;
#80 = ORIENTED_EDGE ( 'NONE', *, *, #88, .T. ) ;
#81 = CARTESIAN_POINT ( 'NONE',  ( -8.000000000000000000, 0.000000000000000000, 5.000000000000000000 ) ) ;
#82 = ORIENTED_EDGE ( 'NONE', *, *, #306, .T. ) ;
#83 = AXIS2_PLACEMENT_3D ( 'NONE', #10, #73, #41 ) ;
#84 = ORIENTED_EDGE ( 'NONE', *, *, #40, .T. ) ;
#85 = CIRCLE ( 'NONE', #199, 5.000000000000000000 ) ;
#86 = DATE_AND_TIME ( #177, #117 ) ;
#87 = DIRECTION ( 'NONE',  ( 1.000000000000000000, 0.000000000000000000, 0.000000000000000000 ) ) ;
#88 = EDGE_CURVE ( 'NONE', #172, #129, #175, .T. ) ;
#89 = CC_DESIGN_PERSON_AND_ORGANIZATION_ASSIGNMENT ( #50, #141, ( #169 ) ) ;
#90 = FACE_OUTER_BOUND ( 'NONE', #253, .T. ) ;
#91 = DIRECTION ( 'NONE',  ( 1.000000000000000000, 0.000000000000000000, 0.000000000000000000 ) ) ;
#92 = AXIS2_PLACEMENT_3D ( 'NONE', #120, #150, #237 ) ;
#93 = DIRECTION ( 'NONE',  ( -0.000000000000000000, -0.000000000000000000, -1.000000000000000000 ) ) ;
#94 = CARTESIAN_POINT ( 'NONE',  ( 0.000000000000000000, 0.000000000000000000, 5.000000000000000000 ) ) ;
#95 = ORIENTED_EDGE ( 'NONE', *, *, #193, .T. ) ;
#96 = DIRECTION ( 'NONE',  ( 1.000000000000000000, 0.000000000000000000, 0.000000000000000000 ) ) ;
#97 = CARTESIAN_POINT ( 'NONE',  ( 3.100000000000000089, 3.796405077356794918E-16, 755.0000000000000000 ) ) ;
#98 = CIRCLE ( 'NONE', #244, 8.000000000000000000 ) ;
#99 = EDGE_LOOP ( 'NONE', ( #111, #139 ) ) ;
#100 = ORGANIZATION ( 'NEURÈENÝ', 'NEURÈENÝ', '' ) ;
#101 = DIRECTION ( 'NONE',  ( 1.000000000000000000, 0.000000000000000000, 0.000000000000000000 ) ) ;
#102 = PERSON_AND_ORGANIZATION ( #105, #100 ) ;
#103 = EDGE_CURVE ( 'NONE', #56, #198, #291, .T. ) ;
#104 = LOCAL_TIME ( 16, 48, 22.00000000000000000, #38 ) ;
#105 = PERSON ( 'NEURÈENÝ', 'NEURÈENÝ', 'NEURÈENÝ', ('NEURÈENÝ'), ('NEURÈENÝ'), ('NEURÈENÝ') ) ;
#106 = ORIENTED_EDGE ( 'NONE', *, *, #167, .T. ) ;
#107 = ADVANCED_FACE ( 'NONE', ( #121, #148 ), #212, .T. ) ;
#108 = APPROVAL_STATUS ( 'not_yet_approved' ) ;
#109 = CIRCLE ( 'NONE', #327, 3.100000000000000089 ) ;
#110 = CARTESIAN_POINT ( 'NONE',  ( -5.000000000000000000, 0.000000000000000000, 755.0000000000000000 ) ) ;
#111 = ORIENTED_EDGE ( 'NONE', *, *, #44, .F. ) ;
#112 = APPROVAL_ROLE ( '' ) ;
#113 = EDGE_CURVE ( 'NONE', #304, #46, #329, .T. ) ;
#114 = DIRECTION ( 'NONE',  ( 0.000000000000000000, 0.000000000000000000, -1.000000000000000000 ) ) ;
#115 = CIRCLE ( 'NONE', #279, 5.500000000000000000 ) ;
#116 = EDGE_LOOP ( 'NONE', ( #300, #179, #5, #332 ) ) ;
#117 = LOCAL_TIME ( 16, 48, 22.00000000000000000, #289 ) ;
#118 = EDGE_CURVE ( 'NONE', #46, #198, #190, .T. ) ;
#119 = DATE_AND_TIME ( #48, #145 ) ;
#120 = CARTESIAN_POINT ( 'NONE',  ( 0.000000000000000000, 0.000000000000000000, 5.000000000000000000 ) ) ;
#121 = FACE_BOUND ( 'NONE', #350, .T. ) ;
#122 = EDGE_CURVE ( 'NONE', #172, #277, #85, .T. ) ;
#123 = CARTESIAN_POINT ( 'NONE',  ( 0.000000000000000000, 0.000000000000000000, 755.0000000000000000 ) ) ;
#124 = AXIS2_PLACEMENT_3D ( 'NONE', #9, #328, #275 ) ;
#125 = DIRECTION ( 'NONE',  ( 0.000000000000000000, 0.000000000000000000, 1.000000000000000000 ) ) ;
#126 = FACE_OUTER_BOUND ( 'NONE', #217, .T. ) ;
#127 = ORIENTED_EDGE ( 'NONE', *, *, #103, .F. ) ;
#128 = DIRECTION ( 'NONE',  ( 1.000000000000000000, 0.000000000000000000, 0.000000000000000000 ) ) ;
#129 = VERTEX_POINT ( 'NONE', #331 ) ;
#130 = CC_DESIGN_DATE_AND_TIME_ASSIGNMENT ( #119, #349, ( #303 ) ) ;
#131 = AXIS2_PLACEMENT_3D ( 'NONE', #159, #356, #151 ) ;
#132 = ORIENTED_EDGE ( 'NONE', *, *, #88, .F. ) ;
#133 = CARTESIAN_POINT ( 'NONE',  ( 0.000000000000000000, 0.000000000000000000, 755.0000000000000000 ) ) ;
#134 = DATE_AND_TIME ( #171, #104 ) ;
#135 = PERSON_AND_ORGANIZATION ( #105, #100 ) ;
#136 = VECTOR ( 'NONE', #93, 1000.000000000000000 ) ;
#137 = EDGE_LOOP ( 'NONE', ( #194, #364, #235, #362 ) ) ;
#138 = PERSON_AND_ORGANIZATION ( #105, #100 ) ;
#139 = ORIENTED_EDGE ( 'NONE', *, *, #305, .F. ) ;
#140 = ORIENTED_EDGE ( 'NONE', *, *, #236, .T. ) ;
#141 = PERSON_AND_ORGANIZATION_ROLE ( 'design_supplier' ) ;
#142 = CARTESIAN_POINT ( 'NONE',  ( 0.000000000000000000, 0.000000000000000000, 0.000000000000000000 ) ) ;
#143 = ORIENTED_EDGE ( 'NONE', *, *, #35, .F. ) ;
#144 = APPROVAL_DATE_TIME ( #375, #369 ) ;
#145 = LOCAL_TIME ( 16, 48, 22.00000000000000000, #370 ) ;
#146 = AXIS2_PLACEMENT_3D ( 'NONE', #240, #270, #62 ) ;
#147 = EDGE_LOOP ( 'NONE', ( #252, #274 ) ) ;
#148 = FACE_OUTER_BOUND ( 'NONE', #345, .T. ) ;
#149 = CARTESIAN_POINT ( 'NONE',  ( 5.000000000000000000, 6.123233995736766282E-16, 755.0000000000000000 ) ) ;
#150 = DIRECTION ( 'NONE',  ( 0.000000000000000000, 0.000000000000000000, 1.000000000000000000 ) ) ;
#151 = DIRECTION ( 'NONE',  ( -1.000000000000000000, 0.000000000000000000, 0.000000000000000000 ) ) ;
#152 = CARTESIAN_POINT ( 'NONE',  ( 0.000000000000000000, 0.000000000000000000, 755.0000000000000000 ) ) ;
#153 = CC_DESIGN_SECURITY_CLASSIFICATION ( #303, ( #169 ) ) ;
#154 = EDGE_LOOP ( 'NONE', ( #242, #80, #334, #36 ) ) ;
#155 = ADVANCED_FACE ( 'NONE', ( #90 ), #3, .T. ) ;
#156 = DIRECTION ( 'NONE',  ( 0.000000000000000000, 0.000000000000000000, 1.000000000000000000 ) ) ;
#157 = DIRECTION ( 'NONE',  ( -1.000000000000000000, 0.000000000000000000, 0.000000000000000000 ) ) ;
#158 = ORIENTED_EDGE ( 'NONE', *, *, #261, .T. ) ;
#159 = CARTESIAN_POINT ( 'NONE',  ( 0.000000000000000000, 0.000000000000000000, 755.0000000000000000 ) ) ;
#160 = EDGE_CURVE ( 'NONE', #277, #172, #298, .T. ) ;
#161 = DIRECTION ( 'NONE',  ( -1.000000000000000000, 0.000000000000000000, 0.000000000000000000 ) ) ;
#162 = CC_DESIGN_PERSON_AND_ORGANIZATION_ASSIGNMENT ( #225, #340, ( #51 ) ) ;
#163 = ORIENTED_EDGE ( 'NONE', *, *, #373, .F. ) ;
#164 = ADVANCED_FACE ( 'NONE', ( #126 ), #31, .F. ) ;
#165 = CIRCLE ( 'NONE', #249, 5.000000000000000000 ) ;
#166 = CARTESIAN_POINT ( 'NONE',  ( 0.000000000000000000, 0.000000000000000000, 0.000000000000000000 ) ) ;
#167 = EDGE_CURVE ( 'NONE', #214, #129, #251, .T. ) ;
#168 =( NAMED_UNIT ( * ) SI_UNIT ( $, .STERADIAN. ) SOLID_ANGLE_UNIT ( ) );
#169 = PRODUCT_DEFINITION_FORMATION_WITH_SPECIFIED_SOURCE ( 'LIBOVOLNÝ', '', #51, .NOT_KNOWN. ) ;
#170 = TOROIDAL_SURFACE ( 'NONE', #288, 5.500000000000000000, 0.5000000000000000000 ) ;
#171 = CALENDAR_DATE ( 2022, 8, 7 ) ;
#172 = VERTEX_POINT ( 'NONE', #359 ) ;
#173 = ORIENTED_EDGE ( 'NONE', *, *, #193, .F. ) ;
#174 = DIRECTION ( 'NONE',  ( 0.000000000000000000, 0.000000000000000000, 1.000000000000000000 ) ) ;
#175 = CIRCLE ( 'NONE', #223, 0.5000000000000004441 ) ;
#176 = FACE_OUTER_BOUND ( 'NONE', #231, .T. ) ;
#177 = CALENDAR_DATE ( 2022, 8, 7 ) ;
#178 = DIRECTION ( 'NONE',  ( -1.000000000000000000, 1.224646799147351482E-16, 0.000000000000000000 ) ) ;
#179 = ORIENTED_EDGE ( 'NONE', *, *, #40, .F. ) ;
#180 = CIRCLE ( 'NONE', #202, 0.5000000000000004441 ) ;
#181 = DIRECTION ( 'NONE',  ( 0.000000000000000000, 0.000000000000000000, -1.000000000000000000 ) ) ;
#182 = ORIENTED_EDGE ( 'NONE', *, *, #261, .F. ) ;
#183 = DIRECTION ( 'NONE',  ( -0.000000000000000000, -0.000000000000000000, -1.000000000000000000 ) ) ;
#184 = DIRECTION ( 'NONE',  ( 1.000000000000000000, 0.000000000000000000, 0.000000000000000000 ) ) ;
#185 = EDGE_LOOP ( 'NONE', ( #317, #140, #67, #182 ) ) ;
#186 = DIRECTION ( 'NONE',  ( 0.000000000000000000, 0.000000000000000000, 1.000000000000000000 ) ) ;
#187 = APPLICATION_CONTEXT ( 'configuration controlled 3d designs of mechanical parts and assemblies' ) ;
#188 = CARTESIAN_POINT ( 'NONE',  ( -8.000000000000000000, 0.000000000000000000, 0.000000000000000000 ) ) ;
#189 = ORIENTED_EDGE ( 'NONE', *, *, #236, .F. ) ;
#190 = CIRCLE ( 'NONE', #75, 3.100000000000000089 ) ;
#191 = MECHANICAL_CONTEXT ( 'NONE', #187, 'mechanical' ) ;
#192 = DIRECTION ( 'NONE',  ( 1.000000000000000000, 0.000000000000000000, 0.000000000000000000 ) ) ;
#193 = EDGE_CURVE ( 'NONE', #129, #214, #115, .T. ) ;
#194 = ORIENTED_EDGE ( 'NONE', *, *, #306, .F. ) ;
#195 = TOROIDAL_SURFACE ( 'NONE', #263, 5.500000000000000000, 0.5000000000000000000 ) ;
#196 = COORDINATED_UNIVERSAL_TIME_OFFSET ( 1, 0, .AHEAD. ) ;
#197 = DIRECTION ( 'NONE',  ( 0.000000000000000000, -1.000000000000000000, 0.000000000000000000 ) ) ;
#198 = VERTEX_POINT ( 'NONE', #74 ) ;
#199 = AXIS2_PLACEMENT_3D ( 'NONE', #27, #308, #216 ) ;
#200 = CARTESIAN_POINT ( 'NONE',  ( 0.000000000000000000, 0.000000000000000000, 755.0000000000000000 ) ) ;
#201 = PRODUCT_DEFINITION_SHAPE ( 'NONE', 'NONE',  #24 ) ;
#202 = AXIS2_PLACEMENT_3D ( 'NONE', #228, #197, #16 ) ;
#203 = CC_DESIGN_APPROVAL ( #369, ( #169 ) ) ;
#204 = DIRECTION ( 'NONE',  ( 1.224646799147353207E-16, 1.000000000000000000, -0.000000000000000000 ) ) ;
#205 = PERSON_AND_ORGANIZATION_ROLE ( 'classification_officer' ) ;
#206 = DIRECTION ( 'NONE',  ( 0.000000000000000000, 0.000000000000000000, 1.000000000000000000 ) ) ;
#207 = APPLICATION_CONTEXT ( 'configuration controlled 3d designs of mechanical parts and assemblies' ) ;
#208 = DIRECTION ( 'NONE',  ( 0.000000000000000000, 0.000000000000000000, -1.000000000000000000 ) ) ;
#209 = CARTESIAN_POINT ( 'NONE',  ( 0.000000000000000000, 0.000000000000000000, 5.499999999999949374 ) ) ;
#210 = CARTESIAN_POINT ( 'NONE',  ( 0.000000000000000000, 0.000000000000000000, 5.499999999999949374 ) ) ;
#211 = ADVANCED_FACE ( 'NONE', ( #42 ), #6, .T. ) ;
#212 = PLANE ( 'NONE',  #92 ) ;
#213 = FACE_OUTER_BOUND ( 'NONE', #154, .T. ) ;
#214 = VERTEX_POINT ( 'NONE', #363 ) ;
#215 = CARTESIAN_POINT ( 'NONE',  ( -5.000000000000000000, 0.000000000000000000, 755.0000000000000000 ) ) ;
#216 = DIRECTION ( 'NONE',  ( 1.000000000000000000, 0.000000000000000000, 0.000000000000000000 ) ) ;
#217 = EDGE_LOOP ( 'NONE', ( #260, #284, #367, #22 ) ) ;
#218 = DIRECTION ( 'NONE',  ( -0.000000000000000000, -0.000000000000000000, -1.000000000000000000 ) ) ;
#219 = ADVANCED_FACE ( 'NONE', ( #65 ), #338, .T. ) ;
#220 = CALENDAR_DATE ( 2022, 8, 7 ) ;
#221 = DIRECTION ( 'NONE',  ( 1.000000000000000000, 0.000000000000000000, 0.000000000000000000 ) ) ;
#222 = APPROVAL_DATE_TIME ( #134, #312 ) ;
#223 = AXIS2_PLACEMENT_3D ( 'NONE', #347, #204, #178 ) ;
#224 = ADVANCED_FACE ( 'NONE', ( #296 ), #170, .F. ) ;
#225 = PERSON_AND_ORGANIZATION ( #105, #100 ) ;
#226 = ADVANCED_FACE ( 'NONE', ( #213 ), #195, .F. ) ;
#227 = CC_DESIGN_PERSON_AND_ORGANIZATION_ASSIGNMENT ( #138, #380, ( #169 ) ) ;
#228 = CARTESIAN_POINT ( 'NONE',  ( 5.500000000000000000, 0.000000000000000000, 5.499999999999949374 ) ) ;
#229 = AXIS2_PLACEMENT_3D ( 'NONE', #200, #20, #87 ) ;
#230 = AXIS2_PLACEMENT_3D ( 'NONE', #30, #33, #310 ) ;
#231 = EDGE_LOOP ( 'NONE', ( #127, #309, #264, #72 ) ) ;
#232 = VERTEX_POINT ( 'NONE', #149 ) ;
#233 = DIRECTION ( 'NONE',  ( -1.000000000000000000, 0.000000000000000000, 0.000000000000000000 ) ) ;
#234 = CIRCLE ( 'NONE', #83, 3.100000000000000089 ) ;
#235 = ORIENTED_EDGE ( 'NONE', *, *, #305, .T. ) ;
#236 = EDGE_CURVE ( 'NONE', #232, #277, #25, .T. ) ;
#237 = DIRECTION ( 'NONE',  ( 1.000000000000000000, 0.000000000000000000, -0.000000000000000000 ) ) ;
#238 = LINE ( 'NONE', #215, #136 ) ;
#239 = VECTOR ( 'NONE', #183, 1000.000000000000000 ) ;
#240 = CARTESIAN_POINT ( 'NONE',  ( 0.000000000000000000, 0.000000000000000000, 5.499999999999949374 ) ) ;
#241 = FACE_BOUND ( 'NONE', #64, .T. ) ;
#242 = ORIENTED_EDGE ( 'NONE', *, *, #122, .F. ) ;
#243 = CARTESIAN_POINT ( 'NONE',  ( 8.000000000000000000, 9.797174393178825657E-16, 5.000000000000000000 ) ) ;
#244 = AXIS2_PLACEMENT_3D ( 'NONE', #34, #335, #297 ) ;
#245 = PERSON_AND_ORGANIZATION ( #105, #100 ) ;
#246 = APPROVAL_STATUS ( 'not_yet_approved' ) ;
#247 = CC_DESIGN_PERSON_AND_ORGANIZATION_ASSIGNMENT ( #102, #343, ( #24 ) ) ;
#248 =( NAMED_UNIT ( * ) PLANE_ANGLE_UNIT ( ) SI_UNIT ( $, .RADIAN. ) );
#249 = AXIS2_PLACEMENT_3D ( 'NONE', #272, #342, #339 ) ;
#250 = DIRECTION ( 'NONE',  ( -0.000000000000000000, -0.000000000000000000, -1.000000000000000000 ) ) ;
#251 = CIRCLE ( 'NONE', #366, 5.500000000000000000 ) ;
#252 = ORIENTED_EDGE ( 'NONE', *, *, #360, .T. ) ;
#253 = EDGE_LOOP ( 'NONE', ( #189, #32, #158, #286 ) ) ;
#254 = LINE ( 'NONE', #346, #287 ) ;
#255 = MANIFOLD_SOLID_BREP ( 'Odebrat vysunutím3', #294 ) ;
#256 = SECURITY_CLASSIFICATION_LEVEL ( 'unclassified' ) ;
#257 = DIRECTION ( 'NONE',  ( 0.000000000000000000, 0.000000000000000000, 1.000000000000000000 ) ) ;
#258 = ADVANCED_BREP_SHAPE_REPRESENTATION ( '50bb', ( #255, #316 ), #54 ) ;
#259 = CYLINDRICAL_SURFACE ( 'NONE', #314, 3.100000000000000089 ) ;
#260 = ORIENTED_EDGE ( 'NONE', *, *, #351, .T. ) ;
#261 = EDGE_CURVE ( 'NONE', #47, #172, #238, .T. ) ;
#262 = PERSON_AND_ORGANIZATION ( #105, #100 ) ;
#263 = AXIS2_PLACEMENT_3D ( 'NONE', #210, #71, #96 ) ;
#264 = ORIENTED_EDGE ( 'NONE', *, *, #113, .T. ) ;
#265 = CC_DESIGN_PERSON_AND_ORGANIZATION_ASSIGNMENT ( #320, #205, ( #303 ) ) ;
#266 = CARTESIAN_POINT ( 'NONE',  ( 5.000000000000000000, 6.123233995736766282E-16, 755.0000000000000000 ) ) ;
#267 = CARTESIAN_POINT ( 'NONE',  ( 0.000000000000000000, 0.000000000000000000, 0.000000000000000000 ) ) ;
#268 = CARTESIAN_POINT ( 'NONE',  ( 0.000000000000000000, 0.000000000000000000, 5.000000000000000000 ) ) ;
#269 = AXIS2_PLACEMENT_3D ( 'NONE', #381, #257, #18 ) ;
#270 = DIRECTION ( 'NONE',  ( 0.000000000000000000, 0.000000000000000000, 1.000000000000000000 ) ) ;
#271 = VERTEX_POINT ( 'NONE', #243 ) ;
#272 = CARTESIAN_POINT ( 'NONE',  ( 0.000000000000000000, 0.000000000000000000, 755.0000000000000000 ) ) ;
#273 = DIRECTION ( 'NONE',  ( -0.000000000000000000, -0.000000000000000000, -1.000000000000000000 ) ) ;
#274 = ORIENTED_EDGE ( 'NONE', *, *, #292, .T. ) ;
#275 = DIRECTION ( 'NONE',  ( 1.000000000000000000, 0.000000000000000000, 0.000000000000000000 ) ) ;
#276 = CARTESIAN_POINT ( 'NONE',  ( 0.000000000000000000, 0.000000000000000000, 5.000000000000000000 ) ) ;
#277 = VERTEX_POINT ( 'NONE', #354 ) ;
#278 = DIRECTION ( 'NONE',  ( -1.000000000000000000, 0.000000000000000000, 0.000000000000000000 ) ) ;
#279 = AXIS2_PLACEMENT_3D ( 'NONE', #337, #250, #221 ) ;
#280 = EDGE_LOOP ( 'NONE', ( #378, #143 ) ) ;
#281 = EDGE_CURVE ( 'NONE', #53, #290, #330, .T. ) ;
#282 =( LENGTH_UNIT ( ) NAMED_UNIT ( * ) SI_UNIT ( .MILLI., .METRE. ) );
#283 = APPROVAL_PERSON_ORGANIZATION ( #135, #369, #14 ) ;
#284 = ORIENTED_EDGE ( 'NONE', *, *, #103, .T. ) ;
#285 = ORIENTED_EDGE ( 'NONE', *, *, #12, .T. ) ;
#286 = ORIENTED_EDGE ( 'NONE', *, *, #122, .T. ) ;
#287 = VECTOR ( 'NONE', #372, 1000.000000000000000 ) ;
#288 = AXIS2_PLACEMENT_3D ( 'NONE', #209, #186, #358 ) ;
#289 = COORDINATED_UNIVERSAL_TIME_OFFSET ( 1, 0, .AHEAD. ) ;
#290 = VERTEX_POINT ( 'NONE', #188 ) ;
#291 = LINE ( 'NONE', #97, #52 ) ;
#292 = EDGE_CURVE ( 'NONE', #232, #47, #23, .T. ) ;
#293 = CARTESIAN_POINT ( 'NONE',  ( 3.100000000000000089, 3.796405077356794918E-16, 755.0000000000000000 ) ) ;
#294 = CLOSED_SHELL ( 'NONE', ( #164, #226, #211, #219, #322, #107, #341, #155, #63, #224, #70 ) ) ;
#295 = AXIS2_PLACEMENT_3D ( 'NONE', #268, #333, #7 ) ;
#296 = FACE_OUTER_BOUND ( 'NONE', #368, .T. ) ;
#297 = DIRECTION ( 'NONE',  ( 1.000000000000000000, 0.000000000000000000, 0.000000000000000000 ) ) ;
#298 = CIRCLE ( 'NONE', #146, 5.000000000000000000 ) ;
#299 = DIRECTION ( 'NONE',  ( -0.000000000000000000, -0.000000000000000000, -1.000000000000000000 ) ) ;
#300 = ORIENTED_EDGE ( 'NONE', *, *, #19, .F. ) ;
#301 = FACE_OUTER_BOUND ( 'NONE', #99, .T. ) ;
#302 = VECTOR ( 'NONE', #2, 1000.000000000000000 ) ;
#303 = SECURITY_CLASSIFICATION ( '', '', #256 ) ;
#304 = VERTEX_POINT ( 'NONE', #4 ) ;
#305 = EDGE_CURVE ( 'NONE', #21, #290, #379, .T. ) ;
#306 = EDGE_CURVE ( 'NONE', #271, #53, #98, .T. ) ;
#307 = CYLINDRICAL_SURFACE ( 'NONE', #295, 8.000000000000000000 ) ;
#308 = DIRECTION ( 'NONE',  ( 0.000000000000000000, 0.000000000000000000, 1.000000000000000000 ) ) ;
#309 = ORIENTED_EDGE ( 'NONE', *, *, #35, .T. ) ;
#310 = DIRECTION ( 'NONE',  ( 1.000000000000000000, 0.000000000000000000, -0.000000000000000000 ) ) ;
#311 = PRODUCT_RELATED_PRODUCT_CATEGORY ( 'detail', '', ( #51 ) ) ;
#312 = APPROVAL ( #246, 'NEURÈENÝ' ) ;
#313 = APPLICATION_PROTOCOL_DEFINITION ( 'international standard', 'config_control_design', 1994, #207 ) ;
#314 = AXIS2_PLACEMENT_3D ( 'NONE', #376, #114, #233 ) ;
#315 = CALENDAR_DATE ( 2022, 8, 7 ) ;
#316 = AXIS2_PLACEMENT_3D ( 'NONE', #166, #78, #192 ) ;
#317 = ORIENTED_EDGE ( 'NONE', *, *, #292, .F. ) ;
#318 = DIRECTION ( 'NONE',  ( 1.000000000000000000, 0.000000000000000000, 0.000000000000000000 ) ) ;
#319 = FACE_BOUND ( 'NONE', #280, .T. ) ;
#320 = PERSON_AND_ORGANIZATION ( #105, #100 ) ;
#321 = FACE_OUTER_BOUND ( 'NONE', #147, .T. ) ;
#322 = ADVANCED_FACE ( 'NONE', ( #26 ), #307, .T. ) ;
#323 = CC_DESIGN_APPROVAL ( #58, ( #303 ) ) ;
#324 = CARTESIAN_POINT ( 'NONE',  ( -3.100000000000000089, 0.000000000000000000, 0.000000000000000000 ) ) ;
#325 = APPROVAL_DATE_TIME ( #86, #58 ) ;
#326 = CARTESIAN_POINT ( 'NONE',  ( 0.000000000000000000, 0.000000000000000000, 755.0000000000000000 ) ) ;
#327 = AXIS2_PLACEMENT_3D ( 'NONE', #133, #156, #91 ) ;
#328 = DIRECTION ( 'NONE',  ( 0.000000000000000000, 0.000000000000000000, 1.000000000000000000 ) ) ;
#329 = LINE ( 'NONE', #69, #353 ) ;
#330 = LINE ( 'NONE', #68, #239 ) ;
#331 = CARTESIAN_POINT ( 'NONE',  ( -5.500000000000000000, 6.735557395310442023E-16, 4.999999999999975131 ) ) ;
#332 = ORIENTED_EDGE ( 'NONE', *, *, #44, .T. ) ;
#333 = DIRECTION ( 'NONE',  ( -0.000000000000000000, -0.000000000000000000, -1.000000000000000000 ) ) ;
#334 = ORIENTED_EDGE ( 'NONE', *, *, #167, .F. ) ;
#335 = DIRECTION ( 'NONE',  ( 0.000000000000000000, 0.000000000000000000, 1.000000000000000000 ) ) ;
#336 = AXIS2_PLACEMENT_3D ( 'NONE', #123, #299, #161 ) ;
#337 = CARTESIAN_POINT ( 'NONE',  ( 0.000000000000000000, 0.000000000000000000, 5.000000000000000000 ) ) ;
#338 = CYLINDRICAL_SURFACE ( 'NONE', #45, 8.000000000000000000 ) ;
#339 = DIRECTION ( 'NONE',  ( 1.000000000000000000, 0.000000000000000000, 0.000000000000000000 ) ) ;
#340 = PERSON_AND_ORGANIZATION_ROLE ( 'design_owner' ) ;
#341 = ADVANCED_FACE ( 'NONE', ( #241, #301 ), #61, .F. ) ;
#342 = DIRECTION ( 'NONE',  ( 0.000000000000000000, 0.000000000000000000, 1.000000000000000000 ) ) ;
#343 = PERSON_AND_ORGANIZATION_ROLE ( 'creator' ) ;
#344 = CARTESIAN_POINT ( 'NONE',  ( 8.000000000000000000, 9.797174393178825657E-16, 0.000000000000000000 ) ) ;
#345 = EDGE_LOOP ( 'NONE', ( #84, #82 ) ) ;
#346 = CARTESIAN_POINT ( 'NONE',  ( 8.000000000000000000, 9.797174393178825657E-16, 5.000000000000000000 ) ) ;
#347 = CARTESIAN_POINT ( 'NONE',  ( -5.500000000000000000, 6.735557395310442023E-16, 5.499999999999949374 ) ) ;
#348 = AXIS2_PLACEMENT_3D ( 'NONE', #352, #125, #101 ) ;
#349 = DATE_TIME_ROLE ( 'classification_date' ) ;
#350 = EDGE_LOOP ( 'NONE', ( #106, #95 ) ) ;
#351 = EDGE_CURVE ( 'NONE', #304, #56, #109, .T. ) ;
#352 = CARTESIAN_POINT ( 'NONE',  ( 0.000000000000000000, 0.000000000000000000, 0.000000000000000000 ) ) ;
#353 = VECTOR ( 'NONE', #181, 1000.000000000000000 ) ;
#354 = CARTESIAN_POINT ( 'NONE',  ( 5.000000000000000000, 6.123233995736766282E-16, 5.499999999999949374 ) ) ;
#355 = CC_DESIGN_DATE_AND_TIME_ASSIGNMENT ( #76, #39, ( #24 ) ) ;
#356 = DIRECTION ( 'NONE',  ( -0.000000000000000000, -0.000000000000000000, -1.000000000000000000 ) ) ;
#357 = DIRECTION ( 'NONE',  ( 0.000000000000000000, 0.000000000000000000, -1.000000000000000000 ) ) ;
#358 = DIRECTION ( 'NONE',  ( 1.000000000000000000, 0.000000000000000000, 0.000000000000000000 ) ) ;
#359 = CARTESIAN_POINT ( 'NONE',  ( -5.000000000000000000, 0.000000000000000000, 5.499999999999949374 ) ) ;
#360 = EDGE_CURVE ( 'NONE', #47, #232, #165, .T. ) ;
#361 = APPROVAL_PERSON_ORGANIZATION ( #262, #58, #112 ) ;
#362 = ORIENTED_EDGE ( 'NONE', *, *, #281, .F. ) ;
#363 = CARTESIAN_POINT ( 'NONE',  ( 5.500000000000000000, 0.000000000000000000, 4.999999999999975131 ) ) ;
#364 = ORIENTED_EDGE ( 'NONE', *, *, #19, .T. ) ;
#365 = COORDINATED_UNIVERSAL_TIME_OFFSET ( 1, 0, .AHEAD. ) ;
#366 = AXIS2_PLACEMENT_3D ( 'NONE', #276, #273, #128 ) ;
#367 = ORIENTED_EDGE ( 'NONE', *, *, #373, .T. ) ;
#368 = EDGE_LOOP ( 'NONE', ( #132, #55, #285, #173 ) ) ;
#369 = APPROVAL ( #43, 'NEURÈENÝ' ) ;
#370 = COORDINATED_UNIVERSAL_TIME_OFFSET ( 1, 0, .AHEAD. ) ;
#371 = AXIS2_PLACEMENT_3D ( 'NONE', #142, #206, #318 ) ;
#372 = DIRECTION ( 'NONE',  ( -0.000000000000000000, -0.000000000000000000, -1.000000000000000000 ) ) ;
#373 = EDGE_CURVE ( 'NONE', #198, #46, #234, .T. ) ;
#374 = DIRECTION ( 'NONE',  ( 1.000000000000000000, 0.000000000000000000, -0.000000000000000000 ) ) ;
#375 = DATE_AND_TIME ( #220, #377 ) ;
#376 = CARTESIAN_POINT ( 'NONE',  ( 0.000000000000000000, 0.000000000000000000, 755.0000000000000000 ) ) ;
#377 = LOCAL_TIME ( 16, 48, 22.00000000000000000, #365 ) ;
#378 = ORIENTED_EDGE ( 'NONE', *, *, #351, .F. ) ;
#379 = CIRCLE ( 'NONE', #348, 8.000000000000000000 ) ;
#380 = PERSON_AND_ORGANIZATION_ROLE ( 'creator' ) ;
#381 = CARTESIAN_POINT ( 'NONE',  ( 0.000000000000000000, 0.000000000000000000, 5.000000000000000000 ) ) ;
ENDSEC;
END-ISO-10303-21;
