ISO-10303-21;
HEADER;
FILE_DESCRIPTION (( 'STEP AP203' ),
    '1' );
FILE_NAME ('9e3f.STEP',
    '2022-07-08T14:52:18',
    ( '' ),
    ( '' ),
    'SwSTEP 2.0',
    'SolidWorks 2019',
    '' );
FILE_SCHEMA (( 'CONFIG_CONTROL_DESIGN' ));
ENDSEC;

DATA;
#1 = ORIENTED_EDGE ( 'NONE', *, *, #137, .T. ) ;
#2 = CARTESIAN_POINT ( 'NONE',  ( -6.500000000000000888, 7.960204194457796463E-16, 6.999999999999975131 ) ) ;
#3 = CALENDAR_DATE ( 2022, 8, 7 ) ;
#4 = CC_DESIGN_PERSON_AND_ORGANIZATION_ASSIGNMENT ( #33, #326, ( #9 ) ) ;
#5 = EDGE_LOOP ( 'NONE', ( #191, #52 ) ) ;
#6 = CALENDAR_DATE ( 2022, 8, 7 ) ;
#7 = APPLICATION_CONTEXT ( 'configuration controlled 3d designs of mechanical parts and assemblies' ) ;
#8 = EDGE_LOOP ( 'NONE', ( #71, #101, #354, #336 ) ) ;
#9 = PRODUCT ( '9e3f', '9e3f', '', ( #181 ) ) ;
#10 = EDGE_LOOP ( 'NONE', ( #145, #251 ) ) ;
#11 = UNCERTAINTY_MEASURE_WITH_UNIT (LENGTH_MEASURE( 1.000000000000000082E-05 ), #207, 'distance_accuracy_value', 'NONE');
#12 = LOCAL_TIME ( 16, 52, 18.00000000000000000, #279 ) ;
#13 = LINE ( 'NONE', #127, #311 ) ;
#14 = ORIENTED_EDGE ( 'NONE', *, *, #247, .F. ) ;
#15 = FACE_OUTER_BOUND ( 'NONE', #263, .T. ) ;
#16 = CARTESIAN_POINT ( 'NONE',  ( 0.000000000000000000, 0.000000000000000000, 7.000000000000000000 ) ) ;
#17 = DIRECTION ( 'NONE',  ( 0.000000000000000000, 0.000000000000000000, 1.000000000000000000 ) ) ;
#18 = FACE_OUTER_BOUND ( 'NONE', #223, .T. ) ;
#19 = CARTESIAN_POINT ( 'NONE',  ( -3.000000000000000444, 0.000000000000000000, 0.000000000000000000 ) ) ;
#20 = CC_DESIGN_SECURITY_CLASSIFICATION ( #225, ( #85 ) ) ;
#21 = DIRECTION ( 'NONE',  ( 0.000000000000000000, 0.000000000000000000, 1.000000000000000000 ) ) ;
#22 = CARTESIAN_POINT ( 'NONE',  ( 0.000000000000000000, 0.000000000000000000, 707.0000000000000000 ) ) ;
#23 = ORIENTED_EDGE ( 'NONE', *, *, #34, .F. ) ;
#24 = DIRECTION ( 'NONE',  ( 1.000000000000000000, 0.000000000000000000, 0.000000000000000000 ) ) ;
#25 = DIRECTION ( 'NONE',  ( 0.000000000000000000, -1.000000000000000000, 0.000000000000000000 ) ) ;
#26 = LINE ( 'NONE', #243, #274 ) ;
#27 = DIRECTION ( 'NONE',  ( 0.000000000000000000, 0.000000000000000000, 1.000000000000000000 ) ) ;
#28 = AXIS2_PLACEMENT_3D ( 'NONE', #81, #205, #245 ) ;
#29 = AXIS2_PLACEMENT_3D ( 'NONE', #53, #334, #186 ) ;
#30 = PERSON_AND_ORGANIZATION ( #206, #253 ) ;
#31 = DIRECTION ( 'NONE',  ( -0.000000000000000000, -0.000000000000000000, -1.000000000000000000 ) ) ;
#32 = DATE_TIME_ROLE ( 'classification_date' ) ;
#33 = PERSON_AND_ORGANIZATION ( #206, #253 ) ;
#34 = EDGE_CURVE ( 'NONE', #111, #287, #43, .T. ) ;
#35 = DIRECTION ( 'NONE',  ( 1.224646799147353207E-16, 1.000000000000000000, -0.000000000000000000 ) ) ;
#36 = PERSON_AND_ORGANIZATION ( #206, #253 ) ;
#37 = APPROVAL_DATE_TIME ( #304, #219 ) ;
#38 = VERTEX_POINT ( 'NONE', #325 ) ;
#39 = CIRCLE ( 'NONE', #183, 0.5000000000000004441 ) ;
#40 = VERTEX_POINT ( 'NONE', #134 ) ;
#41 = CYLINDRICAL_SURFACE ( 'NONE', #88, 10.00000000000000000 ) ;
#42 = VERTEX_POINT ( 'NONE', #199 ) ;
#43 = CIRCLE ( 'NONE', #125, 3.000000000000000444 ) ;
#44 = AXIS2_PLACEMENT_3D ( 'NONE', #352, #45, #237 ) ;
#45 = DIRECTION ( 'NONE',  ( 0.000000000000000000, 0.000000000000000000, 1.000000000000000000 ) ) ;
#46 = DIRECTION ( 'NONE',  ( -1.000000000000000000, 0.000000000000000000, 0.000000000000000000 ) ) ;
#47 = DIRECTION ( 'NONE',  ( -1.000000000000000000, 0.000000000000000000, 0.000000000000000000 ) ) ;
#48 = DIRECTION ( 'NONE',  ( -0.000000000000000000, -0.000000000000000000, -1.000000000000000000 ) ) ;
#49 = DIRECTION ( 'NONE',  ( -1.000000000000000000, 0.000000000000000000, 0.000000000000000000 ) ) ;
#50 = DIRECTION ( 'NONE',  ( -1.000000000000000000, 0.000000000000000000, 0.000000000000000000 ) ) ;
#51 = DIRECTION ( 'NONE',  ( 1.000000000000000000, 0.000000000000000000, 0.000000000000000000 ) ) ;
#52 = ORIENTED_EDGE ( 'NONE', *, *, #367, .T. ) ;
#53 = CARTESIAN_POINT ( 'NONE',  ( 0.000000000000000000, 0.000000000000000000, 0.000000000000000000 ) ) ;
#54 = AXIS2_PLACEMENT_3D ( 'NONE', #106, #164, #50 ) ;
#55 = DIRECTION ( 'NONE',  ( -1.000000000000000000, 1.224646799147351482E-16, 0.000000000000000000 ) ) ;
#56 = AXIS2_PLACEMENT_3D ( 'NONE', #172, #27, #24 ) ;
#57 = COORDINATED_UNIVERSAL_TIME_OFFSET ( 1, 0, .AHEAD. ) ;
#58 = APPROVAL_ROLE ( '' ) ;
#59 = APPROVAL ( #360, 'NEURÈENÝ' ) ;
#60 = AXIS2_PLACEMENT_3D ( 'NONE', #102, #266, #141 ) ;
#61 = CARTESIAN_POINT ( 'NONE',  ( 6.000000000000000888, 7.347880794884120722E-16, 707.0000000000000000 ) ) ;
#62 = CIRCLE ( 'NONE', #113, 6.500000000000000888 ) ;
#63 = CIRCLE ( 'NONE', #44, 3.000000000000000444 ) ;
#64 = DIRECTION ( 'NONE',  ( 0.000000000000000000, 0.000000000000000000, 1.000000000000000000 ) ) ;
#65 = EDGE_CURVE ( 'NONE', #287, #166, #26, .T. ) ;
#66 = CC_DESIGN_DATE_AND_TIME_ASSIGNMENT ( #362, #32, ( #225 ) ) ;
#67 = ORIENTED_EDGE ( 'NONE', *, *, #152, .T. ) ;
#68 = CIRCLE ( 'NONE', #161, 10.00000000000000000 ) ;
#69 = FACE_OUTER_BOUND ( 'NONE', #5, .T. ) ;
#70 = ORIENTED_EDGE ( 'NONE', *, *, #347, .T. ) ;
#71 = ORIENTED_EDGE ( 'NONE', *, *, #179, .F. ) ;
#72 = CARTESIAN_POINT ( 'NONE',  ( 10.00000000000000000, 1.224646799147353256E-15, 0.000000000000000000 ) ) ;
#73 = EDGE_LOOP ( 'NONE', ( #123, #90, #157, #254 ) ) ;
#74 = ORIENTED_EDGE ( 'NONE', *, *, #307, .T. ) ;
#75 = DIRECTION ( 'NONE',  ( 1.000000000000000000, 0.000000000000000000, 0.000000000000000000 ) ) ;
#76 = LINE ( 'NONE', #373, #194 ) ;
#77 = AXIS2_PLACEMENT_3D ( 'NONE', #229, #233, #339 ) ;
#78 = ORIENTED_EDGE ( 'NONE', *, *, #353, .F. ) ;
#79 = CARTESIAN_POINT ( 'NONE',  ( 0.000000000000000000, 0.000000000000000000, 7.499999999999951150 ) ) ;
#80 = EDGE_CURVE ( 'NONE', #42, #357, #104, .T. ) ;
#81 = CARTESIAN_POINT ( 'NONE',  ( 0.000000000000000000, 0.000000000000000000, 0.000000000000000000 ) ) ;
#82 = CARTESIAN_POINT ( 'NONE',  ( 0.000000000000000000, 0.000000000000000000, 0.000000000000000000 ) ) ;
#83 = ORIENTED_EDGE ( 'NONE', *, *, #136, .T. ) ;
#84 = APPLICATION_PROTOCOL_DEFINITION ( 'international standard', 'config_control_design', 1994, #124 ) ;
#85 = PRODUCT_DEFINITION_FORMATION_WITH_SPECIFIED_SOURCE ( 'LIBOVOLNÝ', '', #9, .NOT_KNOWN. ) ;
#86 =( NAMED_UNIT ( * ) PLANE_ANGLE_UNIT ( ) SI_UNIT ( $, .RADIAN. ) );
#87 = APPROVAL_STATUS ( 'not_yet_approved' ) ;
#88 = AXIS2_PLACEMENT_3D ( 'NONE', #264, #158, #160 ) ;
#89 = AXIS2_PLACEMENT_3D ( 'NONE', #79, #323, #346 ) ;
#90 = ORIENTED_EDGE ( 'NONE', *, *, #208, .F. ) ;
#91 = ADVANCED_FACE ( 'NONE', ( #15 ), #217, .F. ) ;
#92 = EDGE_LOOP ( 'NONE', ( #249, #156, #74, #121 ) ) ;
#93 = DIRECTION ( 'NONE',  ( 1.000000000000000000, 0.000000000000000000, 0.000000000000000000 ) ) ;
#94 = ORIENTED_EDGE ( 'NONE', *, *, #34, .T. ) ;
#95 = AXIS2_PLACEMENT_3D ( 'NONE', #379, #375, #292 ) ;
#96 = CARTESIAN_POINT ( 'NONE',  ( 0.000000000000000000, 0.000000000000000000, 7.000000000000000000 ) ) ;
#97 = DIRECTION ( 'NONE',  ( 0.000000000000000000, 0.000000000000000000, 1.000000000000000000 ) ) ;
#98 = EDGE_LOOP ( 'NONE', ( #368, #14, #343, #108 ) ) ;
#99 = CARTESIAN_POINT ( 'NONE',  ( 0.000000000000000000, 0.000000000000000000, 707.0000000000000000 ) ) ;
#100 = DIRECTION ( 'NONE',  ( 1.000000000000000000, 0.000000000000000000, 0.000000000000000000 ) ) ;
#101 = ORIENTED_EDGE ( 'NONE', *, *, #307, .F. ) ;
#102 = CARTESIAN_POINT ( 'NONE',  ( 0.000000000000000000, 0.000000000000000000, 0.000000000000000000 ) ) ;
#103 = CYLINDRICAL_SURFACE ( 'NONE', #131, 3.000000000000000444 ) ;
#104 = LINE ( 'NONE', #331, #176 ) ;
#105 = CARTESIAN_POINT ( 'NONE',  ( 0.000000000000000000, 0.000000000000000000, 707.0000000000000000 ) ) ;
#106 = CARTESIAN_POINT ( 'NONE',  ( 0.000000000000000000, 0.000000000000000000, 7.000000000000000000 ) ) ;
#107 = EDGE_LOOP ( 'NONE', ( #139, #1 ) ) ;
#108 = ORIENTED_EDGE ( 'NONE', *, *, #316, .T. ) ;
#109 = APPROVAL_DATE_TIME ( #381, #59 ) ;
#110 = DIRECTION ( 'NONE',  ( 1.000000000000000000, 0.000000000000000000, 0.000000000000000000 ) ) ;
#111 = VERTEX_POINT ( 'NONE', #190 ) ;
#112 = PERSON_AND_ORGANIZATION ( #206, #253 ) ;
#113 = AXIS2_PLACEMENT_3D ( 'NONE', #328, #31, #110 ) ;
#114 = CIRCLE ( 'NONE', #89, 6.000000000000000888 ) ;
#115 = MANIFOLD_SOLID_BREP ( 'Odebrat vysunutím3', #341 ) ;
#116 = ORIENTED_EDGE ( 'NONE', *, *, #231, .T. ) ;
#117 = ADVANCED_BREP_SHAPE_REPRESENTATION ( '9e3f', ( #115, #29 ), #293 ) ;
#118 = CC_DESIGN_PERSON_AND_ORGANIZATION_ASSIGNMENT ( #211, #178, ( #85 ) ) ;
#119 = COORDINATED_UNIVERSAL_TIME_OFFSET ( 1, 0, .AHEAD. ) ;
#120 = VECTOR ( 'NONE', #291, 1000.000000000000000 ) ;
#121 = ORIENTED_EDGE ( 'NONE', *, *, #201, .F. ) ;
#122 = FACE_OUTER_BOUND ( 'NONE', #277, .T. ) ;
#123 = ORIENTED_EDGE ( 'NONE', *, *, #288, .F. ) ;
#124 = APPLICATION_CONTEXT ( 'configuration controlled 3d designs of mechanical parts and assemblies' ) ;
#125 = AXIS2_PLACEMENT_3D ( 'NONE', #294, #21, #100 ) ;
#126 = ORIENTED_EDGE ( 'NONE', *, *, #258, .T. ) ;
#127 = CARTESIAN_POINT ( 'NONE',  ( -3.000000000000000444, 0.000000000000000000, 707.0000000000000000 ) ) ;
#128 = FACE_OUTER_BOUND ( 'NONE', #98, .T. ) ;
#129 = CARTESIAN_POINT ( 'NONE',  ( 0.000000000000000000, 0.000000000000000000, 707.0000000000000000 ) ) ;
#130 = ADVANCED_FACE ( 'NONE', ( #122 ), #41, .T. ) ;
#131 = AXIS2_PLACEMENT_3D ( 'NONE', #356, #380, #47 ) ;
#132 = LOCAL_TIME ( 16, 52, 18.00000000000000000, #57 ) ;
#133 = FACE_BOUND ( 'NONE', #376, .T. ) ;
#134 = CARTESIAN_POINT ( 'NONE',  ( 10.00000000000000000, 1.224646799147353256E-15, 7.000000000000000000 ) ) ;
#135 = CARTESIAN_POINT ( 'NONE',  ( 6.000000000000000888, 7.347880794884120722E-16, 7.499999999999951150 ) ) ;
#136 = EDGE_CURVE ( 'NONE', #111, #281, #13, .T. ) ;
#137 = EDGE_CURVE ( 'NONE', #180, #38, #363, .T. ) ;
#138 = DIRECTION ( 'NONE',  ( 0.000000000000000000, 0.000000000000000000, 1.000000000000000000 ) ) ;
#139 = ORIENTED_EDGE ( 'NONE', *, *, #192, .T. ) ;
#140 = DIRECTION ( 'NONE',  ( 0.000000000000000000, 0.000000000000000000, -1.000000000000000000 ) ) ;
#141 = DIRECTION ( 'NONE',  ( 1.000000000000000000, 0.000000000000000000, 0.000000000000000000 ) ) ;
#142 = APPROVAL_PERSON_ORGANIZATION ( #112, #219, #150 ) ;
#143 = CC_DESIGN_PERSON_AND_ORGANIZATION_ASSIGNMENT ( #30, #216, ( #333 ) ) ;
#144 = DATE_AND_TIME ( #355, #268 ) ;
#145 = ORIENTED_EDGE ( 'NONE', *, *, #208, .T. ) ;
#146 = PERSON_AND_ORGANIZATION ( #206, #253 ) ;
#147 = ADVANCED_FACE ( 'NONE', ( #345 ), #103, .F. ) ;
#148 = DIRECTION ( 'NONE',  ( -0.000000000000000000, -0.000000000000000000, -1.000000000000000000 ) ) ;
#149 = AXIS2_PLACEMENT_3D ( 'NONE', #129, #48, #46 ) ;
#150 = APPROVAL_ROLE ( '' ) ;
#151 = ADVANCED_FACE ( 'NONE', ( #322, #18 ), #238, .F. ) ;
#152 = EDGE_CURVE ( 'NONE', #166, #281, #193, .T. ) ;
#153 = COORDINATED_UNIVERSAL_TIME_OFFSET ( 1, 0, .AHEAD. ) ;
#154 = SHAPE_DEFINITION_REPRESENTATION ( #286, #117 ) ;
#155 = AXIS2_PLACEMENT_3D ( 'NONE', #82, #138, #235 ) ;
#156 = ORIENTED_EDGE ( 'NONE', *, *, #329, .T. ) ;
#157 = ORIENTED_EDGE ( 'NONE', *, *, #80, .T. ) ;
#158 = DIRECTION ( 'NONE',  ( -0.000000000000000000, -0.000000000000000000, -1.000000000000000000 ) ) ;
#159 = ORIENTED_EDGE ( 'NONE', *, *, #65, .T. ) ;
#160 = DIRECTION ( 'NONE',  ( -1.000000000000000000, 0.000000000000000000, 0.000000000000000000 ) ) ;
#161 = AXIS2_PLACEMENT_3D ( 'NONE', #96, #272, #377 ) ;
#162 = EDGE_CURVE ( 'NONE', #289, #38, #187, .T. ) ;
#163 = PLANE ( 'NONE',  #212 ) ;
#164 = DIRECTION ( 'NONE',  ( -0.000000000000000000, -0.000000000000000000, -1.000000000000000000 ) ) ;
#165 = CARTESIAN_POINT ( 'NONE',  ( -6.000000000000000888, 0.000000000000000000, 707.0000000000000000 ) ) ;
#166 = VERTEX_POINT ( 'NONE', #271 ) ;
#167 = ADVANCED_FACE ( 'NONE', ( #242 ), #202, .T. ) ;
#168 = CIRCLE ( 'NONE', #224, 10.00000000000000000 ) ;
#169 = ADVANCED_FACE ( 'NONE', ( #273 ), #378, .T. ) ;
#170 = AXIS2_PLACEMENT_3D ( 'NONE', #241, #321, #49 ) ;
#171 = FACE_BOUND ( 'NONE', #107, .T. ) ;
#172 = CARTESIAN_POINT ( 'NONE',  ( 0.000000000000000000, 0.000000000000000000, 0.000000000000000000 ) ) ;
#173 = CARTESIAN_POINT ( 'NONE',  ( -6.500000000000000888, 7.960204194457796463E-16, 7.499999999999951150 ) ) ;
#174 = FACE_OUTER_BOUND ( 'NONE', #10, .T. ) ;
#175 = APPLICATION_PROTOCOL_DEFINITION ( 'international standard', 'config_control_design', 1994, #7 ) ;
#176 = VECTOR ( 'NONE', #148, 1000.000000000000000 ) ;
#177 = LOCAL_TIME ( 16, 52, 18.00000000000000000, #278 ) ;
#178 = PERSON_AND_ORGANIZATION_ROLE ( 'creator' ) ;
#179 = EDGE_CURVE ( 'NONE', #236, #180, #39, .T. ) ;
#180 = VERTEX_POINT ( 'NONE', #2 ) ;
#181 = MECHANICAL_CONTEXT ( 'NONE', #124, 'mechanical' ) ;
#182 = PERSON_AND_ORGANIZATION ( #206, #253 ) ;
#183 = AXIS2_PLACEMENT_3D ( 'NONE', #173, #35, #55 ) ;
#184 = AXIS2_PLACEMENT_3D ( 'NONE', #99, #295, #51 ) ;
#185 = ORIENTED_EDGE ( 'NONE', *, *, #179, .T. ) ;
#186 = DIRECTION ( 'NONE',  ( 1.000000000000000000, 0.000000000000000000, 0.000000000000000000 ) ) ;
#187 = CIRCLE ( 'NONE', #305, 0.5000000000000004441 ) ;
#188 = CARTESIAN_POINT ( 'NONE',  ( 0.000000000000000000, 0.000000000000000000, 7.499999999999951150 ) ) ;
#189 = LOCAL_TIME ( 16, 52, 18.00000000000000000, #119 ) ;
#190 = CARTESIAN_POINT ( 'NONE',  ( -3.000000000000000444, 0.000000000000000000, 707.0000000000000000 ) ) ;
#191 = ORIENTED_EDGE ( 'NONE', *, *, #247, .T. ) ;
#192 = EDGE_CURVE ( 'NONE', #38, #180, #62, .T. ) ;
#193 = CIRCLE ( 'NONE', #28, 3.000000000000000444 ) ;
#194 = VECTOR ( 'NONE', #200, 1000.000000000000000 ) ;
#195 = LINE ( 'NONE', #244, #120 ) ;
#196 = CARTESIAN_POINT ( 'NONE',  ( 0.000000000000000000, 0.000000000000000000, 7.499999999999951150 ) ) ;
#197 = CYLINDRICAL_SURFACE ( 'NONE', #170, 3.000000000000000444 ) ;
#198 = ORIENTED_EDGE ( 'NONE', *, *, #347, .F. ) ;
#199 = CARTESIAN_POINT ( 'NONE',  ( -10.00000000000000000, 0.000000000000000000, 7.000000000000000000 ) ) ;
#200 = DIRECTION ( 'NONE',  ( -0.000000000000000000, -0.000000000000000000, -1.000000000000000000 ) ) ;
#201 = EDGE_CURVE ( 'NONE', #230, #236, #290, .T. ) ;
#202 = CYLINDRICAL_SURFACE ( 'NONE', #54, 10.00000000000000000 ) ;
#203 = DESIGN_CONTEXT ( 'detailed design', #7, 'design' ) ;
#204 = CARTESIAN_POINT ( 'NONE',  ( 0.000000000000000000, 0.000000000000000000, 7.499999999999951150 ) ) ;
#205 = DIRECTION ( 'NONE',  ( -0.000000000000000000, -0.000000000000000000, -1.000000000000000000 ) ) ;
#206 = PERSON ( 'NEURÈENÝ', 'NEURÈENÝ', 'NEURÈENÝ', ('NEURÈENÝ'), ('NEURÈENÝ'), ('NEURÈENÝ') ) ;
#207 =( LENGTH_UNIT ( ) NAMED_UNIT ( * ) SI_UNIT ( .MILLI., .METRE. ) );
#208 = EDGE_CURVE ( 'NONE', #42, #40, #168, .T. ) ;
#209 = ORIENTED_EDGE ( 'NONE', *, *, #288, .T. ) ;
#210 = ORIENTED_EDGE ( 'NONE', *, *, #192, .F. ) ;
#211 = PERSON_AND_ORGANIZATION ( #206, #253 ) ;
#212 = AXIS2_PLACEMENT_3D ( 'NONE', #22, #297, #269 ) ;
#213 = APPROVAL ( #87, 'NEURÈENÝ' ) ;
#214 = EDGE_LOOP ( 'NONE', ( #94, #159, #67, #240 ) ) ;
#215 = DIRECTION ( 'NONE',  ( 1.000000000000000000, 0.000000000000000000, 0.000000000000000000 ) ) ;
#216 = PERSON_AND_ORGANIZATION_ROLE ( 'creator' ) ;
#217 = TOROIDAL_SURFACE ( 'NONE', #261, 6.500000000000000888, 0.5000000000000000000 ) ;
#218 = APPROVAL_PERSON_ORGANIZATION ( #146, #213, #332 ) ;
#219 = APPROVAL ( #301, 'NEURÈENÝ' ) ;
#220 = ADVANCED_FACE ( 'NONE', ( #128 ), #232, .T. ) ;
#221 = ADVANCED_FACE ( 'NONE', ( #171, #174 ), #319, .T. ) ;
#222 = APPROVAL_DATE_TIME ( #259, #213 ) ;
#223 = EDGE_LOOP ( 'NONE', ( #78, #198 ) ) ;
#224 = AXIS2_PLACEMENT_3D ( 'NONE', #16, #340, #93 ) ;
#225 = SECURITY_CLASSIFICATION ( '', '', #302 ) ;
#226 = ORIENTED_EDGE ( 'NONE', *, *, #258, .F. ) ;
#227 = DIRECTION ( 'NONE',  ( 1.000000000000000000, 0.000000000000000000, 0.000000000000000000 ) ) ;
#228 = ADVANCED_FACE ( 'NONE', ( #298 ), #366, .F. ) ;
#229 = CARTESIAN_POINT ( 'NONE',  ( 0.000000000000000000, 0.000000000000000000, 7.000000000000000000 ) ) ;
#230 = VERTEX_POINT ( 'NONE', #165 ) ;
#231 = EDGE_CURVE ( 'NONE', #281, #166, #342, .T. ) ;
#232 = CYLINDRICAL_SURFACE ( 'NONE', #149, 6.000000000000000888 ) ;
#233 = DIRECTION ( 'NONE',  ( -0.000000000000000000, -0.000000000000000000, -1.000000000000000000 ) ) ;
#234 = DIRECTION ( 'NONE',  ( 0.000000000000000000, 0.000000000000000000, 1.000000000000000000 ) ) ;
#235 = DIRECTION ( 'NONE',  ( 1.000000000000000000, 0.000000000000000000, -0.000000000000000000 ) ) ;
#236 = VERTEX_POINT ( 'NONE', #344 ) ;
#237 = DIRECTION ( 'NONE',  ( 1.000000000000000000, 0.000000000000000000, 0.000000000000000000 ) ) ;
#238 = PLANE ( 'NONE',  #155 ) ;
#239 = CC_DESIGN_PERSON_AND_ORGANIZATION_ASSIGNMENT ( #36, #327, ( #225 ) ) ;
#240 = ORIENTED_EDGE ( 'NONE', *, *, #136, .F. ) ;
#241 = CARTESIAN_POINT ( 'NONE',  ( 0.000000000000000000, 0.000000000000000000, 707.0000000000000000 ) ) ;
#242 = FACE_OUTER_BOUND ( 'NONE', #73, .T. ) ;
#243 = CARTESIAN_POINT ( 'NONE',  ( 3.000000000000000444, 3.673940397442059868E-16, 707.0000000000000000 ) ) ;
#244 = CARTESIAN_POINT ( 'NONE',  ( 6.000000000000000888, 7.347880794884120722E-16, 707.0000000000000000 ) ) ;
#245 = DIRECTION ( 'NONE',  ( 1.000000000000000000, 0.000000000000000000, 0.000000000000000000 ) ) ;
#246 = CARTESIAN_POINT ( 'NONE',  ( 3.000000000000000444, 3.673940397442059868E-16, 707.0000000000000000 ) ) ;
#247 = EDGE_CURVE ( 'NONE', #230, #372, #335, .T. ) ;
#248 = DIRECTION ( 'NONE',  ( -1.000000000000000000, 0.000000000000000000, 0.000000000000000000 ) ) ;
#249 = ORIENTED_EDGE ( 'NONE', *, *, #367, .F. ) ;
#250 = PERSON_AND_ORGANIZATION ( #206, #253 ) ;
#251 = ORIENTED_EDGE ( 'NONE', *, *, #348, .T. ) ;
#252 = DATE_TIME_ROLE ( 'creation_date' ) ;
#253 = ORGANIZATION ( 'NEURÈENÝ', 'NEURÈENÝ', '' ) ;
#254 = ORIENTED_EDGE ( 'NONE', *, *, #353, .T. ) ;
#255 = CALENDAR_DATE ( 2022, 8, 7 ) ;
#256 = APPROVAL_PERSON_ORGANIZATION ( #182, #59, #58 ) ;
#257 = ORIENTED_EDGE ( 'NONE', *, *, #162, .F. ) ;
#258 = EDGE_CURVE ( 'NONE', #287, #111, #63, .T. ) ;
#259 = DATE_AND_TIME ( #365, #12 ) ;
#260 = ORIENTED_EDGE ( 'NONE', *, *, #65, .F. ) ;
#261 = AXIS2_PLACEMENT_3D ( 'NONE', #188, #64, #227 ) ;
#262 = CIRCLE ( 'NONE', #60, 10.00000000000000000 ) ;
#263 = EDGE_LOOP ( 'NONE', ( #318, #185, #210, #257 ) ) ;
#264 = CARTESIAN_POINT ( 'NONE',  ( 0.000000000000000000, 0.000000000000000000, 7.000000000000000000 ) ) ;
#265 = DIRECTION ( 'NONE',  ( -0.000000000000000000, -0.000000000000000000, -1.000000000000000000 ) ) ;
#266 = DIRECTION ( 'NONE',  ( 0.000000000000000000, 0.000000000000000000, 1.000000000000000000 ) ) ;
#267 = CARTESIAN_POINT ( 'NONE',  ( 0.000000000000000000, 0.000000000000000000, 707.0000000000000000 ) ) ;
#268 = LOCAL_TIME ( 16, 52, 18.00000000000000000, #153 ) ;
#269 = DIRECTION ( 'NONE',  ( 1.000000000000000000, 0.000000000000000000, -0.000000000000000000 ) ) ;
#270 = FACE_OUTER_BOUND ( 'NONE', #214, .T. ) ;
#271 = CARTESIAN_POINT ( 'NONE',  ( 3.000000000000000444, 3.673940397442059868E-16, 0.000000000000000000 ) ) ;
#272 = DIRECTION ( 'NONE',  ( 0.000000000000000000, 0.000000000000000000, 1.000000000000000000 ) ) ;
#273 = FACE_OUTER_BOUND ( 'NONE', #92, .T. ) ;
#274 = VECTOR ( 'NONE', #140, 1000.000000000000000 ) ;
#275 = CARTESIAN_POINT ( 'NONE',  ( -10.00000000000000000, 0.000000000000000000, 0.000000000000000000 ) ) ;
#276 = DIRECTION ( 'NONE',  ( 0.000000000000000000, 0.000000000000000000, -1.000000000000000000 ) ) ;
#277 = EDGE_LOOP ( 'NONE', ( #296, #209, #70, #309 ) ) ;
#278 = COORDINATED_UNIVERSAL_TIME_OFFSET ( 1, 0, .AHEAD. ) ;
#279 = COORDINATED_UNIVERSAL_TIME_OFFSET ( 1, 0, .AHEAD. ) ;
#280 = CIRCLE ( 'NONE', #284, 6.000000000000000888 ) ;
#281 = VERTEX_POINT ( 'NONE', #19 ) ;
#282 =( NAMED_UNIT ( * ) SI_UNIT ( $, .STERADIAN. ) SOLID_ANGLE_UNIT ( ) );
#283 = VERTEX_POINT ( 'NONE', #72 ) ;
#284 = AXIS2_PLACEMENT_3D ( 'NONE', #105, #370, #215 ) ;
#285 = ADVANCED_FACE ( 'NONE', ( #133, #69 ), #163, .T. ) ;
#286 = PRODUCT_DEFINITION_SHAPE ( 'NONE', 'NONE',  #333 ) ;
#287 = VERTEX_POINT ( 'NONE', #246 ) ;
#288 = EDGE_CURVE ( 'NONE', #40, #283, #76, .T. ) ;
#289 = VERTEX_POINT ( 'NONE', #135 ) ;
#290 = LINE ( 'NONE', #313, #337 ) ;
#291 = DIRECTION ( 'NONE',  ( -0.000000000000000000, -0.000000000000000000, -1.000000000000000000 ) ) ;
#292 = DIRECTION ( 'NONE',  ( 1.000000000000000000, 0.000000000000000000, 0.000000000000000000 ) ) ;
#293 =( GEOMETRIC_REPRESENTATION_CONTEXT ( 3 ) GLOBAL_UNCERTAINTY_ASSIGNED_CONTEXT ( ( #11 ) ) GLOBAL_UNIT_ASSIGNED_CONTEXT ( ( #207, #86, #282 ) ) REPRESENTATION_CONTEXT ( 'NONE', 'WORKASPACE' ) );
#294 = CARTESIAN_POINT ( 'NONE',  ( 0.000000000000000000, 0.000000000000000000, 707.0000000000000000 ) ) ;
#295 = DIRECTION ( 'NONE',  ( 0.000000000000000000, 0.000000000000000000, 1.000000000000000000 ) ) ;
#296 = ORIENTED_EDGE ( 'NONE', *, *, #348, .F. ) ;
#297 = DIRECTION ( 'NONE',  ( 0.000000000000000000, 0.000000000000000000, 1.000000000000000000 ) ) ;
#298 = FACE_OUTER_BOUND ( 'NONE', #8, .T. ) ;
#299 = CARTESIAN_POINT ( 'NONE',  ( 6.500000000000000888, 0.000000000000000000, 7.499999999999951150 ) ) ;
#300 = AXIS2_PLACEMENT_3D ( 'NONE', #204, #234, #317 ) ;
#301 = APPROVAL_STATUS ( 'not_yet_approved' ) ;
#302 = SECURITY_CLASSIFICATION_LEVEL ( 'unclassified' ) ;
#303 = EDGE_LOOP ( 'NONE', ( #260, #126, #83, #116 ) ) ;
#304 = DATE_AND_TIME ( #6, #189 ) ;
#305 = AXIS2_PLACEMENT_3D ( 'NONE', #299, #25, #276 ) ;
#306 = CC_DESIGN_APPROVAL ( #213, ( #225 ) ) ;
#307 = EDGE_CURVE ( 'NONE', #289, #236, #114, .T. ) ;
#308 = CC_DESIGN_APPROVAL ( #59, ( #85 ) ) ;
#309 = ORIENTED_EDGE ( 'NONE', *, *, #80, .F. ) ;
#310 = CC_DESIGN_PERSON_AND_ORGANIZATION_ASSIGNMENT ( #250, #359, ( #85 ) ) ;
#311 = VECTOR ( 'NONE', #369, 1000.000000000000000 ) ;
#312 = AXIS2_PLACEMENT_3D ( 'NONE', #196, #97, #75 ) ;
#313 = CARTESIAN_POINT ( 'NONE',  ( -6.000000000000000888, 0.000000000000000000, 707.0000000000000000 ) ) ;
#314 = CARTESIAN_POINT ( 'NONE',  ( 0.000000000000000000, 0.000000000000000000, 7.000000000000000000 ) ) ;
#315 = ORIENTED_EDGE ( 'NONE', *, *, #152, .F. ) ;
#316 = EDGE_CURVE ( 'NONE', #236, #289, #338, .T. ) ;
#317 = DIRECTION ( 'NONE',  ( 1.000000000000000000, 0.000000000000000000, 0.000000000000000000 ) ) ;
#318 = ORIENTED_EDGE ( 'NONE', *, *, #316, .F. ) ;
#319 = PLANE ( 'NONE',  #320 ) ;
#320 = AXIS2_PLACEMENT_3D ( 'NONE', #314, #17, #349 ) ;
#321 = DIRECTION ( 'NONE',  ( 0.000000000000000000, 0.000000000000000000, -1.000000000000000000 ) ) ;
#322 = FACE_BOUND ( 'NONE', #358, .T. ) ;
#323 = DIRECTION ( 'NONE',  ( 0.000000000000000000, 0.000000000000000000, 1.000000000000000000 ) ) ;
#324 = DIRECTION ( 'NONE',  ( -0.000000000000000000, -0.000000000000000000, -1.000000000000000000 ) ) ;
#325 = CARTESIAN_POINT ( 'NONE',  ( 6.500000000000000888, 0.000000000000000000, 6.999999999999975131 ) ) ;
#326 = PERSON_AND_ORGANIZATION_ROLE ( 'design_owner' ) ;
#327 = PERSON_AND_ORGANIZATION_ROLE ( 'classification_officer' ) ;
#328 = CARTESIAN_POINT ( 'NONE',  ( 0.000000000000000000, 0.000000000000000000, 7.000000000000000000 ) ) ;
#329 = EDGE_CURVE ( 'NONE', #372, #289, #195, .T. ) ;
#330 = ADVANCED_FACE ( 'NONE', ( #270 ), #197, .F. ) ;
#331 = CARTESIAN_POINT ( 'NONE',  ( -10.00000000000000000, 0.000000000000000000, 7.000000000000000000 ) ) ;
#332 = APPROVAL_ROLE ( '' ) ;
#333 = PRODUCT_DEFINITION ( 'NEZNÁMÝ', '', #85, #203 ) ;
#334 = DIRECTION ( 'NONE',  ( 0.000000000000000000, 0.000000000000000000, 1.000000000000000000 ) ) ;
#335 = CIRCLE ( 'NONE', #184, 6.000000000000000888 ) ;
#336 = ORIENTED_EDGE ( 'NONE', *, *, #137, .F. ) ;
#337 = VECTOR ( 'NONE', #265, 1000.000000000000000 ) ;
#338 = CIRCLE ( 'NONE', #312, 6.000000000000000888 ) ;
#339 = DIRECTION ( 'NONE',  ( 1.000000000000000000, 0.000000000000000000, 0.000000000000000000 ) ) ;
#340 = DIRECTION ( 'NONE',  ( 0.000000000000000000, 0.000000000000000000, 1.000000000000000000 ) ) ;
#341 = CLOSED_SHELL ( 'NONE', ( #330, #91, #169, #130, #167, #221, #151, #220, #285, #228, #147 ) ) ;
#342 = CIRCLE ( 'NONE', #95, 3.000000000000000444 ) ;
#343 = ORIENTED_EDGE ( 'NONE', *, *, #201, .T. ) ;
#344 = CARTESIAN_POINT ( 'NONE',  ( -6.000000000000000888, 0.000000000000000000, 7.499999999999951150 ) ) ;
#345 = FACE_OUTER_BOUND ( 'NONE', #303, .T. ) ;
#346 = DIRECTION ( 'NONE',  ( 1.000000000000000000, 0.000000000000000000, 0.000000000000000000 ) ) ;
#347 = EDGE_CURVE ( 'NONE', #283, #357, #364, .T. ) ;
#348 = EDGE_CURVE ( 'NONE', #40, #42, #68, .T. ) ;
#349 = DIRECTION ( 'NONE',  ( 1.000000000000000000, 0.000000000000000000, -0.000000000000000000 ) ) ;
#350 = AXIS2_PLACEMENT_3D ( 'NONE', #267, #324, #248 ) ;
#351 = CC_DESIGN_DATE_AND_TIME_ASSIGNMENT ( #144, #252, ( #333 ) ) ;
#352 = CARTESIAN_POINT ( 'NONE',  ( 0.000000000000000000, 0.000000000000000000, 707.0000000000000000 ) ) ;
#353 = EDGE_CURVE ( 'NONE', #357, #283, #262, .T. ) ;
#354 = ORIENTED_EDGE ( 'NONE', *, *, #162, .T. ) ;
#355 = CALENDAR_DATE ( 2022, 8, 7 ) ;
#356 = CARTESIAN_POINT ( 'NONE',  ( 0.000000000000000000, 0.000000000000000000, 707.0000000000000000 ) ) ;
#357 = VERTEX_POINT ( 'NONE', #275 ) ;
#358 = EDGE_LOOP ( 'NONE', ( #374, #315 ) ) ;
#359 = PERSON_AND_ORGANIZATION_ROLE ( 'design_supplier' ) ;
#360 = APPROVAL_STATUS ( 'not_yet_approved' ) ;
#361 = PRODUCT_RELATED_PRODUCT_CATEGORY ( 'detail', '', ( #9 ) ) ;
#362 = DATE_AND_TIME ( #255, #132 ) ;
#363 = CIRCLE ( 'NONE', #77, 6.500000000000000888 ) ;
#364 = CIRCLE ( 'NONE', #56, 10.00000000000000000 ) ;
#365 = CALENDAR_DATE ( 2022, 8, 7 ) ;
#366 = TOROIDAL_SURFACE ( 'NONE', #300, 6.500000000000000888, 0.5000000000000000000 ) ;
#367 = EDGE_CURVE ( 'NONE', #372, #230, #280, .T. ) ;
#368 = ORIENTED_EDGE ( 'NONE', *, *, #329, .F. ) ;
#369 = DIRECTION ( 'NONE',  ( 0.000000000000000000, 0.000000000000000000, -1.000000000000000000 ) ) ;
#370 = DIRECTION ( 'NONE',  ( 0.000000000000000000, 0.000000000000000000, 1.000000000000000000 ) ) ;
#371 = CC_DESIGN_APPROVAL ( #219, ( #333 ) ) ;
#372 = VERTEX_POINT ( 'NONE', #61 ) ;
#373 = CARTESIAN_POINT ( 'NONE',  ( 10.00000000000000000, 1.224646799147353256E-15, 7.000000000000000000 ) ) ;
#374 = ORIENTED_EDGE ( 'NONE', *, *, #231, .F. ) ;
#375 = DIRECTION ( 'NONE',  ( -0.000000000000000000, -0.000000000000000000, -1.000000000000000000 ) ) ;
#376 = EDGE_LOOP ( 'NONE', ( #23, #226 ) ) ;
#377 = DIRECTION ( 'NONE',  ( 1.000000000000000000, 0.000000000000000000, 0.000000000000000000 ) ) ;
#378 = CYLINDRICAL_SURFACE ( 'NONE', #350, 6.000000000000000888 ) ;
#379 = CARTESIAN_POINT ( 'NONE',  ( 0.000000000000000000, 0.000000000000000000, 0.000000000000000000 ) ) ;
#380 = DIRECTION ( 'NONE',  ( 0.000000000000000000, 0.000000000000000000, -1.000000000000000000 ) ) ;
#381 = DATE_AND_TIME ( #3, #177 ) ;
ENDSEC;
END-ISO-10303-21;
