ISO-10303-21;
HEADER;
FILE_DESCRIPTION (( 'STEP AP203' ),
    '1' );
FILE_NAME ('5f26.STEP',
    '2022-07-08T15:36:20',
    ( '' ),
    ( '' ),
    'SwSTEP 2.0',
    'SolidWorks 2019',
    '' );
FILE_SCHEMA (( 'CONFIG_CONTROL_DESIGN' ));
ENDSEC;

DATA;
#1 = VERTEX_POINT ( 'NONE', #334 ) ;
#2 = CYLINDRICAL_SURFACE ( 'NONE', #167, 2.000000000000000000 ) ;
#3 = CC_DESIGN_APPROVAL ( #104, ( #10 ) ) ;
#4 = DIRECTION ( 'NONE',  ( 0.000000000000000000, 0.000000000000000000, 1.000000000000000000 ) ) ;
#5 = FACE_OUTER_BOUND ( 'NONE', #194, .T. ) ;
#6 = APPROVAL_DATE_TIME ( #215, #285 ) ;
#7 = DIRECTION ( 'NONE',  ( 1.000000000000000000, 0.000000000000000000, 0.000000000000000000 ) ) ;
#8 = DATE_AND_TIME ( #277, #234 ) ;
#9 = AXIS2_PLACEMENT_3D ( 'NONE', #244, #241, #42 ) ;
#10 = SECURITY_CLASSIFICATION ( '', '', #333 ) ;
#11 = ORIENTED_EDGE ( 'NONE', *, *, #123, .F. ) ;
#12 = EDGE_CURVE ( 'NONE', #213, #281, #326, .T. ) ;
#13 = PERSON_AND_ORGANIZATION ( #204, #160 ) ;
#14 = CARTESIAN_POINT ( 'NONE',  ( 0.000000000000000000, 0.000000000000000000, 5.000000000000000000 ) ) ;
#15 = PERSON_AND_ORGANIZATION ( #204, #160 ) ;
#16 = FACE_OUTER_BOUND ( 'NONE', #17, .T. ) ;
#17 = EDGE_LOOP ( 'NONE', ( #342, #163 ) ) ;
#18 =( GEOMETRIC_REPRESENTATION_CONTEXT ( 3 ) GLOBAL_UNCERTAINTY_ASSIGNED_CONTEXT ( ( #51 ) ) GLOBAL_UNIT_ASSIGNED_CONTEXT ( ( #166, #135, #294 ) ) REPRESENTATION_CONTEXT ( 'NONE', 'WORKASPACE' ) );
#19 = EDGE_CURVE ( 'NONE', #261, #224, #73, .T. ) ;
#20 = LINE ( 'NONE', #221, #314 ) ;
#21 = ADVANCED_BREP_SHAPE_REPRESENTATION ( '5f26', ( #360, #175 ), #18 ) ;
#22 = DIRECTION ( 'NONE',  ( 1.000000000000000000, 0.000000000000000000, 0.000000000000000000 ) ) ;
#23 = CARTESIAN_POINT ( 'NONE',  ( 0.000000000000000000, 0.000000000000000000, 0.000000000000000000 ) ) ;
#24 = CIRCLE ( 'NONE', #110, 2.000000000000000000 ) ;
#25 = ORIENTED_EDGE ( 'NONE', *, *, #103, .F. ) ;
#26 = CARTESIAN_POINT ( 'NONE',  ( 3.000000000000000444, 3.673940397442060361E-16, 155.0000000000000000 ) ) ;
#27 = LINE ( 'NONE', #199, #133 ) ;
#28 = ADVANCED_FACE ( 'NONE', ( #267 ), #79, .F. ) ;
#29 = EDGE_LOOP ( 'NONE', ( #219, #318 ) ) ;
#30 = AXIS2_PLACEMENT_3D ( 'NONE', #102, #338, #22 ) ;
#31 = ORIENTED_EDGE ( 'NONE', *, *, #12, .F. ) ;
#32 = CARTESIAN_POINT ( 'NONE',  ( 3.000000000000000444, 3.673940397442060361E-16, 5.500000000000005329 ) ) ;
#33 = VECTOR ( 'NONE', #321, 1000.000000000000000 ) ;
#34 = PERSON_AND_ORGANIZATION ( #204, #160 ) ;
#35 = VERTEX_POINT ( 'NONE', #299 ) ;
#36 = PERSON_AND_ORGANIZATION_ROLE ( 'creator' ) ;
#37 = DIRECTION ( 'NONE',  ( -1.000000000000000000, 1.224646799147354440E-16, 0.000000000000000000 ) ) ;
#38 = EDGE_CURVE ( 'NONE', #328, #1, #125, .T. ) ;
#39 = CIRCLE ( 'NONE', #227, 6.000000000000000888 ) ;
#40 = APPROVAL_PERSON_ORGANIZATION ( #148, #212, #144 ) ;
#41 = EDGE_LOOP ( 'NONE', ( #306, #319, #127, #58 ) ) ;
#42 = DIRECTION ( 'NONE',  ( -1.000000000000000000, 0.000000000000000000, 0.000000000000000000 ) ) ;
#43 = APPLICATION_PROTOCOL_DEFINITION ( 'international standard', 'config_control_design', 1994, #207 ) ;
#44 = EDGE_CURVE ( 'NONE', #213, #261, #214, .T. ) ;
#45 = CIRCLE ( 'NONE', #320, 2.000000000000000000 ) ;
#46 = PRODUCT_DEFINITION_FORMATION_WITH_SPECIFIED_SOURCE ( 'LIBOVOLNÝ', '', #346, .NOT_KNOWN. ) ;
#47 = CARTESIAN_POINT ( 'NONE',  ( 0.000000000000000000, 0.000000000000000000, 0.000000000000000000 ) ) ;
#48 = CYLINDRICAL_SURFACE ( 'NONE', #206, 3.000000000000000444 ) ;
#49 = AXIS2_PLACEMENT_3D ( 'NONE', #62, #172, #132 ) ;
#50 = ORIENTED_EDGE ( 'NONE', *, *, #123, .T. ) ;
#51 = UNCERTAINTY_MEASURE_WITH_UNIT (LENGTH_MEASURE( 1.000000000000000082E-05 ), #166, 'distance_accuracy_value', 'NONE');
#52 = DIRECTION ( 'NONE',  ( 0.000000000000000000, 0.000000000000000000, 1.000000000000000000 ) ) ;
#53 = ORIENTED_EDGE ( 'NONE', *, *, #137, .F. ) ;
#54 = DIRECTION ( 'NONE',  ( -0.000000000000000000, -0.000000000000000000, -1.000000000000000000 ) ) ;
#55 = ADVANCED_FACE ( 'NONE', ( #71 ), #331, .F. ) ;
#56 = EDGE_LOOP ( 'NONE', ( #149, #50, #136, #347 ) ) ;
#57 = CARTESIAN_POINT ( 'NONE',  ( 0.000000000000000000, 0.000000000000000000, 155.0000000000000000 ) ) ;
#58 = ORIENTED_EDGE ( 'NONE', *, *, #112, .F. ) ;
#59 = AXIS2_PLACEMENT_3D ( 'NONE', #258, #293, #139 ) ;
#60 = CARTESIAN_POINT ( 'NONE',  ( -3.500000000000000444, 4.286263797015737088E-16, 5.000000000000002665 ) ) ;
#61 = CYLINDRICAL_SURFACE ( 'NONE', #9, 6.000000000000000888 ) ;
#62 = CARTESIAN_POINT ( 'NONE',  ( 0.000000000000000000, 0.000000000000000000, 5.500000000000005329 ) ) ;
#63 = CARTESIAN_POINT ( 'NONE',  ( -6.000000000000000888, 0.000000000000000000, 5.000000000000000000 ) ) ;
#64 = SHAPE_DEFINITION_REPRESENTATION ( #82, #21 ) ;
#65 = COORDINATED_UNIVERSAL_TIME_OFFSET ( 1, 0, .AHEAD. ) ;
#66 = ORIENTED_EDGE ( 'NONE', *, *, #169, .F. ) ;
#67 = ADVANCED_FACE ( 'NONE', ( #114 ), #61, .T. ) ;
#68 = ORIENTED_EDGE ( 'NONE', *, *, #230, .F. ) ;
#69 = COORDINATED_UNIVERSAL_TIME_OFFSET ( 1, 0, .AHEAD. ) ;
#70 = CARTESIAN_POINT ( 'NONE',  ( 0.000000000000000000, 0.000000000000000000, 5.000000000000000000 ) ) ;
#71 = FACE_OUTER_BOUND ( 'NONE', #41, .T. ) ;
#72 = DIRECTION ( 'NONE',  ( 1.000000000000000000, 0.000000000000000000, 0.000000000000000000 ) ) ;
#73 = CIRCLE ( 'NONE', #264, 3.500000000000000444 ) ;
#74 = CARTESIAN_POINT ( 'NONE',  ( 0.000000000000000000, 0.000000000000000000, 5.000000000000000000 ) ) ;
#75 = CC_DESIGN_PERSON_AND_ORGANIZATION_ASSIGNMENT ( #150, #242, ( #346 ) ) ;
#76 = EDGE_LOOP ( 'NONE', ( #77, #248, #171, #198 ) ) ;
#77 = ORIENTED_EDGE ( 'NONE', *, *, #44, .F. ) ;
#78 = CARTESIAN_POINT ( 'NONE',  ( 0.000000000000000000, 0.000000000000000000, 155.0000000000000000 ) ) ;
#79 = TOROIDAL_SURFACE ( 'NONE', #295, 3.500000000000000444, 0.5000000000000000000 ) ;
#80 = ADVANCED_FACE ( 'NONE', ( #361, #329 ), #178, .F. ) ;
#81 = CARTESIAN_POINT ( 'NONE',  ( -6.000000000000000888, 0.000000000000000000, 5.000000000000000000 ) ) ;
#82 = PRODUCT_DEFINITION_SHAPE ( 'NONE', 'NONE',  #239 ) ;
#83 = EDGE_LOOP ( 'NONE', ( #191, #256, #289, #183 ) ) ;
#84 = PLANE ( 'NONE',  #257 ) ;
#85 = ORIENTED_EDGE ( 'NONE', *, *, #169, .T. ) ;
#86 = DIRECTION ( 'NONE',  ( -1.000000000000000000, 0.000000000000000000, 0.000000000000000000 ) ) ;
#87 = AXIS2_PLACEMENT_3D ( 'NONE', #345, #54, #86 ) ;
#88 = DIRECTION ( 'NONE',  ( 1.000000000000000000, 0.000000000000000000, -0.000000000000000000 ) ) ;
#89 = DIRECTION ( 'NONE',  ( 0.000000000000000000, 0.000000000000000000, 1.000000000000000000 ) ) ;
#90 = PERSON_AND_ORGANIZATION_ROLE ( 'classification_officer' ) ;
#91 = CIRCLE ( 'NONE', #174, 3.500000000000000444 ) ;
#92 = ADVANCED_FACE ( 'NONE', ( #275, #16 ), #367, .T. ) ;
#93 = CALENDAR_DATE ( 2022, 8, 7 ) ;
#94 = DIRECTION ( 'NONE',  ( 1.000000000000000000, 0.000000000000000000, 0.000000000000000000 ) ) ;
#95 = DIRECTION ( 'NONE',  ( 0.000000000000000000, 0.000000000000000000, 1.000000000000000000 ) ) ;
#96 = AXIS2_PLACEMENT_3D ( 'NONE', #117, #153, #37 ) ;
#97 = CARTESIAN_POINT ( 'NONE',  ( 0.000000000000000000, 0.000000000000000000, 155.0000000000000000 ) ) ;
#98 = DIRECTION ( 'NONE',  ( -0.000000000000000000, -0.000000000000000000, -1.000000000000000000 ) ) ;
#99 = EDGE_CURVE ( 'NONE', #281, #213, #343, .T. ) ;
#100 = DIRECTION ( 'NONE',  ( -0.000000000000000000, -0.000000000000000000, -1.000000000000000000 ) ) ;
#101 = CIRCLE ( 'NONE', #290, 6.000000000000000888 ) ;
#102 = CARTESIAN_POINT ( 'NONE',  ( 0.000000000000000000, 0.000000000000000000, 155.0000000000000000 ) ) ;
#103 = EDGE_CURVE ( 'NONE', #129, #134, #238, .T. ) ;
#104 = APPROVAL ( #236, 'NEURÈENÝ' ) ;
#105 = CARTESIAN_POINT ( 'NONE',  ( -2.000000000000000000, 0.000000000000000000, 155.0000000000000000 ) ) ;
#106 = EDGE_LOOP ( 'NONE', ( #291, #369, #120, #195 ) ) ;
#107 = CARTESIAN_POINT ( 'NONE',  ( 0.000000000000000000, 0.000000000000000000, 155.0000000000000000 ) ) ;
#108 = VERTEX_POINT ( 'NONE', #105 ) ;
#109 = DIRECTION ( 'NONE',  ( 0.000000000000000000, 0.000000000000000000, 1.000000000000000000 ) ) ;
#110 = AXIS2_PLACEMENT_3D ( 'NONE', #47, #126, #249 ) ;
#111 = CALENDAR_DATE ( 2022, 8, 7 ) ;
#112 = EDGE_CURVE ( 'NONE', #108, #322, #20, .T. ) ;
#113 = COORDINATED_UNIVERSAL_TIME_OFFSET ( 1, 0, .AHEAD. ) ;
#114 = FACE_OUTER_BOUND ( 'NONE', #83, .T. ) ;
#115 = AXIS2_PLACEMENT_3D ( 'NONE', #57, #170, #203 ) ;
#116 = DATE_TIME_ROLE ( 'classification_date' ) ;
#117 = CARTESIAN_POINT ( 'NONE',  ( -3.500000000000000444, 4.286263797015737088E-16, 5.500000000000005329 ) ) ;
#118 = CALENDAR_DATE ( 2022, 8, 7 ) ;
#119 = PRODUCT_RELATED_PRODUCT_CATEGORY ( 'detail', '', ( #346 ) ) ;
#120 = ORIENTED_EDGE ( 'NONE', *, *, #103, .T. ) ;
#121 = DIRECTION ( 'NONE',  ( -1.000000000000000000, 0.000000000000000000, 0.000000000000000000 ) ) ;
#122 = DIRECTION ( 'NONE',  ( -0.000000000000000000, -0.000000000000000000, -1.000000000000000000 ) ) ;
#123 = EDGE_CURVE ( 'NONE', #35, #281, #307, .T. ) ;
#124 = LINE ( 'NONE', #189, #192 ) ;
#125 = CIRCLE ( 'NONE', #271, 6.000000000000000888 ) ;
#126 = DIRECTION ( 'NONE',  ( -0.000000000000000000, -0.000000000000000000, -1.000000000000000000 ) ) ;
#127 = ORIENTED_EDGE ( 'NONE', *, *, #184, .T. ) ;
#128 = CARTESIAN_POINT ( 'NONE',  ( 2.000000000000000000, 2.449293598294706414E-16, 155.0000000000000000 ) ) ;
#129 = VERTEX_POINT ( 'NONE', #309 ) ;
#130 = DIRECTION ( 'NONE',  ( 0.000000000000000000, 0.000000000000000000, 1.000000000000000000 ) ) ;
#131 = EDGE_LOOP ( 'NONE', ( #11, #209, #270, #283 ) ) ;
#132 = DIRECTION ( 'NONE',  ( 1.000000000000000000, 0.000000000000000000, 0.000000000000000000 ) ) ;
#133 = VECTOR ( 'NONE', #354, 1000.000000000000000 ) ;
#134 = VERTEX_POINT ( 'NONE', #225 ) ;
#135 =( NAMED_UNIT ( * ) PLANE_ANGLE_UNIT ( ) SI_UNIT ( $, .RADIAN. ) );
#136 = ORIENTED_EDGE ( 'NONE', *, *, #99, .T. ) ;
#137 = EDGE_CURVE ( 'NONE', #134, #129, #101, .T. ) ;
#138 = DIRECTION ( 'NONE',  ( -1.000000000000000000, 0.000000000000000000, 0.000000000000000000 ) ) ;
#139 = DIRECTION ( 'NONE',  ( 0.000000000000000000, 0.000000000000000000, -1.000000000000000000 ) ) ;
#140 = CIRCLE ( 'NONE', #30, 3.000000000000000444 ) ;
#141 = LOCAL_TIME ( 17, 36, 20.00000000000000000, #113 ) ;
#142 = LINE ( 'NONE', #63, #33 ) ;
#143 = EDGE_CURVE ( 'NONE', #224, #261, #91, .T. ) ;
#144 = APPROVAL_ROLE ( '' ) ;
#145 = APPROVAL_ROLE ( '' ) ;
#146 = DIRECTION ( 'NONE',  ( 1.000000000000000000, 0.000000000000000000, 0.000000000000000000 ) ) ;
#147 = CIRCLE ( 'NONE', #115, 3.000000000000000444 ) ;
#148 = PERSON_AND_ORGANIZATION ( #204, #160 ) ;
#149 = ORIENTED_EDGE ( 'NONE', *, *, #217, .F. ) ;
#150 = PERSON_AND_ORGANIZATION ( #204, #160 ) ;
#151 = DIRECTION ( 'NONE',  ( 0.000000000000000000, 0.000000000000000000, 1.000000000000000000 ) ) ;
#152 = CARTESIAN_POINT ( 'NONE',  ( 0.000000000000000000, 0.000000000000000000, 0.000000000000000000 ) ) ;
#153 = DIRECTION ( 'NONE',  ( 1.224646799147353207E-16, 1.000000000000000000, -0.000000000000000000 ) ) ;
#154 = AXIS2_PLACEMENT_3D ( 'NONE', #301, #151, #216 ) ;
#155 = DIRECTION ( 'NONE',  ( 0.000000000000000000, 0.000000000000000000, 1.000000000000000000 ) ) ;
#156 = ADVANCED_FACE ( 'NONE', ( #311 ), #48, .T. ) ;
#157 = DIRECTION ( 'NONE',  ( 0.000000000000000000, 0.000000000000000000, -1.000000000000000000 ) ) ;
#158 = DIRECTION ( 'NONE',  ( 0.000000000000000000, 0.000000000000000000, 1.000000000000000000 ) ) ;
#159 = DIRECTION ( 'NONE',  ( -1.000000000000000000, 0.000000000000000000, 0.000000000000000000 ) ) ;
#160 = ORGANIZATION ( 'NEURÈENÝ', 'NEURÈENÝ', '' ) ;
#161 = ORIENTED_EDGE ( 'NONE', *, *, #184, .F. ) ;
#162 = DIRECTION ( 'NONE',  ( 1.000000000000000000, 0.000000000000000000, 0.000000000000000000 ) ) ;
#163 = ORIENTED_EDGE ( 'NONE', *, *, #217, .T. ) ;
#164 = FACE_OUTER_BOUND ( 'NONE', #278, .T. ) ;
#165 = ORIENTED_EDGE ( 'NONE', *, *, #245, .F. ) ;
#166 =( LENGTH_UNIT ( ) NAMED_UNIT ( * ) SI_UNIT ( .MILLI., .METRE. ) );
#167 = AXIS2_PLACEMENT_3D ( 'NONE', #107, #350, #138 ) ;
#168 = TOROIDAL_SURFACE ( 'NONE', #49, 3.500000000000000444, 0.5000000000000000000 ) ;
#169 = EDGE_CURVE ( 'NONE', #322, #375, #250, .T. ) ;
#170 = DIRECTION ( 'NONE',  ( 0.000000000000000000, 0.000000000000000000, 1.000000000000000000 ) ) ;
#171 = ORIENTED_EDGE ( 'NONE', *, *, #370, .T. ) ;
#172 = DIRECTION ( 'NONE',  ( 0.000000000000000000, 0.000000000000000000, 1.000000000000000000 ) ) ;
#173 = ADVANCED_FACE ( 'NONE', ( #339 ), #372, .T. ) ;
#174 = AXIS2_PLACEMENT_3D ( 'NONE', #74, #122, #72 ) ;
#175 = AXIS2_PLACEMENT_3D ( 'NONE', #152, #235, #205 ) ;
#176 = DIRECTION ( 'NONE',  ( 1.000000000000000000, 0.000000000000000000, 0.000000000000000000 ) ) ;
#177 = PERSON_AND_ORGANIZATION ( #204, #160 ) ;
#178 = PLANE ( 'NONE',  #154 ) ;
#179 = AXIS2_PLACEMENT_3D ( 'NONE', #273, #95, #146 ) ;
#180 = PERSON_AND_ORGANIZATION ( #204, #160 ) ;
#181 = CARTESIAN_POINT ( 'NONE',  ( 0.000000000000000000, 0.000000000000000000, 155.0000000000000000 ) ) ;
#182 = COORDINATED_UNIVERSAL_TIME_OFFSET ( 1, 0, .AHEAD. ) ;
#183 = ORIENTED_EDGE ( 'NONE', *, *, #137, .T. ) ;
#184 = EDGE_CURVE ( 'NONE', #375, #322, #24, .T. ) ;
#185 = CARTESIAN_POINT ( 'NONE',  ( 0.000000000000000000, 0.000000000000000000, 5.000000000000000000 ) ) ;
#186 = AXIS2_PLACEMENT_3D ( 'NONE', #97, #52, #190 ) ;
#187 = CC_DESIGN_APPROVAL ( #212, ( #46 ) ) ;
#188 = CARTESIAN_POINT ( 'NONE',  ( 0.000000000000000000, 0.000000000000000000, 5.500000000000005329 ) ) ;
#189 = CARTESIAN_POINT ( 'NONE',  ( 2.000000000000000000, 2.449293598294706414E-16, 155.0000000000000000 ) ) ;
#190 = DIRECTION ( 'NONE',  ( 1.000000000000000000, 0.000000000000000000, -0.000000000000000000 ) ) ;
#191 = ORIENTED_EDGE ( 'NONE', *, *, #255, .F. ) ;
#192 = VECTOR ( 'NONE', #312, 1000.000000000000000 ) ;
#193 = DIRECTION ( 'NONE',  ( 0.000000000000000000, 0.000000000000000000, 1.000000000000000000 ) ) ;
#194 = EDGE_LOOP ( 'NONE', ( #31, #226, #253, #232 ) ) ;
#195 = ORIENTED_EDGE ( 'NONE', *, *, #280, .F. ) ;
#196 = DIRECTION ( 'NONE',  ( -0.000000000000000000, -0.000000000000000000, -1.000000000000000000 ) ) ;
#197 = CC_DESIGN_DATE_AND_TIME_ASSIGNMENT ( #274, #298, ( #239 ) ) ;
#198 = ORIENTED_EDGE ( 'NONE', *, *, #19, .F. ) ;
#199 = CARTESIAN_POINT ( 'NONE',  ( -3.000000000000000444, 0.000000000000000000, 155.0000000000000000 ) ) ;
#200 = AXIS2_PLACEMENT_3D ( 'NONE', #185, #98, #159 ) ;
#201 = CIRCLE ( 'NONE', #59, 0.5000000000000004441 ) ;
#202 = LINE ( 'NONE', #348, #246 ) ;
#203 = DIRECTION ( 'NONE',  ( 1.000000000000000000, 0.000000000000000000, 0.000000000000000000 ) ) ;
#204 = PERSON ( 'NEURÈENÝ', 'NEURÈENÝ', 'NEURÈENÝ', ('NEURÈENÝ'), ('NEURÈENÝ'), ('NEURÈENÝ') ) ;
#205 = DIRECTION ( 'NONE',  ( 1.000000000000000000, 0.000000000000000000, 0.000000000000000000 ) ) ;
#206 = AXIS2_PLACEMENT_3D ( 'NONE', #371, #100, #376 ) ;
#207 = APPLICATION_CONTEXT ( 'configuration controlled 3d designs of mechanical parts and assemblies' ) ;
#208 = CC_DESIGN_SECURITY_CLASSIFICATION ( #10, ( #46 ) ) ;
#209 = ORIENTED_EDGE ( 'NONE', *, *, #297, .F. ) ;
#210 = APPROVAL_STATUS ( 'not_yet_approved' ) ;
#211 = DIRECTION ( 'NONE',  ( 0.000000000000000000, 0.000000000000000000, -1.000000000000000000 ) ) ;
#212 = APPROVAL ( #300, 'NEURÈENÝ' ) ;
#213 = VERTEX_POINT ( 'NONE', #220 ) ;
#214 = CIRCLE ( 'NONE', #96, 0.4999999999999995559 ) ;
#215 = DATE_AND_TIME ( #363, #315 ) ;
#216 = DIRECTION ( 'NONE',  ( 1.000000000000000000, 0.000000000000000000, -0.000000000000000000 ) ) ;
#217 = EDGE_CURVE ( 'NONE', #35, #377, #140, .T. ) ;
#218 = DIRECTION ( 'NONE',  ( 0.000000000000000000, 0.000000000000000000, 1.000000000000000000 ) ) ;
#219 = ORIENTED_EDGE ( 'NONE', *, *, #38, .T. ) ;
#220 = CARTESIAN_POINT ( 'NONE',  ( -3.000000000000000444, 0.000000000000000000, 5.500000000000005329 ) ) ;
#221 = CARTESIAN_POINT ( 'NONE',  ( -2.000000000000000000, 0.000000000000000000, 155.0000000000000000 ) ) ;
#222 = ORIENTED_EDGE ( 'NONE', *, *, #245, .T. ) ;
#223 = CARTESIAN_POINT ( 'NONE',  ( 3.500000000000000444, 0.000000000000000000, 5.000000000000002665 ) ) ;
#224 = VERTEX_POINT ( 'NONE', #223 ) ;
#225 = CARTESIAN_POINT ( 'NONE',  ( -6.000000000000000888, 0.000000000000000000, 0.000000000000000000 ) ) ;
#226 = ORIENTED_EDGE ( 'NONE', *, *, #44, .T. ) ;
#227 = AXIS2_PLACEMENT_3D ( 'NONE', #262, #109, #260 ) ;
#228 = CARTESIAN_POINT ( 'NONE',  ( 2.000000000000000000, 2.449293598294706414E-16, 0.000000000000000000 ) ) ;
#229 = ORIENTED_EDGE ( 'NONE', *, *, #112, .T. ) ;
#230 = EDGE_CURVE ( 'NONE', #233, #375, #124, .T. ) ;
#231 = CARTESIAN_POINT ( 'NONE',  ( 0.000000000000000000, 0.000000000000000000, 155.0000000000000000 ) ) ;
#232 = ORIENTED_EDGE ( 'NONE', *, *, #370, .F. ) ;
#233 = VERTEX_POINT ( 'NONE', #128 ) ;
#234 = LOCAL_TIME ( 17, 36, 20.00000000000000000, #69 ) ;
#235 = DIRECTION ( 'NONE',  ( 0.000000000000000000, 0.000000000000000000, 1.000000000000000000 ) ) ;
#236 = APPROVAL_STATUS ( 'not_yet_approved' ) ;
#237 = CARTESIAN_POINT ( 'NONE',  ( 0.000000000000000000, 0.000000000000000000, 5.500000000000005329 ) ) ;
#238 = CIRCLE ( 'NONE', #378, 6.000000000000000888 ) ;
#239 = PRODUCT_DEFINITION ( 'NEZNÁMÝ', '', #46, #252 ) ;
#240 = PERSON_AND_ORGANIZATION ( #204, #160 ) ;
#241 = DIRECTION ( 'NONE',  ( -0.000000000000000000, -0.000000000000000000, -1.000000000000000000 ) ) ;
#242 = PERSON_AND_ORGANIZATION_ROLE ( 'design_owner' ) ;
#243 = COORDINATED_UNIVERSAL_TIME_OFFSET ( 1, 0, .AHEAD. ) ;
#244 = CARTESIAN_POINT ( 'NONE',  ( 0.000000000000000000, 0.000000000000000000, 5.000000000000000000 ) ) ;
#245 = EDGE_CURVE ( 'NONE', #233, #108, #45, .T. ) ;
#246 = VECTOR ( 'NONE', #196, 1000.000000000000000 ) ;
#247 = LOCAL_TIME ( 17, 36, 20.00000000000000000, #243 ) ;
#248 = ORIENTED_EDGE ( 'NONE', *, *, #99, .F. ) ;
#249 = DIRECTION ( 'NONE',  ( 1.000000000000000000, 0.000000000000000000, 0.000000000000000000 ) ) ;
#250 = CIRCLE ( 'NONE', #302, 2.000000000000000000 ) ;
#251 = ORIENTED_EDGE ( 'NONE', *, *, #143, .T. ) ;
#252 = DESIGN_CONTEXT ( 'detailed design', #207, 'design' ) ;
#253 = ORIENTED_EDGE ( 'NONE', *, *, #143, .F. ) ;
#254 = CARTESIAN_POINT ( 'NONE',  ( 0.000000000000000000, 0.000000000000000000, 0.000000000000000000 ) ) ;
#255 = EDGE_CURVE ( 'NONE', #1, #129, #202, .T. ) ;
#256 = ORIENTED_EDGE ( 'NONE', *, *, #38, .F. ) ;
#257 = AXIS2_PLACEMENT_3D ( 'NONE', #323, #89, #88 ) ;
#258 = CARTESIAN_POINT ( 'NONE',  ( 3.500000000000000444, 0.000000000000000000, 5.500000000000005329 ) ) ;
#259 = ORIENTED_EDGE ( 'NONE', *, *, #19, .T. ) ;
#260 = DIRECTION ( 'NONE',  ( 1.000000000000000000, 0.000000000000000000, 0.000000000000000000 ) ) ;
#261 = VERTEX_POINT ( 'NONE', #60 ) ;
#262 = CARTESIAN_POINT ( 'NONE',  ( 0.000000000000000000, 0.000000000000000000, 5.000000000000000000 ) ) ;
#263 = CARTESIAN_POINT ( 'NONE',  ( -3.000000000000000444, 0.000000000000000000, 155.0000000000000000 ) ) ;
#264 = AXIS2_PLACEMENT_3D ( 'NONE', #14, #364, #176 ) ;
#265 = AXIS2_PLACEMENT_3D ( 'NONE', #231, #4, #379 ) ;
#266 = CYLINDRICAL_SURFACE ( 'NONE', #87, 3.000000000000000444 ) ;
#267 = FACE_OUTER_BOUND ( 'NONE', #76, .T. ) ;
#268 = CC_DESIGN_PERSON_AND_ORGANIZATION_ASSIGNMENT ( #177, #36, ( #239 ) ) ;
#269 = PERSON_AND_ORGANIZATION_ROLE ( 'design_supplier' ) ;
#270 = ORIENTED_EDGE ( 'NONE', *, *, #351, .T. ) ;
#271 = AXIS2_PLACEMENT_3D ( 'NONE', #70, #359, #94 ) ;
#272 = DATE_AND_TIME ( #118, #141 ) ;
#273 = CARTESIAN_POINT ( 'NONE',  ( 0.000000000000000000, 0.000000000000000000, 5.500000000000005329 ) ) ;
#274 = DATE_AND_TIME ( #93, #332 ) ;
#275 = FACE_BOUND ( 'NONE', #304, .T. ) ;
#276 = CC_DESIGN_PERSON_AND_ORGANIZATION_ASSIGNMENT ( #240, #90, ( #10 ) ) ;
#277 = CALENDAR_DATE ( 2022, 8, 7 ) ;
#278 = EDGE_LOOP ( 'NONE', ( #68, #222, #229, #85 ) ) ;
#279 = CARTESIAN_POINT ( 'NONE',  ( 0.000000000000000000, 0.000000000000000000, 0.000000000000000000 ) ) ;
#280 = EDGE_CURVE ( 'NONE', #328, #134, #142, .T. ) ;
#281 = VERTEX_POINT ( 'NONE', #32 ) ;
#282 = CLOSED_SHELL ( 'NONE', ( #55, #355, #337, #173, #67, #324, #80, #156, #92, #28, #310 ) ) ;
#283 = ORIENTED_EDGE ( 'NONE', *, *, #12, .T. ) ;
#284 = DIRECTION ( 'NONE',  ( -0.000000000000000000, -0.000000000000000000, -1.000000000000000000 ) ) ;
#285 = APPROVAL ( #210, 'NEURÈENÝ' ) ;
#286 = CC_DESIGN_PERSON_AND_ORGANIZATION_ASSIGNMENT ( #15, #269, ( #46 ) ) ;
#287 = EDGE_LOOP ( 'NONE', ( #66, #161 ) ) ;
#288 = FACE_OUTER_BOUND ( 'NONE', #29, .T. ) ;
#289 = ORIENTED_EDGE ( 'NONE', *, *, #280, .T. ) ;
#290 = AXIS2_PLACEMENT_3D ( 'NONE', #279, #158, #335 ) ;
#291 = ORIENTED_EDGE ( 'NONE', *, *, #316, .F. ) ;
#292 = DIRECTION ( 'NONE',  ( 1.000000000000000000, 0.000000000000000000, 0.000000000000000000 ) ) ;
#293 = DIRECTION ( 'NONE',  ( 0.000000000000000000, -1.000000000000000000, 0.000000000000000000 ) ) ;
#294 =( NAMED_UNIT ( * ) SI_UNIT ( $, .STERADIAN. ) SOLID_ANGLE_UNIT ( ) );
#295 = AXIS2_PLACEMENT_3D ( 'NONE', #237, #218, #7 ) ;
#296 = CIRCLE ( 'NONE', #265, 2.000000000000000000 ) ;
#297 = EDGE_CURVE ( 'NONE', #377, #35, #147, .T. ) ;
#298 = DATE_TIME_ROLE ( 'creation_date' ) ;
#299 = CARTESIAN_POINT ( 'NONE',  ( 3.000000000000000444, 3.673940397442060361E-16, 155.0000000000000000 ) ) ;
#300 = APPROVAL_STATUS ( 'not_yet_approved' ) ;
#301 = CARTESIAN_POINT ( 'NONE',  ( 0.000000000000000000, 0.000000000000000000, 0.000000000000000000 ) ) ;
#302 = AXIS2_PLACEMENT_3D ( 'NONE', #23, #374, #341 ) ;
#303 = APPROVAL_PERSON_ORGANIZATION ( #34, #285, #145 ) ;
#304 = EDGE_LOOP ( 'NONE', ( #313, #165 ) ) ;
#305 = APPROVAL_DATE_TIME ( #272, #212 ) ;
#306 = ORIENTED_EDGE ( 'NONE', *, *, #380, .T. ) ;
#307 = LINE ( 'NONE', #26, #373 ) ;
#308 = APPROVAL_PERSON_ORGANIZATION ( #180, #104, #357 ) ;
#309 = CARTESIAN_POINT ( 'NONE',  ( 6.000000000000000888, 7.347880794884120722E-16, 0.000000000000000000 ) ) ;
#310 = ADVANCED_FACE ( 'NONE', ( #164 ), #2, .F. ) ;
#311 = FACE_OUTER_BOUND ( 'NONE', #131, .T. ) ;
#312 = DIRECTION ( 'NONE',  ( 0.000000000000000000, 0.000000000000000000, -1.000000000000000000 ) ) ;
#313 = ORIENTED_EDGE ( 'NONE', *, *, #380, .F. ) ;
#314 = VECTOR ( 'NONE', #157, 1000.000000000000000 ) ;
#315 = LOCAL_TIME ( 17, 36, 20.00000000000000000, #65 ) ;
#316 = EDGE_CURVE ( 'NONE', #1, #328, #39, .T. ) ;
#317 = FACE_OUTER_BOUND ( 'NONE', #56, .T. ) ;
#318 = ORIENTED_EDGE ( 'NONE', *, *, #316, .T. ) ;
#319 = ORIENTED_EDGE ( 'NONE', *, *, #230, .T. ) ;
#320 = AXIS2_PLACEMENT_3D ( 'NONE', #78, #193, #292 ) ;
#321 = DIRECTION ( 'NONE',  ( -0.000000000000000000, -0.000000000000000000, -1.000000000000000000 ) ) ;
#322 = VERTEX_POINT ( 'NONE', #381 ) ;
#323 = CARTESIAN_POINT ( 'NONE',  ( 0.000000000000000000, 0.000000000000000000, 5.000000000000000000 ) ) ;
#324 = ADVANCED_FACE ( 'NONE', ( #353, #288 ), #84, .T. ) ;
#325 = DATE_AND_TIME ( #111, #247 ) ;
#326 = CIRCLE ( 'NONE', #179, 3.000000000000000444 ) ;
#327 = APPLICATION_PROTOCOL_DEFINITION ( 'international standard', 'config_control_design', 1994, #365 ) ;
#328 = VERTEX_POINT ( 'NONE', #81 ) ;
#329 = FACE_OUTER_BOUND ( 'NONE', #349, .T. ) ;
#330 = PERSON_AND_ORGANIZATION_ROLE ( 'creator' ) ;
#331 = CYLINDRICAL_SURFACE ( 'NONE', #368, 2.000000000000000000 ) ;
#332 = LOCAL_TIME ( 17, 36, 20.00000000000000000, #182 ) ;
#333 = SECURITY_CLASSIFICATION_LEVEL ( 'unclassified' ) ;
#334 = CARTESIAN_POINT ( 'NONE',  ( 6.000000000000000888, 7.347880794884120722E-16, 5.000000000000000000 ) ) ;
#335 = DIRECTION ( 'NONE',  ( 1.000000000000000000, 0.000000000000000000, 0.000000000000000000 ) ) ;
#336 = CC_DESIGN_DATE_AND_TIME_ASSIGNMENT ( #8, #116, ( #10 ) ) ;
#337 = ADVANCED_FACE ( 'NONE', ( #317 ), #266, .T. ) ;
#338 = DIRECTION ( 'NONE',  ( 0.000000000000000000, 0.000000000000000000, 1.000000000000000000 ) ) ;
#339 = FACE_OUTER_BOUND ( 'NONE', #106, .T. ) ;
#340 = DIRECTION ( 'NONE',  ( 1.000000000000000000, 0.000000000000000000, 0.000000000000000000 ) ) ;
#341 = DIRECTION ( 'NONE',  ( 1.000000000000000000, 0.000000000000000000, 0.000000000000000000 ) ) ;
#342 = ORIENTED_EDGE ( 'NONE', *, *, #297, .T. ) ;
#343 = CIRCLE ( 'NONE', #358, 3.000000000000000444 ) ;
#344 = CC_DESIGN_APPROVAL ( #285, ( #239 ) ) ;
#345 = CARTESIAN_POINT ( 'NONE',  ( 0.000000000000000000, 0.000000000000000000, 155.0000000000000000 ) ) ;
#346 = PRODUCT ( '5f26', '5f26', '', ( #356 ) ) ;
#347 = ORIENTED_EDGE ( 'NONE', *, *, #351, .F. ) ;
#348 = CARTESIAN_POINT ( 'NONE',  ( 6.000000000000000888, 7.347880794884120722E-16, 5.000000000000000000 ) ) ;
#349 = EDGE_LOOP ( 'NONE', ( #53, #25 ) ) ;
#350 = DIRECTION ( 'NONE',  ( 0.000000000000000000, 0.000000000000000000, -1.000000000000000000 ) ) ;
#351 = EDGE_CURVE ( 'NONE', #377, #213, #27, .T. ) ;
#352 = EDGE_LOOP ( 'NONE', ( #251, #259 ) ) ;
#353 = FACE_BOUND ( 'NONE', #352, .T. ) ;
#354 = DIRECTION ( 'NONE',  ( -0.000000000000000000, -0.000000000000000000, -1.000000000000000000 ) ) ;
#355 = ADVANCED_FACE ( 'NONE', ( #5 ), #168, .F. ) ;
#356 = MECHANICAL_CONTEXT ( 'NONE', #365, 'mechanical' ) ;
#357 = APPROVAL_ROLE ( '' ) ;
#358 = AXIS2_PLACEMENT_3D ( 'NONE', #188, #130, #162 ) ;
#359 = DIRECTION ( 'NONE',  ( 0.000000000000000000, 0.000000000000000000, 1.000000000000000000 ) ) ;
#360 = MANIFOLD_SOLID_BREP ( 'Odebrat vysunutím3', #282 ) ;
#361 = FACE_BOUND ( 'NONE', #287, .T. ) ;
#362 = CC_DESIGN_PERSON_AND_ORGANIZATION_ASSIGNMENT ( #13, #330, ( #46 ) ) ;
#363 = CALENDAR_DATE ( 2022, 8, 7 ) ;
#364 = DIRECTION ( 'NONE',  ( -0.000000000000000000, -0.000000000000000000, -1.000000000000000000 ) ) ;
#365 = APPLICATION_CONTEXT ( 'configuration controlled 3d designs of mechanical parts and assemblies' ) ;
#366 = APPROVAL_DATE_TIME ( #325, #104 ) ;
#367 = PLANE ( 'NONE',  #186 ) ;
#368 = AXIS2_PLACEMENT_3D ( 'NONE', #181, #211, #121 ) ;
#369 = ORIENTED_EDGE ( 'NONE', *, *, #255, .T. ) ;
#370 = EDGE_CURVE ( 'NONE', #281, #224, #201, .T. ) ;
#371 = CARTESIAN_POINT ( 'NONE',  ( 0.000000000000000000, 0.000000000000000000, 155.0000000000000000 ) ) ;
#372 = CYLINDRICAL_SURFACE ( 'NONE', #200, 6.000000000000000888 ) ;
#373 = VECTOR ( 'NONE', #284, 1000.000000000000000 ) ;
#374 = DIRECTION ( 'NONE',  ( -0.000000000000000000, -0.000000000000000000, -1.000000000000000000 ) ) ;
#375 = VERTEX_POINT ( 'NONE', #228 ) ;
#376 = DIRECTION ( 'NONE',  ( -1.000000000000000000, 0.000000000000000000, 0.000000000000000000 ) ) ;
#377 = VERTEX_POINT ( 'NONE', #263 ) ;
#378 = AXIS2_PLACEMENT_3D ( 'NONE', #254, #155, #340 ) ;
#379 = DIRECTION ( 'NONE',  ( 1.000000000000000000, 0.000000000000000000, 0.000000000000000000 ) ) ;
#380 = EDGE_CURVE ( 'NONE', #108, #233, #296, .T. ) ;
#381 = CARTESIAN_POINT ( 'NONE',  ( -2.000000000000000000, 0.000000000000000000, 0.000000000000000000 ) ) ;
ENDSEC;
END-ISO-10303-21;
