ISO-10303-21;
HEADER;
FILE_DESCRIPTION (( 'STEP AP203' ),
    '1' );
FILE_NAME ('386a.STEP',
    '2022-07-08T15:49:03',
    ( '' ),
    ( '' ),
    'SwSTEP 2.0',
    'SolidWorks 2019',
    '' );
FILE_SCHEMA (( 'CONFIG_CONTROL_DESIGN' ));
ENDSEC;

DATA;
#1 = FACE_OUTER_BOUND ( 'NONE', #104, .T. ) ;
#2 = EDGE_LOOP ( 'NONE', ( #74, #275, #57, #77 ) ) ;
#3 = PERSON_AND_ORGANIZATION_ROLE ( 'creator' ) ;
#4 = DIRECTION ( 'NONE',  ( -0.000000000000000000, -0.000000000000000000, -1.000000000000000000 ) ) ;
#5 = ORIENTED_EDGE ( 'NONE', *, *, #160, .F. ) ;
#6 = APPROVAL_DATE_TIME ( #42, #26 ) ;
#7 = CARTESIAN_POINT ( 'NONE',  ( 1.250000000000000000, 1.530808498934191571E-16, 0.000000000000000000 ) ) ;
#8 = EDGE_LOOP ( 'NONE', ( #357, #92 ) ) ;
#9 = DESIGN_CONTEXT ( 'detailed design', #190, 'design' ) ;
#10 = ORIENTED_EDGE ( 'NONE', *, *, #235, .T. ) ;
#11 = PERSON_AND_ORGANIZATION_ROLE ( 'classification_officer' ) ;
#12 = ORIENTED_EDGE ( 'NONE', *, *, #317, .T. ) ;
#13 = COORDINATED_UNIVERSAL_TIME_OFFSET ( 1, 0, .AHEAD. ) ;
#14 = CARTESIAN_POINT ( 'NONE',  ( 0.000000000000000000, 0.000000000000000000, 78.00000000000000000 ) ) ;
#15 = TOROIDAL_SURFACE ( 'NONE', #265, 2.799999999999999822, 0.2999999999999999889 ) ;
#16 = APPROVAL ( #261, 'NEURÈENÝ' ) ;
#17 = ORIENTED_EDGE ( 'NONE', *, *, #336, .F. ) ;
#18 = CARTESIAN_POINT ( 'NONE',  ( 0.000000000000000000, 0.000000000000000000, 3.299999999999997158 ) ) ;
#19 = EDGE_LOOP ( 'NONE', ( #10, #230, #88, #250 ) ) ;
#20 = CYLINDRICAL_SURFACE ( 'NONE', #161, 1.250000000000000000 ) ;
#21 = DIRECTION ( 'NONE',  ( 1.000000000000000000, 0.000000000000000000, 0.000000000000000000 ) ) ;
#22 = DIRECTION ( 'NONE',  ( 1.000000000000000000, 0.000000000000000000, 0.000000000000000000 ) ) ;
#23 = VERTEX_POINT ( 'NONE', #283 ) ;
#24 = ADVANCED_FACE ( 'NONE', ( #139 ), #127, .F. ) ;
#25 = ORIENTED_EDGE ( 'NONE', *, *, #109, .F. ) ;
#26 = APPROVAL ( #322, 'NEURÈENÝ' ) ;
#27 = EDGE_CURVE ( 'NONE', #211, #150, #259, .T. ) ;
#28 = FACE_BOUND ( 'NONE', #119, .T. ) ;
#29 = CC_DESIGN_PERSON_AND_ORGANIZATION_ASSIGNMENT ( #99, #11, ( #377 ) ) ;
#30 = CARTESIAN_POINT ( 'NONE',  ( 2.500000000000000000, 3.061616997868383141E-16, 78.00000000000000000 ) ) ;
#31 =( NAMED_UNIT ( * ) SI_UNIT ( $, .STERADIAN. ) SOLID_ANGLE_UNIT ( ) );
#32 = CIRCLE ( 'NONE', #242, 5.000000000000000000 ) ;
#33 = CC_DESIGN_APPROVAL ( #26, ( #377 ) ) ;
#34 = PERSON_AND_ORGANIZATION_ROLE ( 'design_owner' ) ;
#35 = CYLINDRICAL_SURFACE ( 'NONE', #272, 5.000000000000000000 ) ;
#36 = EDGE_CURVE ( 'NONE', #163, #150, #251, .T. ) ;
#37 = APPLICATION_PROTOCOL_DEFINITION ( 'international standard', 'config_control_design', 1994, #190 ) ;
#38 = CARTESIAN_POINT ( 'NONE',  ( 0.000000000000000000, 0.000000000000000000, 3.000000000000000000 ) ) ;
#39 = DIRECTION ( 'NONE',  ( 0.000000000000000000, -1.000000000000000000, 0.000000000000000000 ) ) ;
#40 = ORIENTED_EDGE ( 'NONE', *, *, #324, .T. ) ;
#41 = AXIS2_PLACEMENT_3D ( 'NONE', #276, #368, #21 ) ;
#42 = DATE_AND_TIME ( #148, #101 ) ;
#43 = EDGE_CURVE ( 'NONE', #133, #334, #172, .T. ) ;
#44 = ORIENTED_EDGE ( 'NONE', *, *, #235, .F. ) ;
#45 = PERSON_AND_ORGANIZATION ( #365, #253 ) ;
#46 = AXIS2_PLACEMENT_3D ( 'NONE', #107, #179, #290 ) ;
#47 = ADVANCED_FACE ( 'NONE', ( #1 ), #348, .T. ) ;
#48 = ORIENTED_EDGE ( 'NONE', *, *, #266, .T. ) ;
#49 = CIRCLE ( 'NONE', #252, 2.799999999999999822 ) ;
#50 = DIRECTION ( 'NONE',  ( 0.000000000000000000, 0.000000000000000000, 1.000000000000000000 ) ) ;
#51 = AXIS2_PLACEMENT_3D ( 'NONE', #376, #199, #288 ) ;
#52 = CARTESIAN_POINT ( 'NONE',  ( 0.000000000000000000, 0.000000000000000000, 3.000000000000000000 ) ) ;
#53 = ORIENTED_EDGE ( 'NONE', *, *, #177, .T. ) ;
#54 = CC_DESIGN_DATE_AND_TIME_ASSIGNMENT ( #187, #299, ( #214 ) ) ;
#55 = ORIENTED_EDGE ( 'NONE', *, *, #294, .T. ) ;
#56 = CARTESIAN_POINT ( 'NONE',  ( -5.000000000000000000, 0.000000000000000000, 3.000000000000000000 ) ) ;
#57 = ORIENTED_EDGE ( 'NONE', *, *, #343, .T. ) ;
#58 = AXIS2_PLACEMENT_3D ( 'NONE', #344, #116, #347 ) ;
#59 = ORIENTED_EDGE ( 'NONE', *, *, #317, .F. ) ;
#60 =( NAMED_UNIT ( * ) PLANE_ANGLE_UNIT ( ) SI_UNIT ( $, .RADIAN. ) );
#61 = DIRECTION ( 'NONE',  ( 0.000000000000000000, 0.000000000000000000, -1.000000000000000000 ) ) ;
#62 = PERSON_AND_ORGANIZATION ( #365, #253 ) ;
#63 = EDGE_CURVE ( 'NONE', #262, #129, #202, .T. ) ;
#64 = CARTESIAN_POINT ( 'NONE',  ( 0.000000000000000000, 0.000000000000000000, 3.000000000000000000 ) ) ;
#65 = AXIS2_PLACEMENT_3D ( 'NONE', #333, #121, #356 ) ;
#66 = LOCAL_TIME ( 17, 49, 3.000000000000000000, #68 ) ;
#67 = ORIENTED_EDGE ( 'NONE', *, *, #217, .F. ) ;
#68 = COORDINATED_UNIVERSAL_TIME_OFFSET ( 1, 0, .AHEAD. ) ;
#69 = FACE_OUTER_BOUND ( 'NONE', #316, .T. ) ;
#70 = APPROVAL_DATE_TIME ( #233, #110 ) ;
#71 = CARTESIAN_POINT ( 'NONE',  ( 0.000000000000000000, 0.000000000000000000, 3.000000000000000000 ) ) ;
#72 = PERSON_AND_ORGANIZATION_ROLE ( 'creator' ) ;
#73 = DIRECTION ( 'NONE',  ( -0.000000000000000000, -0.000000000000000000, -1.000000000000000000 ) ) ;
#74 = ORIENTED_EDGE ( 'NONE', *, *, #43, .F. ) ;
#75 = APPROVAL_DATE_TIME ( #231, #16 ) ;
#76 = PLANE ( 'NONE',  #46 ) ;
#77 = ORIENTED_EDGE ( 'NONE', *, *, #336, .T. ) ;
#78 = DIRECTION ( 'NONE',  ( -0.000000000000000000, -0.000000000000000000, -1.000000000000000000 ) ) ;
#79 = EDGE_LOOP ( 'NONE', ( #55, #168 ) ) ;
#80 = DIRECTION ( 'NONE',  ( -0.000000000000000000, -0.000000000000000000, -1.000000000000000000 ) ) ;
#81 = ADVANCED_FACE ( 'NONE', ( #142, #118 ), #97, .T. ) ;
#82 = DIRECTION ( 'NONE',  ( -0.000000000000000000, -0.000000000000000000, -1.000000000000000000 ) ) ;
#83 = CARTESIAN_POINT ( 'NONE',  ( 1.250000000000000000, 1.530808498934191571E-16, 78.00000000000000000 ) ) ;
#84 = CARTESIAN_POINT ( 'NONE',  ( 0.000000000000000000, 0.000000000000000000, 78.00000000000000000 ) ) ;
#85 = ORIENTED_EDGE ( 'NONE', *, *, #260, .F. ) ;
#86 = AXIS2_PLACEMENT_3D ( 'NONE', #18, #367, #191 ) ;
#87 = CARTESIAN_POINT ( 'NONE',  ( 0.000000000000000000, 0.000000000000000000, 0.000000000000000000 ) ) ;
#88 = ORIENTED_EDGE ( 'NONE', *, *, #188, .T. ) ;
#89 = APPLICATION_PROTOCOL_DEFINITION ( 'international standard', 'config_control_design', 1994, #164 ) ;
#90 = ADVANCED_FACE ( 'NONE', ( #69 ), #189, .T. ) ;
#91 = PERSON_AND_ORGANIZATION ( #365, #253 ) ;
#92 = ORIENTED_EDGE ( 'NONE', *, *, #217, .T. ) ;
#93 = DIRECTION ( 'NONE',  ( -0.000000000000000000, -0.000000000000000000, -1.000000000000000000 ) ) ;
#94 = VECTOR ( 'NONE', #255, 1000.000000000000000 ) ;
#95 = CARTESIAN_POINT ( 'NONE',  ( 0.000000000000000000, 0.000000000000000000, 78.00000000000000000 ) ) ;
#96 = DATE_AND_TIME ( #144, #315 ) ;
#97 = PLANE ( 'NONE',  #140 ) ;
#98 = VECTOR ( 'NONE', #228, 1000.000000000000000 ) ;
#99 = PERSON_AND_ORGANIZATION ( #365, #253 ) ;
#100 = FACE_OUTER_BOUND ( 'NONE', #243, .T. ) ;
#101 = LOCAL_TIME ( 17, 49, 3.000000000000000000, #13 ) ;
#102 = ADVANCED_FACE ( 'NONE', ( #353 ), #15, .F. ) ;
#103 = DIRECTION ( 'NONE',  ( -1.000000000000000000, 1.224646799147353207E-16, 0.000000000000000000 ) ) ;
#104 = EDGE_LOOP ( 'NONE', ( #198, #313, #48, #360 ) ) ;
#105 = AXIS2_PLACEMENT_3D ( 'NONE', #95, #93, #351 ) ;
#106 = DIRECTION ( 'NONE',  ( 0.000000000000000000, 0.000000000000000000, -1.000000000000000000 ) ) ;
#107 = CARTESIAN_POINT ( 'NONE',  ( 0.000000000000000000, 0.000000000000000000, 0.000000000000000000 ) ) ;
#108 = ORIENTED_EDGE ( 'NONE', *, *, #260, .T. ) ;
#109 = EDGE_CURVE ( 'NONE', #150, #23, #218, .T. ) ;
#110 = APPROVAL ( #237, 'NEURÈENÝ' ) ;
#111 = FACE_OUTER_BOUND ( 'NONE', #2, .T. ) ;
#112 = CC_DESIGN_APPROVAL ( #110, ( #321 ) ) ;
#113 = ORIENTED_EDGE ( 'NONE', *, *, #306, .F. ) ;
#114 = APPROVAL_PERSON_ORGANIZATION ( #350, #16, #352 ) ;
#115 = DIRECTION ( 'NONE',  ( 1.000000000000000000, 0.000000000000000000, -0.000000000000000000 ) ) ;
#116 = DIRECTION ( 'NONE',  ( 0.000000000000000000, 0.000000000000000000, 1.000000000000000000 ) ) ;
#117 = CARTESIAN_POINT ( 'NONE',  ( 5.000000000000000000, 6.123233995736766282E-16, 3.000000000000000000 ) ) ;
#118 = FACE_OUTER_BOUND ( 'NONE', #79, .T. ) ;
#119 = EDGE_LOOP ( 'NONE', ( #44, #59 ) ) ;
#120 = PERSON_AND_ORGANIZATION ( #365, #253 ) ;
#121 = DIRECTION ( 'NONE',  ( 0.000000000000000000, 0.000000000000000000, 1.000000000000000000 ) ) ;
#122 = AXIS2_PLACEMENT_3D ( 'NONE', #52, #80, #302 ) ;
#123 =( GEOMETRIC_REPRESENTATION_CONTEXT ( 3 ) GLOBAL_UNCERTAINTY_ASSIGNED_CONTEXT ( ( #295 ) ) GLOBAL_UNIT_ASSIGNED_CONTEXT ( ( #380, #60, #31 ) ) REPRESENTATION_CONTEXT ( 'NONE', 'WORKASPACE' ) );
#124 = CC_DESIGN_PERSON_AND_ORGANIZATION_ASSIGNMENT ( #45, #3, ( #321 ) ) ;
#125 = ORIENTED_EDGE ( 'NONE', *, *, #192, .T. ) ;
#126 = DIRECTION ( 'NONE',  ( -0.000000000000000000, -0.000000000000000000, -1.000000000000000000 ) ) ;
#127 = TOROIDAL_SURFACE ( 'NONE', #51, 2.799999999999999822, 0.2999999999999999889 ) ;
#128 = ADVANCED_FACE ( 'NONE', ( #271 ), #35, .T. ) ;
#129 = VERTEX_POINT ( 'NONE', #7 ) ;
#130 = ORIENTED_EDGE ( 'NONE', *, *, #188, .F. ) ;
#131 = CARTESIAN_POINT ( 'NONE',  ( 0.000000000000000000, 0.000000000000000000, 78.00000000000000000 ) ) ;
#132 = CARTESIAN_POINT ( 'NONE',  ( 0.000000000000000000, 0.000000000000000000, 78.00000000000000000 ) ) ;
#133 = VERTEX_POINT ( 'NONE', #298 ) ;
#134 = MECHANICAL_CONTEXT ( 'NONE', #164, 'mechanical' ) ;
#135 = CIRCLE ( 'NONE', #196, 5.000000000000000000 ) ;
#136 = PRODUCT ( '386a', '386a', '', ( #134 ) ) ;
#137 = CARTESIAN_POINT ( 'NONE',  ( -5.000000000000000000, 0.000000000000000000, 3.000000000000000000 ) ) ;
#138 = DIRECTION ( 'NONE',  ( 1.000000000000000000, 0.000000000000000000, 0.000000000000000000 ) ) ;
#139 = FACE_OUTER_BOUND ( 'NONE', #195, .T. ) ;
#140 = AXIS2_PLACEMENT_3D ( 'NONE', #64, #281, #115 ) ;
#141 = AXIS2_PLACEMENT_3D ( 'NONE', #210, #337, #213 ) ;
#142 = FACE_BOUND ( 'NONE', #8, .T. ) ;
#143 = CIRCLE ( 'NONE', #274, 2.500000000000000000 ) ;
#144 = CALENDAR_DATE ( 2022, 8, 7 ) ;
#145 = CARTESIAN_POINT ( 'NONE',  ( 2.500000000000000000, 3.061616997868383141E-16, 3.299999999999997158 ) ) ;
#146 = ADVANCED_FACE ( 'NONE', ( #184, #100 ), #76, .F. ) ;
#147 = ORIENTED_EDGE ( 'NONE', *, *, #63, .F. ) ;
#148 = CALENDAR_DATE ( 2022, 8, 7 ) ;
#149 = CYLINDRICAL_SURFACE ( 'NONE', #320, 1.250000000000000000 ) ;
#150 = VERTEX_POINT ( 'NONE', #145 ) ;
#151 = DIRECTION ( 'NONE',  ( 1.000000000000000000, 0.000000000000000000, 0.000000000000000000 ) ) ;
#152 = AXIS2_PLACEMENT_3D ( 'NONE', #38, #207, #151 ) ;
#153 = APPROVAL_PERSON_ORGANIZATION ( #355, #26, #178 ) ;
#154 = ORIENTED_EDGE ( 'NONE', *, *, #343, .F. ) ;
#155 = PERSON_AND_ORGANIZATION ( #365, #253 ) ;
#156 = ORIENTED_EDGE ( 'NONE', *, *, #177, .F. ) ;
#157 = DIRECTION ( 'NONE',  ( 0.000000000000000000, 0.000000000000000000, 1.000000000000000000 ) ) ;
#158 = ORIENTED_EDGE ( 'NONE', *, *, #192, .F. ) ;
#159 = CIRCLE ( 'NONE', #175, 5.000000000000000000 ) ;
#160 = EDGE_CURVE ( 'NONE', #23, #287, #185, .T. ) ;
#161 = AXIS2_PLACEMENT_3D ( 'NONE', #246, #244, #245 ) ;
#162 = FACE_OUTER_BOUND ( 'NONE', #19, .T. ) ;
#163 = VERTEX_POINT ( 'NONE', #234 ) ;
#164 = APPLICATION_CONTEXT ( 'configuration controlled 3d designs of mechanical parts and assemblies' ) ;
#165 = DIRECTION ( 'NONE',  ( 0.000000000000000000, 0.000000000000000000, 1.000000000000000000 ) ) ;
#166 = ADVANCED_FACE ( 'NONE', ( #327 ), #149, .F. ) ;
#167 = ADVANCED_BREP_SHAPE_REPRESENTATION ( '386a', ( #304, #215 ), #123 ) ;
#168 = ORIENTED_EDGE ( 'NONE', *, *, #300, .T. ) ;
#169 = AXIS2_PLACEMENT_3D ( 'NONE', #379, #314, #286 ) ;
#170 = AXIS2_PLACEMENT_3D ( 'NONE', #131, #50, #279 ) ;
#171 = CARTESIAN_POINT ( 'NONE',  ( 0.000000000000000000, 0.000000000000000000, 0.000000000000000000 ) ) ;
#172 = LINE ( 'NONE', #117, #174 ) ;
#173 = VERTEX_POINT ( 'NONE', #359 ) ;
#174 = VECTOR ( 'NONE', #225, 1000.000000000000000 ) ;
#175 = AXIS2_PLACEMENT_3D ( 'NONE', #171, #223, #201 ) ;
#176 = CARTESIAN_POINT ( 'NONE',  ( 0.000000000000000000, 0.000000000000000000, 3.299999999999997158 ) ) ;
#177 = EDGE_CURVE ( 'NONE', #211, #287, #284, .T. ) ;
#178 = APPROVAL_ROLE ( '' ) ;
#179 = DIRECTION ( 'NONE',  ( 0.000000000000000000, 0.000000000000000000, 1.000000000000000000 ) ) ;
#180 = ORIENTED_EDGE ( 'NONE', *, *, #266, .F. ) ;
#181 = DIRECTION ( 'NONE',  ( -1.000000000000000000, 0.000000000000000000, 0.000000000000000000 ) ) ;
#182 = ORIENTED_EDGE ( 'NONE', *, *, #254, .T. ) ;
#183 = CALENDAR_DATE ( 2022, 8, 7 ) ;
#184 = FACE_BOUND ( 'NONE', #329, .T. ) ;
#185 = CIRCLE ( 'NONE', #152, 2.799999999999999822 ) ;
#186 = ORIENTED_EDGE ( 'NONE', *, *, #254, .F. ) ;
#187 = DATE_AND_TIME ( #203, #66 ) ;
#188 = EDGE_CURVE ( 'NONE', #129, #341, #221, .T. ) ;
#189 = CYLINDRICAL_SURFACE ( 'NONE', #212, 2.500000000000000000 ) ;
#190 = APPLICATION_CONTEXT ( 'configuration controlled 3d designs of mechanical parts and assemblies' ) ;
#191 = DIRECTION ( 'NONE',  ( 1.000000000000000000, 0.000000000000000000, 0.000000000000000000 ) ) ;
#192 = EDGE_CURVE ( 'NONE', #334, #173, #330, .T. ) ;
#193 = CARTESIAN_POINT ( 'NONE',  ( 0.000000000000000000, 0.000000000000000000, 3.000000000000000000 ) ) ;
#194 = DIRECTION ( 'NONE',  ( 0.000000000000000000, 0.000000000000000000, 1.000000000000000000 ) ) ;
#195 = EDGE_LOOP ( 'NONE', ( #156, #113, #297, #67 ) ) ;
#196 = AXIS2_PLACEMENT_3D ( 'NONE', #193, #194, #305 ) ;
#197 = CC_DESIGN_SECURITY_CLASSIFICATION ( #377, ( #321 ) ) ;
#198 = ORIENTED_EDGE ( 'NONE', *, *, #36, .F. ) ;
#199 = DIRECTION ( 'NONE',  ( 0.000000000000000000, 0.000000000000000000, 1.000000000000000000 ) ) ;
#200 = CIRCLE ( 'NONE', #170, 1.250000000000000000 ) ;
#201 = DIRECTION ( 'NONE',  ( 1.000000000000000000, 0.000000000000000000, 0.000000000000000000 ) ) ;
#202 = LINE ( 'NONE', #318, #309 ) ;
#203 = CALENDAR_DATE ( 2022, 8, 7 ) ;
#204 = DATE_TIME_ROLE ( 'classification_date' ) ;
#205 = DIRECTION ( 'NONE',  ( 1.224646799147353207E-16, 1.000000000000000000, -0.000000000000000000 ) ) ;
#206 = CALENDAR_DATE ( 2022, 8, 7 ) ;
#207 = DIRECTION ( 'NONE',  ( -0.000000000000000000, -0.000000000000000000, -1.000000000000000000 ) ) ;
#208 = ORIENTED_EDGE ( 'NONE', *, *, #300, .F. ) ;
#209 = CARTESIAN_POINT ( 'NONE',  ( 0.000000000000000000, 0.000000000000000000, 0.000000000000000000 ) ) ;
#210 = CARTESIAN_POINT ( 'NONE',  ( 0.000000000000000000, 0.000000000000000000, 0.000000000000000000 ) ) ;
#211 = VERTEX_POINT ( 'NONE', #326 ) ;
#212 = AXIS2_PLACEMENT_3D ( 'NONE', #331, #126, #293 ) ;
#213 = DIRECTION ( 'NONE',  ( 1.000000000000000000, 0.000000000000000000, 0.000000000000000000 ) ) ;
#214 = PRODUCT_DEFINITION ( 'NEZNÁMÝ', '', #321, #9 ) ;
#215 = AXIS2_PLACEMENT_3D ( 'NONE', #87, #312, #280 ) ;
#216 = DIRECTION ( 'NONE',  ( 1.000000000000000000, 0.000000000000000000, 0.000000000000000000 ) ) ;
#217 = EDGE_CURVE ( 'NONE', #287, #23, #49, .T. ) ;
#218 = CIRCLE ( 'NONE', #373, 0.2999999999999999334 ) ;
#219 = DIRECTION ( 'NONE',  ( 1.000000000000000000, 0.000000000000000000, 0.000000000000000000 ) ) ;
#220 = EDGE_LOOP ( 'NONE', ( #208, #269, #125, #154 ) ) ;
#221 = CIRCLE ( 'NONE', #369, 1.250000000000000000 ) ;
#222 = VECTOR ( 'NONE', #285, 1000.000000000000000 ) ;
#223 = DIRECTION ( 'NONE',  ( 0.000000000000000000, 0.000000000000000000, 1.000000000000000000 ) ) ;
#224 = PRODUCT_DEFINITION_SHAPE ( 'NONE', 'NONE',  #214 ) ;
#225 = DIRECTION ( 'NONE',  ( -0.000000000000000000, -0.000000000000000000, -1.000000000000000000 ) ) ;
#226 = CARTESIAN_POINT ( 'NONE',  ( -1.250000000000000000, 0.000000000000000000, 78.00000000000000000 ) ) ;
#227 = LOCAL_TIME ( 17, 49, 3.000000000000000000, #361 ) ;
#228 = DIRECTION ( 'NONE',  ( -0.000000000000000000, -0.000000000000000000, -1.000000000000000000 ) ) ;
#229 = ADVANCED_FACE ( 'NONE', ( #111 ), #277, .T. ) ;
#230 = ORIENTED_EDGE ( 'NONE', *, *, #63, .T. ) ;
#231 = DATE_AND_TIME ( #206, #247 ) ;
#232 = DIRECTION ( 'NONE',  ( 0.000000000000000000, 0.000000000000000000, -1.000000000000000000 ) ) ;
#233 = DATE_AND_TIME ( #183, #227 ) ;
#234 = CARTESIAN_POINT ( 'NONE',  ( 2.500000000000000000, 3.061616997868383141E-16, 78.00000000000000000 ) ) ;
#235 = EDGE_CURVE ( 'NONE', #339, #262, #200, .T. ) ;
#236 = VERTEX_POINT ( 'NONE', #273 ) ;
#237 = APPROVAL_STATUS ( 'not_yet_approved' ) ;
#238 = DIRECTION ( 'NONE',  ( 1.000000000000000000, 0.000000000000000000, 0.000000000000000000 ) ) ;
#239 = CC_DESIGN_DATE_AND_TIME_ASSIGNMENT ( #96, #204, ( #377 ) ) ;
#240 = ORIENTED_EDGE ( 'NONE', *, *, #36, .T. ) ;
#241 = DIRECTION ( 'NONE',  ( 0.000000000000000000, 0.000000000000000000, 1.000000000000000000 ) ) ;
#242 = AXIS2_PLACEMENT_3D ( 'NONE', #307, #157, #22 ) ;
#243 = EDGE_LOOP ( 'NONE', ( #17, #158 ) ) ;
#244 = DIRECTION ( 'NONE',  ( 0.000000000000000000, 0.000000000000000000, -1.000000000000000000 ) ) ;
#245 = DIRECTION ( 'NONE',  ( -1.000000000000000000, 0.000000000000000000, 0.000000000000000000 ) ) ;
#246 = CARTESIAN_POINT ( 'NONE',  ( 0.000000000000000000, 0.000000000000000000, 78.00000000000000000 ) ) ;
#247 = LOCAL_TIME ( 17, 49, 3.000000000000000000, #263 ) ;
#248 = CARTESIAN_POINT ( 'NONE',  ( -2.799999999999999822, 3.429011037612589276E-16, 2.999999999999998668 ) ) ;
#249 = ADVANCED_FACE ( 'NONE', ( #162 ), #20, .F. ) ;
#250 = ORIENTED_EDGE ( 'NONE', *, *, #363, .F. ) ;
#251 = LINE ( 'NONE', #30, #98 ) ;
#252 = AXIS2_PLACEMENT_3D ( 'NONE', #71, #78, #219 ) ;
#253 = ORGANIZATION ( 'NEURÈENÝ', 'NEURÈENÝ', '' ) ;
#254 = EDGE_CURVE ( 'NONE', #163, #236, #381, .T. ) ;
#255 = DIRECTION ( 'NONE',  ( -0.000000000000000000, -0.000000000000000000, -1.000000000000000000 ) ) ;
#256 = CC_DESIGN_PERSON_AND_ORGANIZATION_ASSIGNMENT ( #62, #72, ( #214 ) ) ;
#257 = CARTESIAN_POINT ( 'NONE',  ( -1.250000000000000000, 0.000000000000000000, 0.000000000000000000 ) ) ;
#258 = PLANE ( 'NONE',  #58 ) ;
#259 = CIRCLE ( 'NONE', #169, 2.500000000000000000 ) ;
#260 = EDGE_CURVE ( 'NONE', #341, #129, #311, .T. ) ;
#261 = APPROVAL_STATUS ( 'not_yet_approved' ) ;
#262 = VERTEX_POINT ( 'NONE', #83 ) ;
#263 = COORDINATED_UNIVERSAL_TIME_OFFSET ( 1, 0, .AHEAD. ) ;
#264 = DIRECTION ( 'NONE',  ( -1.000000000000000000, 0.000000000000000000, 0.000000000000000000 ) ) ;
#265 = AXIS2_PLACEMENT_3D ( 'NONE', #176, #241, #238 ) ;
#266 = EDGE_CURVE ( 'NONE', #236, #211, #335, .T. ) ;
#267 = APPROVAL_PERSON_ORGANIZATION ( #120, #110, #325 ) ;
#268 = EDGE_LOOP ( 'NONE', ( #147, #12, #332, #108 ) ) ;
#269 = ORIENTED_EDGE ( 'NONE', *, *, #43, .T. ) ;
#270 = COORDINATED_UNIVERSAL_TIME_OFFSET ( 1, 0, .AHEAD. ) ;
#271 = FACE_OUTER_BOUND ( 'NONE', #220, .T. ) ;
#272 = AXIS2_PLACEMENT_3D ( 'NONE', #296, #73, #181 ) ;
#273 = CARTESIAN_POINT ( 'NONE',  ( -2.500000000000000000, 0.000000000000000000, 78.00000000000000000 ) ) ;
#274 = AXIS2_PLACEMENT_3D ( 'NONE', #84, #165, #138 ) ;
#275 = ORIENTED_EDGE ( 'NONE', *, *, #294, .F. ) ;
#276 = CARTESIAN_POINT ( 'NONE',  ( 0.000000000000000000, 0.000000000000000000, 78.00000000000000000 ) ) ;
#277 = CYLINDRICAL_SURFACE ( 'NONE', #122, 5.000000000000000000 ) ;
#278 = AXIS2_PLACEMENT_3D ( 'NONE', #366, #205, #103 ) ;
#279 = DIRECTION ( 'NONE',  ( 1.000000000000000000, 0.000000000000000000, 0.000000000000000000 ) ) ;
#280 = DIRECTION ( 'NONE',  ( 1.000000000000000000, 0.000000000000000000, 0.000000000000000000 ) ) ;
#281 = DIRECTION ( 'NONE',  ( 0.000000000000000000, 0.000000000000000000, 1.000000000000000000 ) ) ;
#282 = CARTESIAN_POINT ( 'NONE',  ( -1.250000000000000000, 0.000000000000000000, 78.00000000000000000 ) ) ;
#283 = CARTESIAN_POINT ( 'NONE',  ( 2.799999999999999822, 0.000000000000000000, 2.999999999999998668 ) ) ;
#284 = CIRCLE ( 'NONE', #278, 0.2999999999999999334 ) ;
#285 = DIRECTION ( 'NONE',  ( 0.000000000000000000, 0.000000000000000000, -1.000000000000000000 ) ) ;
#286 = DIRECTION ( 'NONE',  ( 1.000000000000000000, 0.000000000000000000, 0.000000000000000000 ) ) ;
#287 = VERTEX_POINT ( 'NONE', #248 ) ;
#288 = DIRECTION ( 'NONE',  ( 1.000000000000000000, 0.000000000000000000, 0.000000000000000000 ) ) ;
#289 = CIRCLE ( 'NONE', #340, 1.250000000000000000 ) ;
#290 = DIRECTION ( 'NONE',  ( 1.000000000000000000, 0.000000000000000000, -0.000000000000000000 ) ) ;
#291 = ORIENTED_EDGE ( 'NONE', *, *, #27, .F. ) ;
#292 = SECURITY_CLASSIFICATION_LEVEL ( 'unclassified' ) ;
#293 = DIRECTION ( 'NONE',  ( -1.000000000000000000, 0.000000000000000000, 0.000000000000000000 ) ) ;
#294 = EDGE_CURVE ( 'NONE', #364, #133, #135, .T. ) ;
#295 = UNCERTAINTY_MEASURE_WITH_UNIT (LENGTH_MEASURE( 1.000000000000000082E-05 ), #380, 'distance_accuracy_value', 'NONE');
#296 = CARTESIAN_POINT ( 'NONE',  ( 0.000000000000000000, 0.000000000000000000, 3.000000000000000000 ) ) ;
#297 = ORIENTED_EDGE ( 'NONE', *, *, #109, .T. ) ;
#298 = CARTESIAN_POINT ( 'NONE',  ( 5.000000000000000000, 6.123233995736766282E-16, 3.000000000000000000 ) ) ;
#299 = DATE_TIME_ROLE ( 'creation_date' ) ;
#300 = EDGE_CURVE ( 'NONE', #133, #364, #32, .T. ) ;
#301 = EDGE_LOOP ( 'NONE', ( #291, #53, #5, #25 ) ) ;
#302 = DIRECTION ( 'NONE',  ( -1.000000000000000000, 0.000000000000000000, 0.000000000000000000 ) ) ;
#303 = VECTOR ( 'NONE', #82, 1000.000000000000000 ) ;
#304 = MANIFOLD_SOLID_BREP ( 'Odebrat vysunutím3', #328 ) ;
#305 = DIRECTION ( 'NONE',  ( 1.000000000000000000, 0.000000000000000000, 0.000000000000000000 ) ) ;
#306 = EDGE_CURVE ( 'NONE', #150, #211, #354, .T. ) ;
#307 = CARTESIAN_POINT ( 'NONE',  ( 0.000000000000000000, 0.000000000000000000, 3.000000000000000000 ) ) ;
#309 = VECTOR ( 'NONE', #61, 1000.000000000000000 ) ;
#308 = CC_DESIGN_PERSON_AND_ORGANIZATION_ASSIGNMENT ( #91, #34, ( #136 ) ) ;
#310 = ORIENTED_EDGE ( 'NONE', *, *, #306, .T. ) ;
#311 = CIRCLE ( 'NONE', #141, 1.250000000000000000 ) ;
#312 = DIRECTION ( 'NONE',  ( 0.000000000000000000, 0.000000000000000000, 1.000000000000000000 ) ) ;
#313 = ORIENTED_EDGE ( 'NONE', *, *, #324, .F. ) ;
#314 = DIRECTION ( 'NONE',  ( 0.000000000000000000, 0.000000000000000000, 1.000000000000000000 ) ) ;
#315 = LOCAL_TIME ( 17, 49, 3.000000000000000000, #270 ) ;
#316 = EDGE_LOOP ( 'NONE', ( #186, #240, #310, #180 ) ) ;
#317 = EDGE_CURVE ( 'NONE', #262, #339, #289, .T. ) ;
#318 = CARTESIAN_POINT ( 'NONE',  ( 1.250000000000000000, 1.530808498934191571E-16, 78.00000000000000000 ) ) ;
#319 = PERSON_AND_ORGANIZATION_ROLE ( 'design_supplier' ) ;
#320 = AXIS2_PLACEMENT_3D ( 'NONE', #14, #232, #264 ) ;
#321 = PRODUCT_DEFINITION_FORMATION_WITH_SPECIFIED_SOURCE ( 'LIBOVOLNÝ', '', #136, .NOT_KNOWN. ) ;
#322 = APPROVAL_STATUS ( 'not_yet_approved' ) ;
#323 = DIRECTION ( 'NONE',  ( 1.000000000000000000, 0.000000000000000000, 0.000000000000000000 ) ) ;
#324 = EDGE_CURVE ( 'NONE', #236, #163, #143, .T. ) ;
#325 = APPROVAL_ROLE ( '' ) ;
#326 = CARTESIAN_POINT ( 'NONE',  ( -2.500000000000000000, 0.000000000000000000, 3.299999999999997158 ) ) ;
#327 = FACE_OUTER_BOUND ( 'NONE', #268, .T. ) ;
#328 = CLOSED_SHELL ( 'NONE', ( #249, #102, #90, #128, #229, #81, #146, #47, #374, #24, #166 ) ) ;
#329 = EDGE_LOOP ( 'NONE', ( #85, #130 ) ) ;
#330 = CIRCLE ( 'NONE', #65, 5.000000000000000000 ) ;
#331 = CARTESIAN_POINT ( 'NONE',  ( 0.000000000000000000, 0.000000000000000000, 78.00000000000000000 ) ) ;
#332 = ORIENTED_EDGE ( 'NONE', *, *, #363, .T. ) ;
#333 = CARTESIAN_POINT ( 'NONE',  ( 0.000000000000000000, 0.000000000000000000, 0.000000000000000000 ) ) ;
#334 = VERTEX_POINT ( 'NONE', #378 ) ;
#335 = LINE ( 'NONE', #338, #303 ) ;
#336 = EDGE_CURVE ( 'NONE', #173, #334, #159, .T. ) ;
#337 = DIRECTION ( 'NONE',  ( -0.000000000000000000, -0.000000000000000000, -1.000000000000000000 ) ) ;
#338 = CARTESIAN_POINT ( 'NONE',  ( -2.500000000000000000, 0.000000000000000000, 78.00000000000000000 ) ) ;
#339 = VERTEX_POINT ( 'NONE', #282 ) ;
#340 = AXIS2_PLACEMENT_3D ( 'NONE', #132, #371, #216 ) ;
#341 = VERTEX_POINT ( 'NONE', #257 ) ;
#342 = CC_DESIGN_APPROVAL ( #16, ( #214 ) ) ;
#343 = EDGE_CURVE ( 'NONE', #364, #173, #349, .T. ) ;
#344 = CARTESIAN_POINT ( 'NONE',  ( 0.000000000000000000, 0.000000000000000000, 78.00000000000000000 ) ) ;
#345 = LINE ( 'NONE', #226, #222 ) ;
#346 = PRODUCT_RELATED_PRODUCT_CATEGORY ( 'detail', '', ( #136 ) ) ;
#347 = DIRECTION ( 'NONE',  ( 1.000000000000000000, 0.000000000000000000, -0.000000000000000000 ) ) ;
#348 = CYLINDRICAL_SURFACE ( 'NONE', #105, 2.500000000000000000 ) ;
#349 = LINE ( 'NONE', #56, #94 ) ;
#350 = PERSON_AND_ORGANIZATION ( #365, #253 ) ;
#351 = DIRECTION ( 'NONE',  ( -1.000000000000000000, 0.000000000000000000, 0.000000000000000000 ) ) ;
#352 = APPROVAL_ROLE ( '' ) ;
#353 = FACE_OUTER_BOUND ( 'NONE', #301, .T. ) ;
#354 = CIRCLE ( 'NONE', #86, 2.500000000000000000 ) ;
#355 = PERSON_AND_ORGANIZATION ( #365, #253 ) ;
#356 = DIRECTION ( 'NONE',  ( 1.000000000000000000, 0.000000000000000000, 0.000000000000000000 ) ) ;
#357 = ORIENTED_EDGE ( 'NONE', *, *, #160, .T. ) ;
#358 = SHAPE_DEFINITION_REPRESENTATION ( #224, #167 ) ;
#359 = CARTESIAN_POINT ( 'NONE',  ( -5.000000000000000000, 0.000000000000000000, 0.000000000000000000 ) ) ;
#360 = ORIENTED_EDGE ( 'NONE', *, *, #27, .T. ) ;
#361 = COORDINATED_UNIVERSAL_TIME_OFFSET ( 1, 0, .AHEAD. ) ;
#362 = CARTESIAN_POINT ( 'NONE',  ( 2.799999999999999822, 0.000000000000000000, 3.299999999999997158 ) ) ;
#363 = EDGE_CURVE ( 'NONE', #339, #341, #345, .T. ) ;
#364 = VERTEX_POINT ( 'NONE', #137 ) ;
#365 = PERSON ( 'NEURÈENÝ', 'NEURÈENÝ', 'NEURÈENÝ', ('NEURÈENÝ'), ('NEURÈENÝ'), ('NEURÈENÝ') ) ;
#366 = CARTESIAN_POINT ( 'NONE',  ( -2.799999999999999822, 3.429011037612588783E-16, 3.299999999999997158 ) ) ;
#367 = DIRECTION ( 'NONE',  ( 0.000000000000000000, 0.000000000000000000, 1.000000000000000000 ) ) ;
#368 = DIRECTION ( 'NONE',  ( 0.000000000000000000, 0.000000000000000000, 1.000000000000000000 ) ) ;
#369 = AXIS2_PLACEMENT_3D ( 'NONE', #209, #4, #323 ) ;
#370 = CC_DESIGN_PERSON_AND_ORGANIZATION_ASSIGNMENT ( #155, #319, ( #321 ) ) ;
#371 = DIRECTION ( 'NONE',  ( 0.000000000000000000, 0.000000000000000000, 1.000000000000000000 ) ) ;
#372 = EDGE_LOOP ( 'NONE', ( #40, #182 ) ) ;
#374 = ADVANCED_FACE ( 'NONE', ( #28, #375 ), #258, .T. ) ;
#373 = AXIS2_PLACEMENT_3D ( 'NONE', #362, #39, #106 ) ;
#375 = FACE_OUTER_BOUND ( 'NONE', #372, .T. ) ;
#376 = CARTESIAN_POINT ( 'NONE',  ( 0.000000000000000000, 0.000000000000000000, 3.299999999999997158 ) ) ;
#377 = SECURITY_CLASSIFICATION ( '', '', #292 ) ;
#378 = CARTESIAN_POINT ( 'NONE',  ( 5.000000000000000000, 6.123233995736766282E-16, 0.000000000000000000 ) ) ;
#379 = CARTESIAN_POINT ( 'NONE',  ( 0.000000000000000000, 0.000000000000000000, 3.299999999999997158 ) ) ;
#380 =( LENGTH_UNIT ( ) NAMED_UNIT ( * ) SI_UNIT ( .MILLI., .METRE. ) );
#381 = CIRCLE ( 'NONE', #41, 2.500000000000000000 ) ;
ENDSEC;
END-ISO-10303-21;
