ISO-10303-21;
HEADER;
FILE_DESCRIPTION (( 'STEP AP203' ),
    '1' );
FILE_NAME ('bcb3.STEP',
    '2022-07-08T14:35:45',
    ( '' ),
    ( '' ),
    'SwSTEP 2.0',
    'SolidWorks 2019',
    '' );
FILE_SCHEMA (( 'CONFIG_CONTROL_DESIGN' ));
ENDSEC;

DATA;
#1 = DIRECTION ( 'NONE',  ( 1.000000000000000000, 0.000000000000000000, 0.000000000000000000 ) ) ;
#2 = ADVANCED_FACE ( 'NONE', ( #78 ), #127, .T. ) ;
#3 = LOCAL_TIME ( 16, 35, 45.00000000000000000, #190 ) ;
#4 = EDGE_LOOP ( 'NONE', ( #122, #75, #329, #370 ) ) ;
#5 = DIRECTION ( 'NONE',  ( -1.000000000000000000, 0.000000000000000000, 0.000000000000000000 ) ) ;
#6 = EDGE_LOOP ( 'NONE', ( #355, #267, #74, #11 ) ) ;
#7 = FACE_OUTER_BOUND ( 'NONE', #6, .T. ) ;
#8 = EDGE_LOOP ( 'NONE', ( #239, #125 ) ) ;
#9 = EDGE_CURVE ( 'NONE', #186, #264, #302, .T. ) ;
#10 = CIRCLE ( 'NONE', #191, 4.099999999999999645 ) ;
#11 = ORIENTED_EDGE ( 'NONE', *, *, #371, .T. ) ;
#12 = ORIENTED_EDGE ( 'NONE', *, *, #9, .F. ) ;
#13 = LINE ( 'NONE', #217, #180 ) ;
#14 = DIRECTION ( 'NONE',  ( 1.000000000000000000, 0.000000000000000000, 0.000000000000000000 ) ) ;
#15 = AXIS2_PLACEMENT_3D ( 'NONE', #198, #81, #5 ) ;
#16 = FACE_BOUND ( 'NONE', #192, .T. ) ;
#17 = DIRECTION ( 'NONE',  ( -1.000000000000000000, 0.000000000000000000, 0.000000000000000000 ) ) ;
#18 = CARTESIAN_POINT ( 'NONE',  ( 0.000000000000000000, 0.000000000000000000, 107.0000000000000142 ) ) ;
#19 = COORDINATED_UNIVERSAL_TIME_OFFSET ( 1, 0, .AHEAD. ) ;
#20 = VERTEX_POINT ( 'NONE', #156 ) ;
#21 = APPROVAL_ROLE ( '' ) ;
#22 = ORIENTED_EDGE ( 'NONE', *, *, #172, .F. ) ;
#23 = CC_DESIGN_APPROVAL ( #365, ( #335 ) ) ;
#24 = PERSON_AND_ORGANIZATION ( #42, #268 ) ;
#25 = CARTESIAN_POINT ( 'NONE',  ( 4.099999999999999645, 5.021051876504146399E-16, 0.000000000000000000 ) ) ;
#26 = EDGE_CURVE ( 'NONE', #298, #153, #77, .T. ) ;
#27 = DIRECTION ( 'NONE',  ( 0.000000000000000000, 0.000000000000000000, 1.000000000000000000 ) ) ;
#28 = DATE_AND_TIME ( #79, #67 ) ;
#29 = DIRECTION ( 'NONE',  ( -1.000000000000000000, 0.000000000000000000, 0.000000000000000000 ) ) ;
#30 = CIRCLE ( 'NONE', #152, 10.00000000000000000 ) ;
#31 = DIRECTION ( 'NONE',  ( 0.000000000000000000, 0.000000000000000000, 1.000000000000000000 ) ) ;
#32 = ORIENTED_EDGE ( 'NONE', *, *, #349, .F. ) ;
#33 = DIRECTION ( 'NONE',  ( -0.000000000000000000, -0.000000000000000000, -1.000000000000000000 ) ) ;
#34 = AXIS2_PLACEMENT_3D ( 'NONE', #49, #40, #310 ) ;
#35 = VERTEX_POINT ( 'NONE', #164 ) ;
#36 = CARTESIAN_POINT ( 'NONE',  ( 0.000000000000000000, 0.000000000000000000, 7.000000000000000000 ) ) ;
#37 = EDGE_LOOP ( 'NONE', ( #22, #68, #174, #91 ) ) ;
#38 = EDGE_CURVE ( 'NONE', #298, #243, #246, .T. ) ;
#39 = CIRCLE ( 'NONE', #213, 6.700000000000001066 ) ;
#40 = DIRECTION ( 'NONE',  ( -0.000000000000000000, -0.000000000000000000, -1.000000000000000000 ) ) ;
#41 = CARTESIAN_POINT ( 'NONE',  ( 0.000000000000000000, 0.000000000000000000, 107.0000000000000142 ) ) ;
#42 = PERSON ( 'NEURÈENÝ', 'NEURÈENÝ', 'NEURÈENÝ', ('NEURÈENÝ'), ('NEURÈENÝ'), ('NEURÈENÝ') ) ;
#43 = LINE ( 'NONE', #275, #373 ) ;
#44 = SECURITY_CLASSIFICATION ( '', '', #50 ) ;
#45 = ORIENTED_EDGE ( 'NONE', *, *, #247, .F. ) ;
#46 = EDGE_CURVE ( 'NONE', #296, #102, #350, .T. ) ;
#47 = APPROVAL_STATUS ( 'not_yet_approved' ) ;
#48 = AXIS2_PLACEMENT_3D ( 'NONE', #368, #218, #189 ) ;
#49 = CARTESIAN_POINT ( 'NONE',  ( 0.000000000000000000, 0.000000000000000000, 107.0000000000000142 ) ) ;
#50 = SECURITY_CLASSIFICATION_LEVEL ( 'unclassified' ) ;
#51 = ORIENTED_EDGE ( 'NONE', *, *, #46, .T. ) ;
#52 = EDGE_CURVE ( 'NONE', #120, #20, #13, .T. ) ;
#53 = CARTESIAN_POINT ( 'NONE',  ( -6.000000000000000888, 0.000000000000000000, 7.699999999999998401 ) ) ;
#54 = APPROVAL_DATE_TIME ( #307, #202 ) ;
#55 = CARTESIAN_POINT ( 'NONE',  ( 0.000000000000000000, 0.000000000000000000, 0.000000000000000000 ) ) ;
#56 = CC_DESIGN_DATE_AND_TIME_ASSIGNMENT ( #134, #286, ( #44 ) ) ;
#57 = FACE_OUTER_BOUND ( 'NONE', #326, .T. ) ;
#58 = FACE_OUTER_BOUND ( 'NONE', #215, .T. ) ;
#59 = CC_DESIGN_DATE_AND_TIME_ASSIGNMENT ( #28, #76, ( #335 ) ) ;
#60 =( GEOMETRIC_REPRESENTATION_CONTEXT ( 3 ) GLOBAL_UNCERTAINTY_ASSIGNED_CONTEXT ( ( #107 ) ) GLOBAL_UNIT_ASSIGNED_CONTEXT ( ( #185, #367, #92 ) ) REPRESENTATION_CONTEXT ( 'NONE', 'WORKASPACE' ) );
#61 = DIRECTION ( 'NONE',  ( 0.000000000000000000, 0.000000000000000000, 1.000000000000000000 ) ) ;
#62 = ORIENTED_EDGE ( 'NONE', *, *, #9, .T. ) ;
#63 = CIRCLE ( 'NONE', #328, 0.7000000000000000666 ) ;
#64 = VERTEX_POINT ( 'NONE', #160 ) ;
#65 = CARTESIAN_POINT ( 'NONE',  ( 0.000000000000000000, 0.000000000000000000, 107.0000000000000142 ) ) ;
#66 = AXIS2_PLACEMENT_3D ( 'NONE', #55, #27, #234 ) ;
#67 = LOCAL_TIME ( 16, 35, 45.00000000000000000, #19 ) ;
#68 = ORIENTED_EDGE ( 'NONE', *, *, #360, .T. ) ;
#69 = FACE_OUTER_BOUND ( 'NONE', #118, .T. ) ;
#70 = CARTESIAN_POINT ( 'NONE',  ( 10.00000000000000000, 1.224646799147353256E-15, 7.000000000000000000 ) ) ;
#71 = CARTESIAN_POINT ( 'NONE',  ( 0.000000000000000000, 0.000000000000000000, 0.000000000000000000 ) ) ;
#72 = PERSON_AND_ORGANIZATION_ROLE ( 'design_owner' ) ;
#73 = EDGE_CURVE ( 'NONE', #153, #35, #63, .T. ) ;
#74 = ORIENTED_EDGE ( 'NONE', *, *, #52, .T. ) ;
#75 = ORIENTED_EDGE ( 'NONE', *, *, #26, .F. ) ;
#76 = DATE_TIME_ROLE ( 'creation_date' ) ;
#77 = CIRCLE ( 'NONE', #187, 6.000000000000000888 ) ;
#78 = FACE_OUTER_BOUND ( 'NONE', #37, .T. ) ;
#79 = CALENDAR_DATE ( 2022, 8, 7 ) ;
#80 = FACE_OUTER_BOUND ( 'NONE', #301, .T. ) ;
#81 = DIRECTION ( 'NONE',  ( 0.000000000000000000, 0.000000000000000000, -1.000000000000000000 ) ) ;
#82 = AXIS2_PLACEMENT_3D ( 'NONE', #131, #376, #241 ) ;
#83 = LINE ( 'NONE', #173, #113 ) ;
#84 = ORIENTED_EDGE ( 'NONE', *, *, #93, .T. ) ;
#85 = VECTOR ( 'NONE', #159, 1000.000000000000000 ) ;
#86 = EDGE_CURVE ( 'NONE', #243, #35, #163, .T. ) ;
#87 = DIRECTION ( 'NONE',  ( 0.000000000000000000, 0.000000000000000000, 1.000000000000000000 ) ) ;
#88 = VERTEX_POINT ( 'NONE', #273 ) ;
#89 = CARTESIAN_POINT ( 'NONE',  ( 0.000000000000000000, 0.000000000000000000, 107.0000000000000142 ) ) ;
#90 = AXIS2_PLACEMENT_3D ( 'NONE', #124, #61, #327 ) ;
#91 = ORIENTED_EDGE ( 'NONE', *, *, #155, .F. ) ;
#92 =( NAMED_UNIT ( * ) SI_UNIT ( $, .STERADIAN. ) SOLID_ANGLE_UNIT ( ) );
#93 = EDGE_CURVE ( 'NONE', #35, #243, #39, .T. ) ;
#94 = ORIENTED_EDGE ( 'NONE', *, *, #340, .T. ) ;
#95 = DIRECTION ( 'NONE',  ( 0.000000000000000000, 0.000000000000000000, 1.000000000000000000 ) ) ;
#96 = ORIENTED_EDGE ( 'NONE', *, *, #252, .T. ) ;
#97 = AXIS2_PLACEMENT_3D ( 'NONE', #89, #166, #208 ) ;
#98 = CC_DESIGN_APPROVAL ( #202, ( #222 ) ) ;
#99 = CARTESIAN_POINT ( 'NONE',  ( 4.099999999999999645, 5.021051876504146399E-16, 107.0000000000000142 ) ) ;
#100 = PLANE ( 'NONE',  #48 ) ;
#101 = DIRECTION ( 'NONE',  ( -0.000000000000000000, -0.000000000000000000, -1.000000000000000000 ) ) ;
#102 = VERTEX_POINT ( 'NONE', #99 ) ;
#103 = PERSON_AND_ORGANIZATION ( #42, #268 ) ;
#104 = DIRECTION ( 'NONE',  ( -0.000000000000000000, -0.000000000000000000, -1.000000000000000000 ) ) ;
#105 = CIRCLE ( 'NONE', #167, 10.00000000000000000 ) ;
#106 = DATE_AND_TIME ( #111, #207 ) ;
#107 = UNCERTAINTY_MEASURE_WITH_UNIT (LENGTH_MEASURE( 1.000000000000000082E-05 ), #185, 'distance_accuracy_value', 'NONE');
#108 = CC_DESIGN_PERSON_AND_ORGANIZATION_ASSIGNMENT ( #375, #162, ( #44 ) ) ;
#109 = DIRECTION ( 'NONE',  ( 1.000000000000000000, 0.000000000000000000, 0.000000000000000000 ) ) ;
#110 = CARTESIAN_POINT ( 'NONE',  ( 10.00000000000000000, 1.224646799147353256E-15, 0.000000000000000000 ) ) ;
#111 = CALENDAR_DATE ( 2022, 8, 7 ) ;
#112 = CARTESIAN_POINT ( 'NONE',  ( -6.000000000000000888, 0.000000000000000000, 107.0000000000000142 ) ) ;
#113 = VECTOR ( 'NONE', #356, 1000.000000000000000 ) ;
#114 = AXIS2_PLACEMENT_3D ( 'NONE', #205, #323, #293 ) ;
#115 = EDGE_CURVE ( 'NONE', #363, #266, #334, .T. ) ;
#116 = CARTESIAN_POINT ( 'NONE',  ( 0.000000000000000000, 0.000000000000000000, 0.000000000000000000 ) ) ;
#117 = ADVANCED_FACE ( 'NONE', ( #16, #128 ), #100, .T. ) ;
#118 = EDGE_LOOP ( 'NONE', ( #339, #231, #235, #149 ) ) ;
#119 = CARTESIAN_POINT ( 'NONE',  ( -4.099999999999999645, 0.000000000000000000, 0.000000000000000000 ) ) ;
#120 = VERTEX_POINT ( 'NONE', #305 ) ;
#121 = CARTESIAN_POINT ( 'NONE',  ( 0.000000000000000000, 0.000000000000000000, 7.000000000000000000 ) ) ;
#122 = ORIENTED_EDGE ( 'NONE', *, *, #73, .F. ) ;
#123 = ORIENTED_EDGE ( 'NONE', *, *, #86, .F. ) ;
#124 = CARTESIAN_POINT ( 'NONE',  ( 0.000000000000000000, 0.000000000000000000, 7.000000000000000000 ) ) ;
#125 = ORIENTED_EDGE ( 'NONE', *, *, #319, .T. ) ;
#126 = MECHANICAL_CONTEXT ( 'NONE', #143, 'mechanical' ) ;
#127 = CYLINDRICAL_SURFACE ( 'NONE', #34, 6.000000000000000888 ) ;
#128 = FACE_OUTER_BOUND ( 'NONE', #358, .T. ) ;
#129 = EDGE_CURVE ( 'NONE', #102, #186, #43, .T. ) ;
#130 = CARTESIAN_POINT ( 'NONE',  ( 0.000000000000000000, 0.000000000000000000, 7.000000000000000000 ) ) ;
#131 = CARTESIAN_POINT ( 'NONE',  ( 6.700000000000001066, 0.000000000000000000, 7.699999999999998401 ) ) ;
#132 = CALENDAR_DATE ( 2022, 8, 7 ) ;
#133 = ORIENTED_EDGE ( 'NONE', *, *, #129, .F. ) ;
#134 = DATE_AND_TIME ( #132, #3 ) ;
#135 = DIRECTION ( 'NONE',  ( -0.000000000000000000, -0.000000000000000000, -1.000000000000000000 ) ) ;
#136 = CC_DESIGN_APPROVAL ( #209, ( #44 ) ) ;
#137 = PERSON_AND_ORGANIZATION ( #42, #268 ) ;
#138 = CARTESIAN_POINT ( 'NONE',  ( 6.000000000000000888, 7.347880794884120722E-16, 7.699999999999998401 ) ) ;
#139 = AXIS2_PLACEMENT_3D ( 'NONE', #364, #341, #109 ) ;
#140 = DIRECTION ( 'NONE',  ( 0.000000000000000000, 0.000000000000000000, 1.000000000000000000 ) ) ;
#141 = PERSON_AND_ORGANIZATION_ROLE ( 'creator' ) ;
#142 = CYLINDRICAL_SURFACE ( 'NONE', #97, 4.099999999999999645 ) ;
#143 = APPLICATION_CONTEXT ( 'configuration controlled 3d designs of mechanical parts and assemblies' ) ;
#144 = CIRCLE ( 'NONE', #197, 10.00000000000000000 ) ;
#145 = TOROIDAL_SURFACE ( 'NONE', #114, 6.700000000000001066, 0.6999999999999999556 ) ;
#146 = PLANE ( 'NONE',  #66 ) ;
#147 = EDGE_LOOP ( 'NONE', ( #212, #84 ) ) ;
#148 = FACE_OUTER_BOUND ( 'NONE', #179, .T. ) ;
#149 = ORIENTED_EDGE ( 'NONE', *, *, #281, .T. ) ;
#150 = DIRECTION ( 'NONE',  ( 0.000000000000000000, 0.000000000000000000, 1.000000000000000000 ) ) ;
#151 = LINE ( 'NONE', #211, #216 ) ;
#152 = AXIS2_PLACEMENT_3D ( 'NONE', #369, #336, #188 ) ;
#153 = VERTEX_POINT ( 'NONE', #53 ) ;
#154 = DIRECTION ( 'NONE',  ( 1.000000000000000000, 0.000000000000000000, 0.000000000000000000 ) ) ;
#155 = EDGE_CURVE ( 'NONE', #64, #153, #168, .T. ) ;
#156 = CARTESIAN_POINT ( 'NONE',  ( -10.00000000000000000, 0.000000000000000000, 0.000000000000000000 ) ) ;
#157 = CARTESIAN_POINT ( 'NONE',  ( 0.000000000000000000, 0.000000000000000000, 0.000000000000000000 ) ) ;
#158 = AXIS2_PLACEMENT_3D ( 'NONE', #201, #325, #203 ) ;
#159 = DIRECTION ( 'NONE',  ( -0.000000000000000000, -0.000000000000000000, -1.000000000000000000 ) ) ;
#160 = CARTESIAN_POINT ( 'NONE',  ( -6.000000000000000888, 0.000000000000000000, 107.0000000000000142 ) ) ;
#161 = ADVANCED_FACE ( 'NONE', ( #254, #284 ), #146, .F. ) ;
#162 = PERSON_AND_ORGANIZATION_ROLE ( 'classification_officer' ) ;
#163 = CIRCLE ( 'NONE', #139, 6.700000000000001066 ) ;
#164 = CARTESIAN_POINT ( 'NONE',  ( -6.700000000000001066, 8.205133554287267548E-16, 6.999999999999999112 ) ) ;
#165 = APPROVAL_ROLE ( '' ) ;
#166 = DIRECTION ( 'NONE',  ( 0.000000000000000000, 0.000000000000000000, -1.000000000000000000 ) ) ;
#167 = AXIS2_PLACEMENT_3D ( 'NONE', #157, #95, #240 ) ;
#168 = LINE ( 'NONE', #112, #228 ) ;
#169 = APPROVAL_DATE_TIME ( #279, #365 ) ;
#170 = CC_DESIGN_PERSON_AND_ORGANIZATION_ASSIGNMENT ( #342, #72, ( #258 ) ) ;
#171 = DIRECTION ( 'NONE',  ( -0.000000000000000000, -0.000000000000000000, -1.000000000000000000 ) ) ;
#172 = EDGE_CURVE ( 'NONE', #88, #64, #282, .T. ) ;
#173 = CARTESIAN_POINT ( 'NONE',  ( -4.099999999999999645, 0.000000000000000000, 107.0000000000000142 ) ) ;
#174 = ORIENTED_EDGE ( 'NONE', *, *, #26, .T. ) ;
#175 = CIRCLE ( 'NONE', #274, 4.099999999999999645 ) ;
#176 = CARTESIAN_POINT ( 'NONE',  ( 0.000000000000000000, 0.000000000000000000, 107.0000000000000142 ) ) ;
#177 = ORIENTED_EDGE ( 'NONE', *, *, #340, .F. ) ;
#178 = ADVANCED_FACE ( 'NONE', ( #7 ), #378, .T. ) ;
#179 = EDGE_LOOP ( 'NONE', ( #51, #238, #62, #299 ) ) ;
#180 = VECTOR ( 'NONE', #135, 1000.000000000000000 ) ;
#181 = APPLICATION_PROTOCOL_DEFINITION ( 'international standard', 'config_control_design', 1994, #143 ) ;
#182 = EDGE_LOOP ( 'NONE', ( #337, #32 ) ) ;
#183 = ORIENTED_EDGE ( 'NONE', *, *, #38, .F. ) ;
#184 = ADVANCED_FACE ( 'NONE', ( #80 ), #142, .F. ) ;
#185 =( LENGTH_UNIT ( ) NAMED_UNIT ( * ) SI_UNIT ( .MILLI., .METRE. ) );
#186 = VERTEX_POINT ( 'NONE', #25 ) ;
#187 = AXIS2_PLACEMENT_3D ( 'NONE', #249, #272, #219 ) ;
#188 = DIRECTION ( 'NONE',  ( 1.000000000000000000, 0.000000000000000000, 0.000000000000000000 ) ) ;
#189 = DIRECTION ( 'NONE',  ( 1.000000000000000000, 0.000000000000000000, -0.000000000000000000 ) ) ;
#190 = COORDINATED_UNIVERSAL_TIME_OFFSET ( 1, 0, .AHEAD. ) ;
#191 = AXIS2_PLACEMENT_3D ( 'NONE', #65, #150, #303 ) ;
#192 = EDGE_LOOP ( 'NONE', ( #210, #177 ) ) ;
#193 = ORIENTED_EDGE ( 'NONE', *, *, #200, .T. ) ;
#194 = PERSON_AND_ORGANIZATION ( #42, #268 ) ;
#195 = DIRECTION ( 'NONE',  ( 1.000000000000000000, 0.000000000000000000, 0.000000000000000000 ) ) ;
#196 = SHAPE_DEFINITION_REPRESENTATION ( #236, #333 ) ;
#197 = AXIS2_PLACEMENT_3D ( 'NONE', #121, #262, #1 ) ;
#198 = CARTESIAN_POINT ( 'NONE',  ( 0.000000000000000000, 0.000000000000000000, 107.0000000000000142 ) ) ;
#199 = PERSON_AND_ORGANIZATION ( #42, #268 ) ;
#200 = EDGE_CURVE ( 'NONE', #64, #88, #331, .T. ) ;
#201 = CARTESIAN_POINT ( 'NONE',  ( 0.000000000000000000, 0.000000000000000000, 7.699999999999998401 ) ) ;
#202 = APPROVAL ( #47, 'NEURÈENÝ' ) ;
#203 = DIRECTION ( 'NONE',  ( 1.000000000000000000, 0.000000000000000000, 0.000000000000000000 ) ) ;
#204 = ORIENTED_EDGE ( 'NONE', *, *, #115, .T. ) ;
#205 = CARTESIAN_POINT ( 'NONE',  ( 0.000000000000000000, 0.000000000000000000, 7.699999999999998401 ) ) ;
#206 = ORIENTED_EDGE ( 'NONE', *, *, #281, .F. ) ;
#207 = LOCAL_TIME ( 16, 35, 45.00000000000000000, #255 ) ;
#208 = DIRECTION ( 'NONE',  ( -1.000000000000000000, 0.000000000000000000, 0.000000000000000000 ) ) ;
#209 = APPROVAL ( #250, 'NEURÈENÝ' ) ;
#210 = ORIENTED_EDGE ( 'NONE', *, *, #46, .F. ) ;
#211 = CARTESIAN_POINT ( 'NONE',  ( 6.000000000000000888, 7.347880794884120722E-16, 107.0000000000000142 ) ) ;
#212 = ORIENTED_EDGE ( 'NONE', *, *, #86, .T. ) ;
#213 = AXIS2_PLACEMENT_3D ( 'NONE', #224, #344, #195 ) ;
#214 = CARTESIAN_POINT ( 'NONE',  ( 0.000000000000000000, 0.000000000000000000, 0.000000000000000000 ) ) ;
#215 = EDGE_LOOP ( 'NONE', ( #206, #313, #123, #183 ) ) ;
#216 = VECTOR ( 'NONE', #101, 1000.000000000000000 ) ;
#217 = CARTESIAN_POINT ( 'NONE',  ( -10.00000000000000000, 0.000000000000000000, 7.000000000000000000 ) ) ;
#218 = DIRECTION ( 'NONE',  ( 0.000000000000000000, 0.000000000000000000, 1.000000000000000000 ) ) ;
#219 = DIRECTION ( 'NONE',  ( 1.000000000000000000, 0.000000000000000000, 0.000000000000000000 ) ) ;
#220 = CALENDAR_DATE ( 2022, 8, 7 ) ;
#221 = CC_DESIGN_PERSON_AND_ORGANIZATION_ASSIGNMENT ( #346, #312, ( #222 ) ) ;
#222 = PRODUCT_DEFINITION_FORMATION_WITH_SPECIFIED_SOURCE ( 'LIBOVOLNÝ', '', #258, .NOT_KNOWN. ) ;
#223 = DIRECTION ( 'NONE',  ( -1.000000000000000000, 1.224646799147353454E-16, 0.000000000000000000 ) ) ;
#224 = CARTESIAN_POINT ( 'NONE',  ( 0.000000000000000000, 0.000000000000000000, 7.000000000000000000 ) ) ;
#225 = EDGE_CURVE ( 'NONE', #120, #363, #144, .T. ) ;
#226 = APPROVAL_DATE_TIME ( #106, #209 ) ;
#227 = CARTESIAN_POINT ( 'NONE',  ( 0.000000000000000000, 0.000000000000000000, 107.0000000000000142 ) ) ;
#228 = VECTOR ( 'NONE', #171, 1000.000000000000000 ) ;
#229 = AXIS2_PLACEMENT_3D ( 'NONE', #36, #33, #17 ) ;
#230 = DIRECTION ( 'NONE',  ( 1.000000000000000000, 0.000000000000000000, 0.000000000000000000 ) ) ;
#231 = ORIENTED_EDGE ( 'NONE', *, *, #200, .F. ) ;
#232 = ORIENTED_EDGE ( 'NONE', *, *, #319, .F. ) ;
#233 = ADVANCED_FACE ( 'NONE', ( #148 ), #347, .F. ) ;
#234 = DIRECTION ( 'NONE',  ( 1.000000000000000000, 0.000000000000000000, -0.000000000000000000 ) ) ;
#235 = ORIENTED_EDGE ( 'NONE', *, *, #155, .T. ) ;
#236 = PRODUCT_DEFINITION_SHAPE ( 'NONE', 'NONE',  #335 ) ;
#237 = AXIS2_PLACEMENT_3D ( 'NONE', #214, #330, #154 ) ;
#238 = ORIENTED_EDGE ( 'NONE', *, *, #129, .T. ) ;
#239 = ORIENTED_EDGE ( 'NONE', *, *, #225, .T. ) ;
#240 = DIRECTION ( 'NONE',  ( 1.000000000000000000, 0.000000000000000000, 0.000000000000000000 ) ) ;
#241 = DIRECTION ( 'NONE',  ( 0.000000000000000000, 0.000000000000000000, -1.000000000000000000 ) ) ;
#242 = DIRECTION ( 'NONE',  ( 0.000000000000000000, 0.000000000000000000, 1.000000000000000000 ) ) ;
#243 = VERTEX_POINT ( 'NONE', #345 ) ;
#244 = FACE_OUTER_BOUND ( 'NONE', #8, .T. ) ;
#245 = DIRECTION ( 'NONE',  ( 0.000000000000000000, 0.000000000000000000, 1.000000000000000000 ) ) ;
#246 = CIRCLE ( 'NONE', #82, 0.7000000000000000666 ) ;
#247 = EDGE_CURVE ( 'NONE', #264, #186, #175, .T. ) ;
#248 = APPROVAL_ROLE ( '' ) ;
#249 = CARTESIAN_POINT ( 'NONE',  ( 0.000000000000000000, 0.000000000000000000, 7.699999999999998401 ) ) ;
#250 = APPROVAL_STATUS ( 'not_yet_approved' ) ;
#251 = ORIENTED_EDGE ( 'NONE', *, *, #172, .T. ) ;
#252 = EDGE_CURVE ( 'NONE', #296, #264, #83, .T. ) ;
#253 = PERSON_AND_ORGANIZATION_ROLE ( 'creator' ) ;
#254 = FACE_BOUND ( 'NONE', #294, .T. ) ;
#255 = COORDINATED_UNIVERSAL_TIME_OFFSET ( 1, 0, .AHEAD. ) ;
#256 = AXIS2_PLACEMENT_3D ( 'NONE', #41, #271, #300 ) ;
#257 = DIRECTION ( 'NONE',  ( 1.000000000000000000, 0.000000000000000000, 0.000000000000000000 ) ) ;
#258 = PRODUCT ( 'bcb3', 'bcb3', '', ( #126 ) ) ;
#259 = CLOSED_SHELL ( 'NONE', ( #233, #304, #2, #311, #178, #351, #161, #321, #117, #291, #184 ) ) ;
#260 = AXIS2_PLACEMENT_3D ( 'NONE', #176, #140, #230 ) ;
#261 = APPROVAL_PERSON_ORGANIZATION ( #194, #202, #248 ) ;
#262 = DIRECTION ( 'NONE',  ( 0.000000000000000000, 0.000000000000000000, 1.000000000000000000 ) ) ;
#263 = PRODUCT_RELATED_PRODUCT_CATEGORY ( 'detail', '', ( #258 ) ) ;
#264 = VERTEX_POINT ( 'NONE', #119 ) ;
#265 = CARTESIAN_POINT ( 'NONE',  ( 0.000000000000000000, 0.000000000000000000, 7.000000000000000000 ) ) ;
#266 = VERTEX_POINT ( 'NONE', #110 ) ;
#267 = ORIENTED_EDGE ( 'NONE', *, *, #225, .F. ) ;
#268 = ORGANIZATION ( 'NEURÈENÝ', 'NEURÈENÝ', '' ) ;
#269 = CARTESIAN_POINT ( 'NONE',  ( 10.00000000000000000, 1.224646799147353256E-15, 7.000000000000000000 ) ) ;
#270 = ORIENTED_EDGE ( 'NONE', *, *, #349, .T. ) ;
#271 = DIRECTION ( 'NONE',  ( -0.000000000000000000, -0.000000000000000000, -1.000000000000000000 ) ) ;
#272 = DIRECTION ( 'NONE',  ( 0.000000000000000000, 0.000000000000000000, 1.000000000000000000 ) ) ;
#273 = CARTESIAN_POINT ( 'NONE',  ( 6.000000000000000888, 7.347880794884120722E-16, 107.0000000000000142 ) ) ;
#274 = AXIS2_PLACEMENT_3D ( 'NONE', #116, #377, #290 ) ;
#275 = CARTESIAN_POINT ( 'NONE',  ( 4.099999999999999645, 5.021051876504146399E-16, 107.0000000000000142 ) ) ;
#276 = CC_DESIGN_PERSON_AND_ORGANIZATION_ASSIGNMENT ( #137, #141, ( #222 ) ) ;
#277 = APPLICATION_PROTOCOL_DEFINITION ( 'international standard', 'config_control_design', 1994, #348 ) ;
#278 = CARTESIAN_POINT ( 'NONE',  ( -6.700000000000001066, 8.205133554287267548E-16, 7.699999999999998401 ) ) ;
#279 = DATE_AND_TIME ( #220, #320 ) ;
#280 = DIRECTION ( 'NONE',  ( 1.224646799147353207E-16, 1.000000000000000000, -0.000000000000000000 ) ) ;
#281 = EDGE_CURVE ( 'NONE', #153, #298, #324, .T. ) ;
#282 = CIRCLE ( 'NONE', #260, 6.000000000000000888 ) ;
#283 = AXIS2_PLACEMENT_3D ( 'NONE', #354, #87, #318 ) ;
#284 = FACE_OUTER_BOUND ( 'NONE', #182, .T. ) ;
#285 = CYLINDRICAL_SURFACE ( 'NONE', #229, 10.00000000000000000 ) ;
#286 = DATE_TIME_ROLE ( 'classification_date' ) ;
#287 = DIRECTION ( 'NONE',  ( 0.000000000000000000, 0.000000000000000000, -1.000000000000000000 ) ) ;
#288 = CC_DESIGN_PERSON_AND_ORGANIZATION_ASSIGNMENT ( #24, #253, ( #335 ) ) ;
#289 = AXIS2_PLACEMENT_3D ( 'NONE', #18, #245, #372 ) ;
#290 = DIRECTION ( 'NONE',  ( 1.000000000000000000, 0.000000000000000000, 0.000000000000000000 ) ) ;
#291 = ADVANCED_FACE ( 'NONE', ( #322 ), #379, .F. ) ;
#292 = AXIS2_PLACEMENT_3D ( 'NONE', #227, #31, #257 ) ;
#293 = DIRECTION ( 'NONE',  ( 1.000000000000000000, 0.000000000000000000, 0.000000000000000000 ) ) ;
#294 = EDGE_LOOP ( 'NONE', ( #45, #12 ) ) ;
#295 = FACE_BOUND ( 'NONE', #147, .T. ) ;
#296 = VERTEX_POINT ( 'NONE', #315 ) ;
#297 = PLANE ( 'NONE',  #90 ) ;
#298 = VERTEX_POINT ( 'NONE', #138 ) ;
#299 = ORIENTED_EDGE ( 'NONE', *, *, #252, .F. ) ;
#300 = DIRECTION ( 'NONE',  ( -1.000000000000000000, 0.000000000000000000, 0.000000000000000000 ) ) ;
#301 = EDGE_LOOP ( 'NONE', ( #133, #94, #96, #353 ) ) ;
#302 = CIRCLE ( 'NONE', #362, 4.099999999999999645 ) ;
#303 = DIRECTION ( 'NONE',  ( 1.000000000000000000, 0.000000000000000000, 0.000000000000000000 ) ) ;
#304 = ADVANCED_FACE ( 'NONE', ( #58 ), #145, .F. ) ;
#305 = CARTESIAN_POINT ( 'NONE',  ( -10.00000000000000000, 0.000000000000000000, 7.000000000000000000 ) ) ;
#306 = APPROVAL_PERSON_ORGANIZATION ( #199, #365, #21 ) ;
#307 = DATE_AND_TIME ( #317, #357 ) ;
#308 = DIRECTION ( 'NONE',  ( 1.000000000000000000, 0.000000000000000000, 0.000000000000000000 ) ) ;
#309 = APPROVAL_STATUS ( 'not_yet_approved' ) ;
#310 = DIRECTION ( 'NONE',  ( -1.000000000000000000, 0.000000000000000000, 0.000000000000000000 ) ) ;
#311 = ADVANCED_FACE ( 'NONE', ( #57 ), #285, .T. ) ;
#312 = PERSON_AND_ORGANIZATION_ROLE ( 'design_supplier' ) ;
#313 = ORIENTED_EDGE ( 'NONE', *, *, #73, .T. ) ;
#314 = CC_DESIGN_SECURITY_CLASSIFICATION ( #44, ( #222 ) ) ;
#315 = CARTESIAN_POINT ( 'NONE',  ( -4.099999999999999645, 0.000000000000000000, 107.0000000000000142 ) ) ;
#316 = MANIFOLD_SOLID_BREP ( 'Odebrat vysunutím3', #259 ) ;
#317 = CALENDAR_DATE ( 2022, 8, 7 ) ;
#318 = DIRECTION ( 'NONE',  ( 1.000000000000000000, 0.000000000000000000, 0.000000000000000000 ) ) ;
#319 = EDGE_CURVE ( 'NONE', #363, #120, #381, .T. ) ;
#320 = LOCAL_TIME ( 16, 35, 45.00000000000000000, #338 ) ;
#321 = ADVANCED_FACE ( 'NONE', ( #69 ), #359, .T. ) ;
#322 = FACE_OUTER_BOUND ( 'NONE', #4, .T. ) ;
#323 = DIRECTION ( 'NONE',  ( 0.000000000000000000, 0.000000000000000000, 1.000000000000000000 ) ) ;
#324 = CIRCLE ( 'NONE', #158, 6.000000000000000888 ) ;
#325 = DIRECTION ( 'NONE',  ( 0.000000000000000000, 0.000000000000000000, 1.000000000000000000 ) ) ;
#326 = EDGE_LOOP ( 'NONE', ( #232, #204, #270, #361 ) ) ;
#327 = DIRECTION ( 'NONE',  ( 1.000000000000000000, 0.000000000000000000, -0.000000000000000000 ) ) ;
#328 = AXIS2_PLACEMENT_3D ( 'NONE', #278, #280, #223 ) ;
#329 = ORIENTED_EDGE ( 'NONE', *, *, #38, .T. ) ;
#330 = DIRECTION ( 'NONE',  ( 0.000000000000000000, 0.000000000000000000, 1.000000000000000000 ) ) ;
#331 = CIRCLE ( 'NONE', #292, 6.000000000000000888 ) ;
#332 = AXIS2_PLACEMENT_3D ( 'NONE', #265, #352, #29 ) ;
#333 = ADVANCED_BREP_SHAPE_REPRESENTATION ( 'bcb3', ( #316, #237 ), #60 ) ;
#334 = LINE ( 'NONE', #70, #85 ) ;
#335 = PRODUCT_DEFINITION ( 'NEZNÁMÝ', '', #222, #343 ) ;
#336 = DIRECTION ( 'NONE',  ( 0.000000000000000000, 0.000000000000000000, 1.000000000000000000 ) ) ;
#337 = ORIENTED_EDGE ( 'NONE', *, *, #371, .F. ) ;
#338 = COORDINATED_UNIVERSAL_TIME_OFFSET ( 1, 0, .AHEAD. ) ;
#339 = ORIENTED_EDGE ( 'NONE', *, *, #360, .F. ) ;
#340 = EDGE_CURVE ( 'NONE', #102, #296, #10, .T. ) ;
#341 = DIRECTION ( 'NONE',  ( -0.000000000000000000, -0.000000000000000000, -1.000000000000000000 ) ) ;
#342 = PERSON_AND_ORGANIZATION ( #42, #268 ) ;
#343 = DESIGN_CONTEXT ( 'detailed design', #348, 'design' ) ;
#344 = DIRECTION ( 'NONE',  ( -0.000000000000000000, -0.000000000000000000, -1.000000000000000000 ) ) ;
#345 = CARTESIAN_POINT ( 'NONE',  ( 6.700000000000001066, 0.000000000000000000, 6.999999999999999112 ) ) ;
#346 = PERSON_AND_ORGANIZATION ( #42, #268 ) ;
#347 = CYLINDRICAL_SURFACE ( 'NONE', #15, 4.099999999999999645 ) ;
#348 = APPLICATION_CONTEXT ( 'configuration controlled 3d designs of mechanical parts and assemblies' ) ;
#349 = EDGE_CURVE ( 'NONE', #266, #20, #105, .T. ) ;
#350 = CIRCLE ( 'NONE', #289, 4.099999999999999645 ) ;
#351 = ADVANCED_FACE ( 'NONE', ( #295, #244 ), #297, .T. ) ;
#352 = DIRECTION ( 'NONE',  ( -0.000000000000000000, -0.000000000000000000, -1.000000000000000000 ) ) ;
#353 = ORIENTED_EDGE ( 'NONE', *, *, #247, .T. ) ;
#354 = CARTESIAN_POINT ( 'NONE',  ( 0.000000000000000000, 0.000000000000000000, 7.699999999999998401 ) ) ;
#355 = ORIENTED_EDGE ( 'NONE', *, *, #115, .F. ) ;
#356 = DIRECTION ( 'NONE',  ( 0.000000000000000000, 0.000000000000000000, -1.000000000000000000 ) ) ;
#357 = LOCAL_TIME ( 16, 35, 45.00000000000000000, #380 ) ;
#358 = EDGE_LOOP ( 'NONE', ( #193, #251 ) ) ;
#359 = CYLINDRICAL_SURFACE ( 'NONE', #256, 6.000000000000000888 ) ;
#360 = EDGE_CURVE ( 'NONE', #88, #298, #151, .T. ) ;
#361 = ORIENTED_EDGE ( 'NONE', *, *, #52, .F. ) ;
#362 = AXIS2_PLACEMENT_3D ( 'NONE', #71, #104, #308 ) ;
#363 = VERTEX_POINT ( 'NONE', #269 ) ;
#364 = CARTESIAN_POINT ( 'NONE',  ( 0.000000000000000000, 0.000000000000000000, 7.000000000000000000 ) ) ;
#365 = APPROVAL ( #309, 'NEURÈENÝ' ) ;
#366 = AXIS2_PLACEMENT_3D ( 'NONE', #130, #242, #14 ) ;
#367 =( NAMED_UNIT ( * ) PLANE_ANGLE_UNIT ( ) SI_UNIT ( $, .RADIAN. ) );
#368 = CARTESIAN_POINT ( 'NONE',  ( 0.000000000000000000, 0.000000000000000000, 107.0000000000000142 ) ) ;
#369 = CARTESIAN_POINT ( 'NONE',  ( 0.000000000000000000, 0.000000000000000000, 0.000000000000000000 ) ) ;
#370 = ORIENTED_EDGE ( 'NONE', *, *, #93, .F. ) ;
#371 = EDGE_CURVE ( 'NONE', #20, #266, #30, .T. ) ;
#372 = DIRECTION ( 'NONE',  ( 1.000000000000000000, 0.000000000000000000, 0.000000000000000000 ) ) ;
#373 = VECTOR ( 'NONE', #287, 1000.000000000000000 ) ;
#374 = APPROVAL_PERSON_ORGANIZATION ( #103, #209, #165 ) ;
#375 = PERSON_AND_ORGANIZATION ( #42, #268 ) ;
#376 = DIRECTION ( 'NONE',  ( 0.000000000000000000, -1.000000000000000000, 0.000000000000000000 ) ) ;
#377 = DIRECTION ( 'NONE',  ( -0.000000000000000000, -0.000000000000000000, -1.000000000000000000 ) ) ;
#378 = CYLINDRICAL_SURFACE ( 'NONE', #332, 10.00000000000000000 ) ;
#379 = TOROIDAL_SURFACE ( 'NONE', #283, 6.700000000000001066, 0.6999999999999999556 ) ;
#380 = COORDINATED_UNIVERSAL_TIME_OFFSET ( 1, 0, .AHEAD. ) ;
#381 = CIRCLE ( 'NONE', #366, 10.00000000000000000 ) ;
ENDSEC;
END-ISO-10303-21;
