ISO-10303-21;
HEADER;
FILE_DESCRIPTION (( 'STEP AP203' ),
    '1' );
FILE_NAME ('3817.STEP',
    '2022-07-08T15:37:31',
    ( '' ),
    ( '' ),
    'SwSTEP 2.0',
    'SolidWorks 2019',
    '' );
FILE_SCHEMA (( 'CONFIG_CONTROL_DESIGN' ));
ENDSEC;

DATA;
#1 = FACE_OUTER_BOUND ( 'NONE', #143, .T. ) ;
#2 =( GEOMETRIC_REPRESENTATION_CONTEXT ( 3 ) GLOBAL_UNCERTAINTY_ASSIGNED_CONTEXT ( ( #278 ) ) GLOBAL_UNIT_ASSIGNED_CONTEXT ( ( #5, #98, #272 ) ) REPRESENTATION_CONTEXT ( 'NONE', 'WORKASPACE' ) );
#3 = DIRECTION ( 'NONE',  ( 1.000000000000000000, 0.000000000000000000, -0.000000000000000000 ) ) ;
#4 = CARTESIAN_POINT ( 'NONE',  ( -3.500000000000000444, 4.286263797015737088E-16, 5.499999999999949374 ) ) ;
#5 =( LENGTH_UNIT ( ) NAMED_UNIT ( * ) SI_UNIT ( .MILLI., .METRE. ) );
#6 = CARTESIAN_POINT ( 'NONE',  ( 0.000000000000000000, 0.000000000000000000, 605.0000000000000000 ) ) ;
#7 = DATE_AND_TIME ( #340, #178 ) ;
#8 = DIRECTION ( 'NONE',  ( -0.000000000000000000, -0.000000000000000000, -1.000000000000000000 ) ) ;
#9 = ORIENTED_EDGE ( 'NONE', *, *, #281, .F. ) ;
#10 = ADVANCED_FACE ( 'NONE', ( #280 ), #80, .T. ) ;
#11 = VECTOR ( 'NONE', #120, 1000.000000000000000 ) ;
#12 = ORIENTED_EDGE ( 'NONE', *, *, #197, .T. ) ;
#13 = ADVANCED_FACE ( 'NONE', ( #141 ), #81, .T. ) ;
#14 = DIRECTION ( 'NONE',  ( 0.000000000000000000, 0.000000000000000000, 1.000000000000000000 ) ) ;
#15 = ORIENTED_EDGE ( 'NONE', *, *, #261, .T. ) ;
#16 = AXIS2_PLACEMENT_3D ( 'NONE', #262, #24, #322 ) ;
#17 = ORIENTED_EDGE ( 'NONE', *, *, #165, .F. ) ;
#18 = AXIS2_PLACEMENT_3D ( 'NONE', #125, #359, #33 ) ;
#19 = CARTESIAN_POINT ( 'NONE',  ( 3.500000000000000444, 0.000000000000000000, 5.499999999999949374 ) ) ;
#20 = CARTESIAN_POINT ( 'NONE',  ( 0.000000000000000000, 0.000000000000000000, 5.000000000000000000 ) ) ;
#21 = EDGE_CURVE ( 'NONE', #335, #168, #210, .T. ) ;
#22 = DIRECTION ( 'NONE',  ( 0.000000000000000000, 0.000000000000000000, 1.000000000000000000 ) ) ;
#23 = VECTOR ( 'NONE', #35, 1000.000000000000000 ) ;
#24 = DIRECTION ( 'NONE',  ( 0.000000000000000000, 0.000000000000000000, 1.000000000000000000 ) ) ;
#25 = MANIFOLD_SOLID_BREP ( 'Odebrat vysunutím3', #223 ) ;
#26 = ORIENTED_EDGE ( 'NONE', *, *, #334, .T. ) ;
#27 = DIRECTION ( 'NONE',  ( 1.000000000000000000, 0.000000000000000000, 0.000000000000000000 ) ) ;
#28 = EDGE_LOOP ( 'NONE', ( #104, #246 ) ) ;
#29 = CARTESIAN_POINT ( 'NONE',  ( -3.000000000000000444, 0.000000000000000000, 605.0000000000000000 ) ) ;
#30 = AXIS2_PLACEMENT_3D ( 'NONE', #379, #86, #233 ) ;
#31 = ORIENTED_EDGE ( 'NONE', *, *, #334, .F. ) ;
#32 = ORIENTED_EDGE ( 'NONE', *, *, #137, .F. ) ;
#33 = DIRECTION ( 'NONE',  ( -1.000000000000000000, 0.000000000000000000, 0.000000000000000000 ) ) ;
#34 = CIRCLE ( 'NONE', #172, 3.500000000000000444 ) ;
#35 = DIRECTION ( 'NONE',  ( -0.000000000000000000, -0.000000000000000000, -1.000000000000000000 ) ) ;
#36 = CYLINDRICAL_SURFACE ( 'NONE', #18, 6.000000000000000888 ) ;
#37 = EDGE_CURVE ( 'NONE', #342, #252, #269, .T. ) ;
#38 = AXIS2_PLACEMENT_3D ( 'NONE', #200, #22, #377 ) ;
#39 = PERSON_AND_ORGANIZATION_ROLE ( 'design_supplier' ) ;
#40 = APPROVAL_STATUS ( 'not_yet_approved' ) ;
#41 = EDGE_LOOP ( 'NONE', ( #283, #191, #126, #198 ) ) ;
#42 = ORIENTED_EDGE ( 'NONE', *, *, #137, .T. ) ;
#43 = CALENDAR_DATE ( 2022, 8, 7 ) ;
#44 = VERTEX_POINT ( 'NONE', #74 ) ;
#45 = EDGE_LOOP ( 'NONE', ( #17, #370, #42, #167 ) ) ;
#46 = CALENDAR_DATE ( 2022, 8, 7 ) ;
#47 = ORIENTED_EDGE ( 'NONE', *, *, #378, .T. ) ;
#48 = CALENDAR_DATE ( 2022, 8, 7 ) ;
#49 = VERTEX_POINT ( 'NONE', #305 ) ;
#50 = DIRECTION ( 'NONE',  ( -1.000000000000000000, 0.000000000000000000, 0.000000000000000000 ) ) ;
#51 = CIRCLE ( 'NONE', #357, 1.750000000000000000 ) ;
#52 = CC_DESIGN_APPROVAL ( #244, ( #150 ) ) ;
#53 = CARTESIAN_POINT ( 'NONE',  ( 0.000000000000000000, 0.000000000000000000, 605.0000000000000000 ) ) ;
#54 = CARTESIAN_POINT ( 'NONE',  ( -3.000000000000000444, 0.000000000000000000, 5.499999999999949374 ) ) ;
#55 = EDGE_CURVE ( 'NONE', #49, #101, #107, .T. ) ;
#56 = LINE ( 'NONE', #177, #369 ) ;
#57 = AXIS2_PLACEMENT_3D ( 'NONE', #274, #373, #113 ) ;
#58 = APPROVAL ( #108, 'NEURÈENÝ' ) ;
#59 = DIRECTION ( 'NONE',  ( 0.000000000000000000, -1.000000000000000000, 0.000000000000000000 ) ) ;
#60 = PRODUCT_DEFINITION_FORMATION_WITH_SPECIFIED_SOURCE ( 'LIBOVOLNÝ', '', #224, .NOT_KNOWN. ) ;
#61 = DIRECTION ( 'NONE',  ( 0.000000000000000000, 0.000000000000000000, -1.000000000000000000 ) ) ;
#62 = CC_DESIGN_DATE_AND_TIME_ASSIGNMENT ( #251, #367, ( #150 ) ) ;
#63 = CARTESIAN_POINT ( 'NONE',  ( 1.750000000000000000, 2.143131898507868297E-16, 605.0000000000000000 ) ) ;
#64 = APPLICATION_CONTEXT ( 'configuration controlled 3d designs of mechanical parts and assemblies' ) ;
#65 = CC_DESIGN_PERSON_AND_ORGANIZATION_ASSIGNMENT ( #254, #79, ( #224 ) ) ;
#66 = DIRECTION ( 'NONE',  ( -0.000000000000000000, -0.000000000000000000, -1.000000000000000000 ) ) ;
#67 = AXIS2_PLACEMENT_3D ( 'NONE', #4, #294, #70 ) ;
#68 = CARTESIAN_POINT ( 'NONE',  ( 0.000000000000000000, 0.000000000000000000, 5.000000000000000000 ) ) ;
#69 = ADVANCED_FACE ( 'NONE', ( #352 ), #375, .T. ) ;
#70 = DIRECTION ( 'NONE',  ( -1.000000000000000000, 1.224646799147354440E-16, 0.000000000000000000 ) ) ;
#71 = APPROVAL ( #40, 'NEURÈENÝ' ) ;
#72 = ORIENTED_EDGE ( 'NONE', *, *, #130, .T. ) ;
#73 = APPLICATION_PROTOCOL_DEFINITION ( 'international standard', 'config_control_design', 1994, #358 ) ;
#74 = CARTESIAN_POINT ( 'NONE',  ( 3.000000000000000444, 3.673940397442060361E-16, 605.0000000000000000 ) ) ;
#75 = APPROVAL_STATUS ( 'not_yet_approved' ) ;
#76 = ORIENTED_EDGE ( 'NONE', *, *, #21, .T. ) ;
#77 = ORIENTED_EDGE ( 'NONE', *, *, #267, .F. ) ;
#78 = LOCAL_TIME ( 17, 37, 31.00000000000000000, #304 ) ;
#79 = PERSON_AND_ORGANIZATION_ROLE ( 'design_owner' ) ;
#80 = CYLINDRICAL_SURFACE ( 'NONE', #186, 3.000000000000000444 ) ;
#81 = CYLINDRICAL_SURFACE ( 'NONE', #376, 3.000000000000000444 ) ;
#82 = PLANE ( 'NONE',  #38 ) ;
#83 = AXIS2_PLACEMENT_3D ( 'NONE', #230, #231, #148 ) ;
#84 = ADVANCED_FACE ( 'NONE', ( #205 ), #318, .F. ) ;
#85 = DIRECTION ( 'NONE',  ( 0.000000000000000000, 0.000000000000000000, -1.000000000000000000 ) ) ;
#86 = DIRECTION ( 'NONE',  ( 0.000000000000000000, 0.000000000000000000, 1.000000000000000000 ) ) ;
#87 = AXIS2_PLACEMENT_3D ( 'NONE', #248, #293, #27 ) ;
#88 = CARTESIAN_POINT ( 'NONE',  ( 0.000000000000000000, 0.000000000000000000, 0.000000000000000000 ) ) ;
#89 = CIRCLE ( 'NONE', #346, 6.000000000000000888 ) ;
#90 = CARTESIAN_POINT ( 'NONE',  ( -6.000000000000000888, 0.000000000000000000, 0.000000000000000000 ) ) ;
#91 = ORGANIZATION ( 'NEURÈENÝ', 'NEURÈENÝ', '' ) ;
#92 = FACE_OUTER_BOUND ( 'NONE', #145, .T. ) ;
#93 = CARTESIAN_POINT ( 'NONE',  ( 0.000000000000000000, 0.000000000000000000, 0.000000000000000000 ) ) ;
#94 = ORIENTED_EDGE ( 'NONE', *, *, #281, .T. ) ;
#95 = DIRECTION ( 'NONE',  ( 1.000000000000000000, 0.000000000000000000, 0.000000000000000000 ) ) ;
#96 = AXIS2_PLACEMENT_3D ( 'NONE', #263, #116, #347 ) ;
#97 = ORIENTED_EDGE ( 'NONE', *, *, #55, .T. ) ;
#98 =( NAMED_UNIT ( * ) PLANE_ANGLE_UNIT ( ) SI_UNIT ( $, .RADIAN. ) );
#99 = CARTESIAN_POINT ( 'NONE',  ( -3.500000000000000444, 4.286263797015737088E-16, 4.999999999999975131 ) ) ;
#100 = CARTESIAN_POINT ( 'NONE',  ( 0.000000000000000000, 0.000000000000000000, 0.000000000000000000 ) ) ;
#101 = VERTEX_POINT ( 'NONE', #151 ) ;
#102 = CIRCLE ( 'NONE', #193, 1.750000000000000000 ) ;
#103 = DATE_AND_TIME ( #46, #219 ) ;
#104 = ORIENTED_EDGE ( 'NONE', *, *, #267, .T. ) ;
#105 = APPLICATION_PROTOCOL_DEFINITION ( 'international standard', 'config_control_design', 1994, #64 ) ;
#106 = ORIENTED_EDGE ( 'NONE', *, *, #215, .F. ) ;
#107 = CIRCLE ( 'NONE', #87, 6.000000000000000888 ) ;
#108 = APPROVAL_STATUS ( 'not_yet_approved' ) ;
#109 = EDGE_LOOP ( 'NONE', ( #106, #77, #47, #72 ) ) ;
#110 = TOROIDAL_SURFACE ( 'NONE', #321, 3.500000000000000444, 0.5000000000000000000 ) ;
#111 = VERTEX_POINT ( 'NONE', #90 ) ;
#112 = PERSON_AND_ORGANIZATION ( #329, #91 ) ;
#113 = DIRECTION ( 'NONE',  ( 1.000000000000000000, 0.000000000000000000, 0.000000000000000000 ) ) ;
#114 = CARTESIAN_POINT ( 'NONE',  ( -6.000000000000000888, 0.000000000000000000, 5.000000000000000000 ) ) ;
#115 = EDGE_CURVE ( 'NONE', #310, #252, #56, .T. ) ;
#116 = DIRECTION ( 'NONE',  ( 0.000000000000000000, 0.000000000000000000, -1.000000000000000000 ) ) ;
#117 = CC_DESIGN_SECURITY_CLASSIFICATION ( #150, ( #60 ) ) ;
#118 = LINE ( 'NONE', #349, #353 ) ;
#119 = CARTESIAN_POINT ( 'NONE',  ( 3.500000000000000444, 0.000000000000000000, 4.999999999999975131 ) ) ;
#120 = DIRECTION ( 'NONE',  ( -0.000000000000000000, -0.000000000000000000, -1.000000000000000000 ) ) ;
#121 = VERTEX_POINT ( 'NONE', #236 ) ;
#122 = CIRCLE ( 'NONE', #227, 3.000000000000000444 ) ;
#123 = CARTESIAN_POINT ( 'NONE',  ( 3.000000000000000444, 3.673940397442060361E-16, 5.499999999999949374 ) ) ;
#124 = ORIENTED_EDGE ( 'NONE', *, *, #351, .T. ) ;
#125 = CARTESIAN_POINT ( 'NONE',  ( 0.000000000000000000, 0.000000000000000000, 5.000000000000000000 ) ) ;
#126 = ORIENTED_EDGE ( 'NONE', *, *, #192, .T. ) ;
#127 = DIRECTION ( 'NONE',  ( 0.000000000000000000, 0.000000000000000000, 1.000000000000000000 ) ) ;
#128 = APPROVAL_PERSON_ORGANIZATION ( #220, #71, #285 ) ;
#129 = DIRECTION ( 'NONE',  ( 1.000000000000000000, 0.000000000000000000, -0.000000000000000000 ) ) ;
#130 = EDGE_CURVE ( 'NONE', #188, #307, #253, .T. ) ;
#131 = ADVANCED_BREP_SHAPE_REPRESENTATION ( '3817', ( #25, #291 ), #2 ) ;
#132 = ORIENTED_EDGE ( 'NONE', *, *, #192, .F. ) ;
#133 = CARTESIAN_POINT ( 'NONE',  ( 0.000000000000000000, 0.000000000000000000, 0.000000000000000000 ) ) ;
#134 = ORIENTED_EDGE ( 'NONE', *, *, #115, .T. ) ;
#135 = COORDINATED_UNIVERSAL_TIME_OFFSET ( 1, 0, .AHEAD. ) ;
#136 = EDGE_LOOP ( 'NONE', ( #218, #164, #255, #333 ) ) ;
#137 = EDGE_CURVE ( 'NONE', #307, #188, #300, .T. ) ;
#138 = CC_DESIGN_APPROVAL ( #58, ( #144 ) ) ;
#139 = DESIGN_CONTEXT ( 'detailed design', #358, 'design' ) ;
#140 = ORIENTED_EDGE ( 'NONE', *, *, #201, .F. ) ;
#141 = FACE_OUTER_BOUND ( 'NONE', #45, .T. ) ;
#142 = COORDINATED_UNIVERSAL_TIME_OFFSET ( 1, 0, .AHEAD. ) ;
#143 = EDGE_LOOP ( 'NONE', ( #207, #32, #292, #221 ) ) ;
#144 = PRODUCT_DEFINITION ( 'NEZNÁMÝ', '', #60, #139 ) ;
#145 = EDGE_LOOP ( 'NONE', ( #194, #97 ) ) ;
#146 = CARTESIAN_POINT ( 'NONE',  ( 3.000000000000000444, 3.673940397442060361E-16, 605.0000000000000000 ) ) ;
#147 = CARTESIAN_POINT ( 'NONE',  ( 1.750000000000000000, 2.143131898507868297E-16, 0.000000000000000000 ) ) ;
#148 = DIRECTION ( 'NONE',  ( 1.000000000000000000, 0.000000000000000000, 0.000000000000000000 ) ) ;
#149 = CIRCLE ( 'NONE', #232, 0.5000000000000004441 ) ;
#150 = SECURITY_CLASSIFICATION ( '', '', #308 ) ;
#151 = CARTESIAN_POINT ( 'NONE',  ( -6.000000000000000888, 0.000000000000000000, 5.000000000000000000 ) ) ;
#152 = DIRECTION ( 'NONE',  ( -1.000000000000000000, 0.000000000000000000, 0.000000000000000000 ) ) ;
#153 = ADVANCED_FACE ( 'NONE', ( #381 ), #319, .F. ) ;
#154 = AXIS2_PLACEMENT_3D ( 'NONE', #316, #85, #152 ) ;
#155 = DIRECTION ( 'NONE',  ( 0.000000000000000000, 0.000000000000000000, 1.000000000000000000 ) ) ;
#156 = PLANE ( 'NONE',  #279 ) ;
#157 = CARTESIAN_POINT ( 'NONE',  ( 0.000000000000000000, 0.000000000000000000, 5.000000000000000000 ) ) ;
#158 = EDGE_LOOP ( 'NONE', ( #332, #366 ) ) ;
#159 = CARTESIAN_POINT ( 'NONE',  ( -3.000000000000000444, 0.000000000000000000, 605.0000000000000000 ) ) ;
#160 = CIRCLE ( 'NONE', #67, 0.4999999999999995559 ) ;
#161 = MECHANICAL_CONTEXT ( 'NONE', #64, 'mechanical' ) ;
#162 = EDGE_LOOP ( 'NONE', ( #365, #134, #26, #190 ) ) ;
#163 = APPROVAL_DATE_TIME ( #7, #244 ) ;
#164 = ORIENTED_EDGE ( 'NONE', *, *, #313, .T. ) ;
#165 = EDGE_CURVE ( 'NONE', #44, #339, #122, .T. ) ;
#166 = DATE_AND_TIME ( #43, #78 ) ;
#167 = ORIENTED_EDGE ( 'NONE', *, *, #378, .F. ) ;
#168 = VERTEX_POINT ( 'NONE', #119 ) ;
#169 = DIRECTION ( 'NONE',  ( -1.000000000000000000, 0.000000000000000000, 0.000000000000000000 ) ) ;
#170 = DIRECTION ( 'NONE',  ( 0.000000000000000000, 0.000000000000000000, 1.000000000000000000 ) ) ;
#171 = AXIS2_PLACEMENT_3D ( 'NONE', #268, #265, #214 ) ;
#172 = AXIS2_PLACEMENT_3D ( 'NONE', #20, #320, #260 ) ;
#173 = APPROVAL_PERSON_ORGANIZATION ( #112, #58, #275 ) ;
#174 = ADVANCED_FACE ( 'NONE', ( #350 ), #331, .F. ) ;
#175 = LINE ( 'NONE', #114, #11 ) ;
#176 = FACE_BOUND ( 'NONE', #222, .T. ) ;
#177 = CARTESIAN_POINT ( 'NONE',  ( 1.750000000000000000, 2.143131898507868297E-16, 605.0000000000000000 ) ) ;
#178 = LOCAL_TIME ( 17, 37, 31.00000000000000000, #189 ) ;
#179 = DIRECTION ( 'NONE',  ( 0.000000000000000000, 0.000000000000000000, -1.000000000000000000 ) ) ;
#180 = PLANE ( 'NONE',  #256 ) ;
#181 = CARTESIAN_POINT ( 'NONE',  ( -1.750000000000000000, 0.000000000000000000, 0.000000000000000000 ) ) ;
#182 = APPROVAL_PERSON_ORGANIZATION ( #364, #244, #225 ) ;
#183 = LINE ( 'NONE', #212, #217 ) ;
#184 = DIRECTION ( 'NONE',  ( 1.000000000000000000, 0.000000000000000000, 0.000000000000000000 ) ) ;
#185 = DIRECTION ( 'NONE',  ( 1.000000000000000000, 0.000000000000000000, 0.000000000000000000 ) ) ;
#186 = AXIS2_PLACEMENT_3D ( 'NONE', #196, #8, #50 ) ;
#187 = AXIS2_PLACEMENT_3D ( 'NONE', #157, #127, #185 ) ;
#188 = VERTEX_POINT ( 'NONE', #54 ) ;
#189 = COORDINATED_UNIVERSAL_TIME_OFFSET ( 1, 0, .AHEAD. ) ;
#190 = ORIENTED_EDGE ( 'NONE', *, *, #264, .F. ) ;
#191 = ORIENTED_EDGE ( 'NONE', *, *, #380, .F. ) ;
#192 = EDGE_CURVE ( 'NONE', #101, #111, #175, .T. ) ;
#193 = AXIS2_PLACEMENT_3D ( 'NONE', #93, #66, #239 ) ;
#194 = ORIENTED_EDGE ( 'NONE', *, *, #380, .T. ) ;
#195 = PERSON_AND_ORGANIZATION ( #329, #91 ) ;
#196 = CARTESIAN_POINT ( 'NONE',  ( 0.000000000000000000, 0.000000000000000000, 605.0000000000000000 ) ) ;
#197 = EDGE_CURVE ( 'NONE', #168, #335, #34, .T. ) ;
#198 = ORIENTED_EDGE ( 'NONE', *, *, #201, .T. ) ;
#199 = CC_DESIGN_DATE_AND_TIME_ASSIGNMENT ( #166, #249, ( #144 ) ) ;
#200 = CARTESIAN_POINT ( 'NONE',  ( 0.000000000000000000, 0.000000000000000000, 0.000000000000000000 ) ) ;
#201 = EDGE_CURVE ( 'NONE', #111, #286, #309, .T. ) ;
#202 = LINE ( 'NONE', #146, #271 ) ;
#203 = DIRECTION ( 'NONE',  ( -0.000000000000000000, -0.000000000000000000, -1.000000000000000000 ) ) ;
#204 = AXIS2_PLACEMENT_3D ( 'NONE', #288, #258, #287 ) ;
#205 = FACE_OUTER_BOUND ( 'NONE', #363, .T. ) ;
#206 = DIRECTION ( 'NONE',  ( 1.000000000000000000, 0.000000000000000000, 0.000000000000000000 ) ) ;
#207 = ORIENTED_EDGE ( 'NONE', *, *, #313, .F. ) ;
#208 = CARTESIAN_POINT ( 'NONE',  ( 6.000000000000000888, 7.347880794884120722E-16, 0.000000000000000000 ) ) ;
#209 = CC_DESIGN_PERSON_AND_ORGANIZATION_ASSIGNMENT ( #195, #39, ( #60 ) ) ;
#210 = CIRCLE ( 'NONE', #57, 3.500000000000000444 ) ;
#211 = CARTESIAN_POINT ( 'NONE',  ( 0.000000000000000000, 0.000000000000000000, 605.0000000000000000 ) ) ;
#212 = CARTESIAN_POINT ( 'NONE',  ( -1.750000000000000000, 0.000000000000000000, 605.0000000000000000 ) ) ;
#213 = EDGE_CURVE ( 'NONE', #307, #168, #149, .T. ) ;
#214 = DIRECTION ( 'NONE',  ( 1.000000000000000000, 0.000000000000000000, 0.000000000000000000 ) ) ;
#215 = EDGE_CURVE ( 'NONE', #44, #307, #202, .T. ) ;
#216 = PERSON_AND_ORGANIZATION ( #329, #91 ) ;
#217 = VECTOR ( 'NONE', #61, 1000.000000000000000 ) ;
#218 = ORIENTED_EDGE ( 'NONE', *, *, #130, .F. ) ;
#219 = LOCAL_TIME ( 17, 37, 31.00000000000000000, #362 ) ;
#220 = PERSON_AND_ORGANIZATION ( #329, #91 ) ;
#221 = ORIENTED_EDGE ( 'NONE', *, *, #21, .F. ) ;
#222 = EDGE_LOOP ( 'NONE', ( #337, #31 ) ) ;
#223 = CLOSED_SHELL ( 'NONE', ( #153, #174, #13, #325, #69, #356, #259, #10, #299, #284, #84 ) ) ;
#224 = PRODUCT ( '3817', '3817', '', ( #161 ) ) ;
#225 = APPROVAL_ROLE ( '' ) ;
#226 = ORIENTED_EDGE ( 'NONE', *, *, #264, .T. ) ;
#227 = AXIS2_PLACEMENT_3D ( 'NONE', #53, #234, #206 ) ;
#228 = ORIENTED_EDGE ( 'NONE', *, *, #115, .F. ) ;
#229 = ORIENTED_EDGE ( 'NONE', *, *, #37, .T. ) ;
#230 = CARTESIAN_POINT ( 'NONE',  ( 0.000000000000000000, 0.000000000000000000, 5.499999999999949374 ) ) ;
#231 = DIRECTION ( 'NONE',  ( 0.000000000000000000, 0.000000000000000000, 1.000000000000000000 ) ) ;
#232 = AXIS2_PLACEMENT_3D ( 'NONE', #19, #59, #179 ) ;
#233 = DIRECTION ( 'NONE',  ( 1.000000000000000000, 0.000000000000000000, 0.000000000000000000 ) ) ;
#234 = DIRECTION ( 'NONE',  ( 0.000000000000000000, 0.000000000000000000, 1.000000000000000000 ) ) ;
#235 = EDGE_LOOP ( 'NONE', ( #140, #9 ) ) ;
#236 = CARTESIAN_POINT ( 'NONE',  ( -1.750000000000000000, 0.000000000000000000, 605.0000000000000000 ) ) ;
#237 = FACE_BOUND ( 'NONE', #314, .T. ) ;
#238 = ORIENTED_EDGE ( 'NONE', *, *, #55, .F. ) ;
#239 = DIRECTION ( 'NONE',  ( 1.000000000000000000, 0.000000000000000000, 0.000000000000000000 ) ) ;
#240 = CARTESIAN_POINT ( 'NONE',  ( 0.000000000000000000, 0.000000000000000000, 0.000000000000000000 ) ) ;
#241 = PRODUCT_DEFINITION_SHAPE ( 'NONE', 'NONE',  #144 ) ;
#242 = FACE_OUTER_BOUND ( 'NONE', #28, .T. ) ;
#243 = DIRECTION ( 'NONE',  ( 1.000000000000000000, 0.000000000000000000, 0.000000000000000000 ) ) ;
#244 = APPROVAL ( #75, 'NEURÈENÝ' ) ;
#245 = DATE_AND_TIME ( #247, #341 ) ;
#246 = ORIENTED_EDGE ( 'NONE', *, *, #165, .T. ) ;
#247 = CALENDAR_DATE ( 2022, 8, 7 ) ;
#248 = CARTESIAN_POINT ( 'NONE',  ( 0.000000000000000000, 0.000000000000000000, 5.000000000000000000 ) ) ;
#249 = DATE_TIME_ROLE ( 'creation_date' ) ;
#250 = CARTESIAN_POINT ( 'NONE',  ( 0.000000000000000000, 0.000000000000000000, 605.0000000000000000 ) ) ;
#251 = DATE_AND_TIME ( #48, #302 ) ;
#252 = VERTEX_POINT ( 'NONE', #147 ) ;
#253 = CIRCLE ( 'NONE', #30, 3.000000000000000444 ) ;
#254 = PERSON_AND_ORGANIZATION ( #329, #91 ) ;
#255 = ORIENTED_EDGE ( 'NONE', *, *, #197, .F. ) ;
#256 = AXIS2_PLACEMENT_3D ( 'NONE', #298, #354, #129 ) ;
#257 = DIRECTION ( 'NONE',  ( -0.000000000000000000, -0.000000000000000000, -1.000000000000000000 ) ) ;
#258 = DIRECTION ( 'NONE',  ( -0.000000000000000000, -0.000000000000000000, -1.000000000000000000 ) ) ;
#259 = ADVANCED_FACE ( 'NONE', ( #176, #374 ), #82, .F. ) ;
#260 = DIRECTION ( 'NONE',  ( 1.000000000000000000, 0.000000000000000000, 0.000000000000000000 ) ) ;
#261 = EDGE_CURVE ( 'NONE', #49, #286, #118, .T. ) ;
#262 = CARTESIAN_POINT ( 'NONE',  ( 0.000000000000000000, 0.000000000000000000, 5.499999999999949374 ) ) ;
#263 = CARTESIAN_POINT ( 'NONE',  ( 0.000000000000000000, 0.000000000000000000, 605.0000000000000000 ) ) ;
#264 = EDGE_CURVE ( 'NONE', #121, #342, #183, .T. ) ;
#265 = DIRECTION ( 'NONE',  ( 0.000000000000000000, 0.000000000000000000, 1.000000000000000000 ) ) ;
#266 = DIRECTION ( 'NONE',  ( 0.000000000000000000, 0.000000000000000000, 1.000000000000000000 ) ) ;
#267 = EDGE_CURVE ( 'NONE', #339, #44, #297, .T. ) ;
#268 = CARTESIAN_POINT ( 'NONE',  ( 0.000000000000000000, 0.000000000000000000, 605.0000000000000000 ) ) ;
#269 = CIRCLE ( 'NONE', #345, 1.750000000000000000 ) ;
#270 = DIRECTION ( 'NONE',  ( 0.000000000000000000, 0.000000000000000000, 1.000000000000000000 ) ) ;
#271 = VECTOR ( 'NONE', #257, 1000.000000000000000 ) ;
#272 =( NAMED_UNIT ( * ) SI_UNIT ( $, .STERADIAN. ) SOLID_ANGLE_UNIT ( ) );
#273 = PERSON_AND_ORGANIZATION_ROLE ( 'creator' ) ;
#274 = CARTESIAN_POINT ( 'NONE',  ( 0.000000000000000000, 0.000000000000000000, 5.000000000000000000 ) ) ;
#275 = APPROVAL_ROLE ( '' ) ;
#276 = EDGE_LOOP ( 'NONE', ( #238, #15, #94, #132 ) ) ;
#277 = PRODUCT_RELATED_PRODUCT_CATEGORY ( 'detail', '', ( #224 ) ) ;
#278 = UNCERTAINTY_MEASURE_WITH_UNIT (LENGTH_MEASURE( 1.000000000000000082E-05 ), #5, 'distance_accuracy_value', 'NONE');
#279 = AXIS2_PLACEMENT_3D ( 'NONE', #68, #266, #3 ) ;
#280 = FACE_OUTER_BOUND ( 'NONE', #109, .T. ) ;
#281 = EDGE_CURVE ( 'NONE', #286, #111, #89, .T. ) ;
#282 = PERSON_AND_ORGANIZATION_ROLE ( 'classification_officer' ) ;
#283 = ORIENTED_EDGE ( 'NONE', *, *, #261, .F. ) ;
#284 = ADVANCED_FACE ( 'NONE', ( #1 ), #110, .F. ) ;
#285 = APPROVAL_ROLE ( '' ) ;
#286 = VERTEX_POINT ( 'NONE', #208 ) ;
#287 = DIRECTION ( 'NONE',  ( -1.000000000000000000, 0.000000000000000000, 0.000000000000000000 ) ) ;
#288 = CARTESIAN_POINT ( 'NONE',  ( 0.000000000000000000, 0.000000000000000000, 5.000000000000000000 ) ) ;
#289 = EDGE_CURVE ( 'NONE', #121, #310, #51, .T. ) ;
#290 = DIRECTION ( 'NONE',  ( 0.000000000000000000, 0.000000000000000000, -1.000000000000000000 ) ) ;
#291 = AXIS2_PLACEMENT_3D ( 'NONE', #100, #14, #371 ) ;
#292 = ORIENTED_EDGE ( 'NONE', *, *, #213, .T. ) ;
#293 = DIRECTION ( 'NONE',  ( 0.000000000000000000, 0.000000000000000000, 1.000000000000000000 ) ) ;
#294 = DIRECTION ( 'NONE',  ( 1.224646799147353207E-16, 1.000000000000000000, -0.000000000000000000 ) ) ;
#295 = CC_DESIGN_PERSON_AND_ORGANIZATION_ASSIGNMENT ( #306, #338, ( #144 ) ) ;
#296 = DIRECTION ( 'NONE',  ( 1.000000000000000000, 0.000000000000000000, 0.000000000000000000 ) ) ;
#297 = CIRCLE ( 'NONE', #171, 3.000000000000000444 ) ;
#298 = CARTESIAN_POINT ( 'NONE',  ( 0.000000000000000000, 0.000000000000000000, 605.0000000000000000 ) ) ;
#299 = ADVANCED_FACE ( 'NONE', ( #326, #242 ), #180, .T. ) ;
#300 = CIRCLE ( 'NONE', #16, 3.000000000000000444 ) ;
#301 = CIRCLE ( 'NONE', #187, 6.000000000000000888 ) ;
#302 = LOCAL_TIME ( 17, 37, 31.00000000000000000, #142 ) ;
#303 = PERSON_AND_ORGANIZATION ( #329, #91 ) ;
#304 = COORDINATED_UNIVERSAL_TIME_OFFSET ( 1, 0, .AHEAD. ) ;
#305 = CARTESIAN_POINT ( 'NONE',  ( 6.000000000000000888, 7.347880794884120722E-16, 5.000000000000000000 ) ) ;
#306 = PERSON_AND_ORGANIZATION ( #329, #91 ) ;
#307 = VERTEX_POINT ( 'NONE', #123 ) ;
#308 = SECURITY_CLASSIFICATION_LEVEL ( 'unclassified' ) ;
#309 = CIRCLE ( 'NONE', #330, 6.000000000000000888 ) ;
#310 = VERTEX_POINT ( 'NONE', #63 ) ;
#311 = SHAPE_DEFINITION_REPRESENTATION ( #241, #131 ) ;
#312 = DIRECTION ( 'NONE',  ( -0.000000000000000000, -0.000000000000000000, -1.000000000000000000 ) ) ;
#313 = EDGE_CURVE ( 'NONE', #188, #335, #160, .T. ) ;
#314 = EDGE_LOOP ( 'NONE', ( #12, #76 ) ) ;
#315 = CIRCLE ( 'NONE', #372, 1.750000000000000000 ) ;
#316 = CARTESIAN_POINT ( 'NONE',  ( 0.000000000000000000, 0.000000000000000000, 605.0000000000000000 ) ) ;
#317 = CC_DESIGN_PERSON_AND_ORGANIZATION_ASSIGNMENT ( #216, #282, ( #150 ) ) ;
#318 = CYLINDRICAL_SURFACE ( 'NONE', #154, 1.750000000000000000 ) ;
#319 = CYLINDRICAL_SURFACE ( 'NONE', #96, 1.750000000000000000 ) ;
#320 = DIRECTION ( 'NONE',  ( -0.000000000000000000, -0.000000000000000000, -1.000000000000000000 ) ) ;
#321 = AXIS2_PLACEMENT_3D ( 'NONE', #360, #324, #95 ) ;
#322 = DIRECTION ( 'NONE',  ( 1.000000000000000000, 0.000000000000000000, 0.000000000000000000 ) ) ;
#323 = FACE_OUTER_BOUND ( 'NONE', #276, .T. ) ;
#324 = DIRECTION ( 'NONE',  ( 0.000000000000000000, 0.000000000000000000, 1.000000000000000000 ) ) ;
#325 = ADVANCED_FACE ( 'NONE', ( #323 ), #36, .T. ) ;
#326 = FACE_BOUND ( 'NONE', #158, .T. ) ;
#327 = DIRECTION ( 'NONE',  ( 0.000000000000000000, 0.000000000000000000, 1.000000000000000000 ) ) ;
#328 = APPROVAL_DATE_TIME ( #245, #58 ) ;
#329 = PERSON ( 'NEURÈENÝ', 'NEURÈENÝ', 'NEURÈENÝ', ('NEURÈENÝ'), ('NEURÈENÝ'), ('NEURÈENÝ') ) ;
#330 = AXIS2_PLACEMENT_3D ( 'NONE', #88, #170, #344 ) ;
#331 = TOROIDAL_SURFACE ( 'NONE', #83, 3.500000000000000444, 0.5000000000000000000 ) ;
#332 = ORIENTED_EDGE ( 'NONE', *, *, #289, .F. ) ;
#333 = ORIENTED_EDGE ( 'NONE', *, *, #213, .F. ) ;
#334 = EDGE_CURVE ( 'NONE', #252, #342, #102, .T. ) ;
#335 = VERTEX_POINT ( 'NONE', #99 ) ;
#336 = APPROVAL_DATE_TIME ( #103, #71 ) ;
#337 = ORIENTED_EDGE ( 'NONE', *, *, #37, .F. ) ;
#338 = PERSON_AND_ORGANIZATION_ROLE ( 'creator' ) ;
#339 = VERTEX_POINT ( 'NONE', #29 ) ;
#340 = CALENDAR_DATE ( 2022, 8, 7 ) ;
#341 = LOCAL_TIME ( 17, 37, 31.00000000000000000, #135 ) ;
#342 = VERTEX_POINT ( 'NONE', #181 ) ;
#343 = DIRECTION ( 'NONE',  ( 1.000000000000000000, 0.000000000000000000, 0.000000000000000000 ) ) ;
#344 = DIRECTION ( 'NONE',  ( 1.000000000000000000, 0.000000000000000000, 0.000000000000000000 ) ) ;
#345 = AXIS2_PLACEMENT_3D ( 'NONE', #133, #361, #343 ) ;
#346 = AXIS2_PLACEMENT_3D ( 'NONE', #240, #270, #243 ) ;
#347 = DIRECTION ( 'NONE',  ( -1.000000000000000000, 0.000000000000000000, 0.000000000000000000 ) ) ;
#348 = CC_DESIGN_APPROVAL ( #71, ( #60 ) ) ;
#349 = CARTESIAN_POINT ( 'NONE',  ( 6.000000000000000888, 7.347880794884120722E-16, 5.000000000000000000 ) ) ;
#350 = FACE_OUTER_BOUND ( 'NONE', #136, .T. ) ;
#351 = EDGE_CURVE ( 'NONE', #310, #121, #315, .T. ) ;
#352 = FACE_OUTER_BOUND ( 'NONE', #41, .T. ) ;
#353 = VECTOR ( 'NONE', #203, 1000.000000000000000 ) ;
#354 = DIRECTION ( 'NONE',  ( 0.000000000000000000, 0.000000000000000000, 1.000000000000000000 ) ) ;
#355 = LINE ( 'NONE', #159, #23 ) ;
#356 = ADVANCED_FACE ( 'NONE', ( #237, #92 ), #156, .T. ) ;
#357 = AXIS2_PLACEMENT_3D ( 'NONE', #6, #327, #184 ) ;
#358 = APPLICATION_CONTEXT ( 'configuration controlled 3d designs of mechanical parts and assemblies' ) ;
#359 = DIRECTION ( 'NONE',  ( -0.000000000000000000, -0.000000000000000000, -1.000000000000000000 ) ) ;
#360 = CARTESIAN_POINT ( 'NONE',  ( 0.000000000000000000, 0.000000000000000000, 5.499999999999949374 ) ) ;
#361 = DIRECTION ( 'NONE',  ( -0.000000000000000000, -0.000000000000000000, -1.000000000000000000 ) ) ;
#362 = COORDINATED_UNIVERSAL_TIME_OFFSET ( 1, 0, .AHEAD. ) ;
#363 = EDGE_LOOP ( 'NONE', ( #228, #124, #226, #229 ) ) ;
#364 = PERSON_AND_ORGANIZATION ( #329, #91 ) ;
#365 = ORIENTED_EDGE ( 'NONE', *, *, #289, .T. ) ;
#366 = ORIENTED_EDGE ( 'NONE', *, *, #351, .F. ) ;
#367 = DATE_TIME_ROLE ( 'classification_date' ) ;
#368 = CC_DESIGN_PERSON_AND_ORGANIZATION_ASSIGNMENT ( #303, #273, ( #60 ) ) ;
#369 = VECTOR ( 'NONE', #290, 1000.000000000000000 ) ;
#370 = ORIENTED_EDGE ( 'NONE', *, *, #215, .T. ) ;
#371 = DIRECTION ( 'NONE',  ( 1.000000000000000000, 0.000000000000000000, 0.000000000000000000 ) ) ;
#372 = AXIS2_PLACEMENT_3D ( 'NONE', #211, #155, #296 ) ;
#373 = DIRECTION ( 'NONE',  ( -0.000000000000000000, -0.000000000000000000, -1.000000000000000000 ) ) ;
#374 = FACE_OUTER_BOUND ( 'NONE', #235, .T. ) ;
#375 = CYLINDRICAL_SURFACE ( 'NONE', #204, 6.000000000000000888 ) ;
#376 = AXIS2_PLACEMENT_3D ( 'NONE', #250, #312, #169 ) ;
#377 = DIRECTION ( 'NONE',  ( 1.000000000000000000, 0.000000000000000000, -0.000000000000000000 ) ) ;
#378 = EDGE_CURVE ( 'NONE', #339, #188, #355, .T. ) ;
#379 = CARTESIAN_POINT ( 'NONE',  ( 0.000000000000000000, 0.000000000000000000, 5.499999999999949374 ) ) ;
#380 = EDGE_CURVE ( 'NONE', #101, #49, #301, .T. ) ;
#381 = FACE_OUTER_BOUND ( 'NONE', #162, .T. ) ;
ENDSEC;
END-ISO-10303-21;
